  0
SECTION
  2
HEADER
  9
$ACADVER
  1
AC1009
  9
$INSBASE
 10
4036.1199134213538855
 20
132.8784885149823083
 30
0.0
  9
$EXTMIN
 10
4031.5529842875039321
 20
132.8784885149823083
 30
0.0
  9
$EXTMAX
 10
4037.0451104539051812
 20
139.0849440473612901
 30
0.0
  9
$LIMMIN
 10
0.0
 20
0.0
  9
$LIMMAX
 10
11.6929133858000007
 20
8.2677165353999982
  9
$ORTHOMODE
 70
     1
  9
$REGENMODE
 70
     1
  9
$FILLMODE
 70
     1
  9
$QTEXTMODE
 70
     0
  9
$MIRRTEXT
 70
     0
  9
$DRAGMODE
 70
     2
  9
$LTSCALE
 40
0.6431102362
  9
$OSMODE
 70
  4095
  9
$ATTMODE
 70
     1
  9
$TEXTSIZE
 40
0.2
  9
$TRACEWID
 40
0.05
  9
$TEXTSTYLE
  7
STANDARD
  9
$CLAYER
  8
0
  9
$CELTYPE
  6
BYLAYER
  9
$CECOLOR
 62
   256
  9
$DIMSCALE
 40
1.0
  9
$DIMASZ
 40
0.1875
  9
$DIMEXO
 40
0.0625
  9
$DIMDLI
 40
0.4443307087
  9
$DIMRND
 40
0.0
  9
$DIMDLE
 40
0.0
  9
$DIMEXE
 40
0.125
  9
$DIMTP
 40
0.01
  9
$DIMTM
 40
0.01
  9
$DIMTXT
 40
2.0
  9
$DIMCEN
 40
0.1052362205
  9
$DIMTSZ
 40
0.0
  9
$DIMTOL
 70
     1
  9
$DIMLIM
 70
     0
  9
$DIMTIH
 70
     1
  9
$DIMTOH
 70
     1
  9
$DIMSE1
 70
     0
  9
$DIMSE2
 70
     0
  9
$DIMTAD
 70
     0
  9
$DIMZIN
 70
     0
  9
$DIMBLK
  1

  9
$DIMASO
 70
     1
  9
$DIMSHO
 70
     1
  9
$DIMPOST
  1
\X
  9
$DIMAPOST
  1

  9
$DIMALT
 70
     1
  9
$DIMALTD
 70
     2
  9
$DIMALTF
 40
25.3999999999999986
  9
$DIMLFAC
 40
1.0
  9
$DIMTOFL
 70
     0
  9
$DIMTVP
 40
0.0
  9
$DIMTIX
 70
     0
  9
$DIMSOXD
 70
     0
  9
$DIMSAH
 70
     0
  9
$DIMBLK1
  1

  9
$DIMBLK2
  1

  9
$DIMSTYLE
  2
STANDARD
  9
$DIMCLRD
 70
     0
  9
$DIMCLRE
 70
     0
  9
$DIMCLRT
 70
     0
  9
$DIMTFAC
 40
1.0
  9
$DIMGAP
 40
0.09
  9
$LUNITS
 70
     2
  9
$LUPREC
 70
     4
  9
$SKETCHINC
 40
0.1
  9
$FILLETRAD
 40
0.0
  9
$AUNITS
 70
     0
  9
$AUPREC
 70
     0
  9
$MENU
  1
.
  9
$ELEVATION
 40
0.0
  9
$PELEVATION
 40
0.0
  9
$THICKNESS
 40
0.0
  9
$LIMCHECK
 70
     0
  9
$BLIPMODE
 70
     0
  9
$CHAMFERA
 40
0.0
  9
$CHAMFERB
 40
0.0
  9
$SKPOLY
 70
     0
  9
$TDCREATE
 40
2458060.468368056230247
  9
$TDUPDATE
 40
2458993.9841550919227302
  9
$TDINDWG
 40
0.3007362269
  9
$TDUSRTIMER
 40
0.3007362269
  9
$USRTIMER
 70
     1
  9
$ANGBASE
 50
0.0
  9
$ANGDIR
 70
     0
  9
$PDMODE
 70
     0
  9
$PDSIZE
 40
0.3125
  9
$PLINEWID
 40
0.0
  9
$COORDS
 70
     1
  9
$SPLFRAME
 70
     0
  9
$SPLINETYPE
 70
     6
  9
$SPLINESEGS
 70
     8
  9
$ATTDIA
 70
     1
  9
$ATTREQ
 70
     1
  9
$HANDLING
 70
     1
  9
$HANDSEED
  5
7028
  9
$SURFTAB1
 70
     6
  9
$SURFTAB2
 70
     6
  9
$SURFTYPE
 70
     6
  9
$SURFU
 70
     6
  9
$SURFV
 70
     6
  9
$UCSNAME
  2

  9
$UCSORG
 10
0.0
 20
0.0
 30
0.0
  9
$UCSXDIR
 10
1.0
 20
0.0
 30
0.0
  9
$UCSYDIR
 10
0.0
 20
1.0
 30
0.0
  9
$PUCSNAME
  2

  9
$PUCSORG
 10
0.0
 20
0.0
 30
0.0
  9
$PUCSXDIR
 10
1.0
 20
0.0
 30
0.0
  9
$PUCSYDIR
 10
0.0
 20
1.0
 30
0.0
  9
$USERI1
 70
     0
  9
$USERI2
 70
     0
  9
$USERI3
 70
     0
  9
$USERI4
 70
     0
  9
$USERI5
 70
     0
  9
$USERR1
 40
0.0
  9
$USERR2
 40
0.0
  9
$USERR3
 40
0.0
  9
$USERR4
 40
0.0
  9
$USERR5
 40
0.0
  9
$WORLDVIEW
 70
     1
  9
$SHADEDGE
 70
     3
  9
$SHADEDIF
 70
    70
  9
$TILEMODE
 70
     1
  9
$MAXACTVP
 70
    64
  9
$PLIMCHECK
 70
     0
  9
$PEXTMIN
 10
1.0000000000000000E+20
 20
1.0000000000000000E+20
 30
1.0000000000000000E+20
  9
$PEXTMAX
 10
-1.0000000000000000E+20
 20
-1.0000000000000000E+20
 30
-1.0000000000000000E+20
  9
$PLIMMIN
 10
0.0
 20
0.0
  9
$PLIMMAX
 10
12.0
 20
9.0
  9
$UNITMODE
 70
     0
  9
$VISRETAIN
 70
     1
  9
$PLINEGEN
 70
     0
  9
$PSLTSCALE
 70
     1
  0
ENDSEC
  0
SECTION
  2
TABLES
  0
TABLE
  2
VPORT
 70
     1
  0
VPORT
  2
*ACTIVE
 70
     0
 10
0.0
 20
0.0
 11
1.0
 21
1.0
 12
0.0
 22
0.0
 13
0.0
 23
0.0
 14
1.0
 24
1.0
 15
0.0
 25
0.0
 16
0.0
 26
0.0
 36
32.2247040420569419
 17
4034.299072265625
 27
135.9817199707030966
 37
0.0
 40
8.2965795392725976
 41
3.0808314087759809
 42
50.0
 43
0.0
 44
0.0
 50
0.0
 51
0.0
 71
     0
 72
   100
 73
     1
 74
     1
 75
     0
 76
     0
 77
     0
 78
     0
  0
ENDTAB
  0
TABLE
  2
LTYPE
 70
     2
  0
LTYPE
  2
CONTINUOUS
 70
     0
  3
Solid line
 72
    65
 73
     0
 40
0.0
  0
LTYPE
  2
PHANTOM2
 70
     0
  3
___ _ _ ___ _ _ ___ _ _ ___ _ _
 72
    65
 73
     6
 40
1.25
 49
0.625
 49
-0.125
 49
0.125
 49
-0.125
 49
0.125
 49
-0.125
  0
ENDTAB
  0
TABLE
  2
LAYER
 70
     2
  0
LAYER
  2
0
 70
     0
 62
   255
  6
CONTINUOUS
  0
LAYER
  2
DEFPOINTS
 70
     0
 62
     7
  6
CONTINUOUS
  0
ENDTAB
  0
TABLE
  2
STYLE
 70
     1
  0
STYLE
  2
STANDARD
 70
     0
 40
0.0
 41
0.8
 50
0.0
 71
     0
 42
0.2
  3
txt
  4

  0
ENDTAB
  0
TABLE
  2
VIEW
 70
     0
  0
ENDTAB
  0
TABLE
  2
UCS
 70
     0
  0
ENDTAB
  0
TABLE
  2
APPID
 70
     9
  0
APPID
  2
ACAD
 70
     0
  0
APPID
  2
ACAD_MLEADERVER
 70
     0
  0
APPID
  2
ACAD_EXEMPT_FROM_CAD_STANDARDS
 70
     0
  0
APPID
  2
ACAD_NAV_VCDISPLAY
 70
     0
  0
APPID
  2
ACAECLAYERSTANDARD
 70
     0
  0
APPID
  2
ACCMTRANSPARENCY
 70
     0
  0
APPID
  2
ACAD_DSTYLE_DIMJAG
 70
     0
  0
APPID
  2
ACAD_DSTYLE_DIMTALN
 70
     0
  0
APPID
  2
ACDBATTR
 70
     0
  0
ENDTAB
  0
TABLE
  2
DIMSTYLE
 70
     1
  0
DIMSTYLE
  2
STANDARD
 70
     0
  3

  4

  5

  6

  7

 40
1.0
 41
0.1875
 42
0.0625
 43
0.38
 44
0.125
 45
0.0
 46
0.0
 47
0.01
 48
0.01
140
0.15625
141
0.09
142
0.0
143
25.3999999999999986
144
1.0
145
0.0
146
1.0
147
0.09
 71
     1
 72
     0
 73
     1
 74
     1
 75
     0
 76
     0
 77
     0
 78
     4
170
     0
171
     2
172
     0
173
     0
174
     0
175
     0
176
     0
177
     0
178
     0
  0
ENDTAB
  0
ENDSEC
  0
SECTION
  2
BLOCKS
  0
BLOCK
  8
0
  2
$MODEL_SPACE
 70
     0
 10
0.0
 20
0.0
 30
0.0
  3
$MODEL_SPACE
  1

  0
ENDBLK
  5
21
  8
0
  0
BLOCK
 67
     1
  8
0
  2
$PAPER_SPACE
 70
     0
 10
0.0
 20
0.0
 30
0.0
  3
$PAPER_SPACE
  1

  0
ENDBLK
  5
1D
 67
     1
  8
0
  0
ENDSEC
  0
SECTION
  2
ENTITIES
  0
ATTDEF
  5
3930
  8
DEFPOINTS
 10
4036.1158552778929334
 20
132.8907597323338052
 30
0.0
 40
0.001
  1
K-74013T-4CD
  3

  2
MODELNUMBER
 70
     0
1001
ACDBATTR
1070
     0
1070
     1
  0
ATTDEF
  5
3931
  8
DEFPOINTS
 10
4036.1158552778929334
 20
132.8890930656671969
 30
0.0
 40
0.001
  1
TAUT
  3

  2
TRADENAME
 70
     0
1001
ACDBATTR
1070
     0
1070
     1
  0
ATTDEF
  5
3932
  8
DEFPOINTS
 10
4036.1158552778929334
 20
132.8874263990005034
 30
0.0
 40
0.001
  1
BATHROOM SINK FAUCET
  3

  2
PRODUCT
 70
     0
1001
ACDBATTR
1070
     0
1070
     1
  0
LINE
  5
6E21
  8
0
 10
4031.5529842875039321
 20
137.2637943521822876
 30
0.0
 11
4031.5529842875039321
 21
136.5470315464822875
 31
0.0
  0
LINE
  5
6E22
  8
0
 10
4031.9844290470041415
 20
136.4842140026823074
 30
0.0
 11
4031.9866049628049041
 21
136.4909107828823096
 31
0.0
  0
LINE
  5
6E23
  8
0
 10
4031.9929316142051903
 20
136.4839959294822904
 30
0.0
 11
4031.9956518446051632
 21
136.4923679378823067
 31
0.0
  0
LINE
  5
6E24
  8
0
 10
4032.0094734419039924
 20
136.4712043146822964
 30
0.0
 11
4032.012174380405213
 21
136.4795169486822886
 31
0.0
  0
LINE
  5
6E25
  8
0
 10
4032.0147128955049993
 20
136.4609434103822991
 30
0.0
 11
4032.0168381418047829
 21
136.4674842459822912
 31
0.0
  0
LINE
  5
6E26
  8
0
 10
4032.0185387949040887
 20
136.4727183181823023
 30
0.0
 11
4032.0218110518039794
 21
136.4827892892822945
 31
0.0
  0
LINE
  5
6E27
  8
0
 10
4032.0316149995041997
 20
136.449260612282302
 30
0.0
 11
4032.0337176805041963
 21
136.4557319987823121
 31
0.0
  0
LINE
  5
6E28
  8
0
 10
4032.0353998716041133
 20
136.460909250682306
 30
0.0
 11
4032.0386355497039403
 21
136.4708676439823023
 31
0.0
  0
LINE
  5
6E29
  8
0
 10
4032.0403437302038583
 20
136.4497385985822859
 30
0.0
 11
4032.0429912192048505
 21
136.4578867318822972
 31
0.0
  0
LINE
  5
6E2A
  8
0
 10
4032.0450301402051991
 20
136.464161885582314
 30
0.0
 11
4032.0486044833041888
 21
136.4751625825822998
 31
0.0
  0
LINE
  5
6E2B
  8
0
 10
4032.0575551268038907
 20
136.4390077051822914
 30
0.0
 11
4032.0601792859051784
 21
136.4470840361823036
 31
0.0
  0
LINE
  5
6E2C
  8
0
 10
4032.0621997447051399
 20
136.4533023691822962
 30
0.0
 11
4032.0659882259042206
 21
136.464962115382292
 31
0.0
  0
LINE
  5
6E2D
  8
0
 10
4032.0631098472049416
 20
136.429717092182301
 30
0.0
 11
4032.0651794868049365
 21
136.4360867877823011
 31
0.0
  0
LINE
  5
6E2E
  8
0
 10
4032.0668346685038159
 20
136.4411809134822988
 30
0.0
 11
4032.0700168975040469
 21
136.4509748072823072
 31
0.0
  0
LINE
  5
6E2F
  8
0
 10
4032.0724058888040418
 20
136.4583273663822922
 30
0.0
 11
4032.0750808027041785
 21
136.4665599048823026
 31
0.0
  0
LINE
  5
6E30
  8
0
 10
4032.0806475196040992
 20
136.4199903721822977
 30
0.0
 11
4032.0827031842040924
 21
136.4263170573823061
 31
0.0
  0
LINE
  5
6E31
  8
0
 10
4032.0843469507040027
 20
136.431376050582287
 30
0.0
 11
4032.087506612604102
 21
136.4411004898823023
 31
0.0
  0
LINE
  5
6E32
  8
0
 10
4032.0898781028040503
 20
136.4483991862823018
 30
0.0
 11
4032.0938023877051819
 21
136.4604768931822889
 31
0.0
  0
LINE
  5
6E33
  8
0
 10
4032.0896004777041526
 20
136.4211584596822888
 30
0.0
 11
4032.0921915955050281
 21
136.4291331003823018
 31
0.0
  0
LINE
  5
6E34
  8
0
 10
4032.0941859303038655
 20
136.435271031682305
 30
0.0
 11
4032.0979237432038644
 21
136.4467748368822981
 31
0.0
  0
LINE
  5
6E35
  8
0
 10
4032.1006804926050791
 20
136.4552592391823111
 30
0.0
 11
4032.1015571221041682
 21
136.4579572272822929
 31
0.0
  0
LINE
  5
6E36
  8
0
 10
4032.1074333144038064
 20
136.4123401620823017
 30
0.0
 11
4032.1100112355052261
 21
136.4202741875822937
 31
0.0
  0
LINE
  5
6E37
  8
0
 10
4032.1119951438040516
 20
136.4263800292823134
 30
0.0
 11
4032.1157127533051607
 21
136.4378216548822991
 31
0.0
  0
LINE
  5
6E38
  8
0
 10
4032.1184540210051637
 20
136.4462584092823079
 30
0.0
 11
4032.1202787071051716
 21
136.4518742155823077
 31
0.0
  0
LINE
  5
6E39
  8
0
 10
4032.1132677806040192
 20
136.403910518282288
 30
0.0
 11
4032.115304733404173
 21
136.4101796145822902
 31
0.0
  0
LINE
  5
6E3A
  8
0
 10
4032.1169332233048408
 20
136.415191590982289
 30
0.0
 11
4032.1200627049038303
 21
136.4248231448823105
 31
0.0
  0
LINE
  5
6E3B
  8
0
 10
4032.1224108091041671
 20
136.4320498666822914
 30
0.0
 11
4032.126734598603889
 21
136.445357122282303
 31
0.0
  0
LINE
  5
6E3C
  8
0
 10
4032.1314056452051773
 20
136.3960310000823029
 30
0.0
 11
4032.1334359016050257
 21
136.4022794866822892
 31
0.0
  0
LINE
  5
6E3D
  8
0
 10
4032.1350589264047812
 20
136.4072746434823102
 30
0.0
 11
4032.1381776171037927
 21
136.4168729865822911
 31
0.0
  0
LINE
  5
6E3E
  8
0
 10
4032.1405173651041878
 20
136.4240739904822988
 30
0.0
 11
4032.1448251507040368
 21
136.4373319911823046
 31
0.0
  0
LINE
  5
6E3F
  8
0
 10
4032.1405870229050379
 20
136.3979020905823063
 30
0.0
 11
4032.1431491273037864
 21
136.4057874372822994
 31
0.0
  0
LINE
  5
6E40
  8
0
 10
4032.1451205446041968
 20
136.4118548358823091
 30
0.0
 11
4032.1488139647040043
 21
136.4232220140823131
 31
0.0
  0
LINE
  5
6E41
  8
0
 10
4032.1515367090050859
 20
136.4316017594823052
 30
0.0
 11
4032.1545097608041033
 21
136.440751871982286
 31
0.0
  0
LINE
  5
6E42
  8
0
 10
4032.1590151304039864
 20
136.3909158482823045
 30
0.0
 11
4032.1615729601039675
 21
136.3987880386823122
 31
0.0
  0
LINE
  5
6E43
  8
0
 10
4032.1635410025041892
 20
136.4048450503823062
 30
0.0
 11
4032.1672278896039643
 21
136.4161921220822933
 31
0.0
  0
LINE
  5
6E44
  8
0
 10
4032.1699456336041294
 20
136.4245564779822928
 30
0.0
 11
4032.1732313458041972
 21
136.4346688602823008
 31
0.0
  0
LINE
  5
6E45
  8
0
 10
4032.1651047091040709
 20
136.3832713600822899
 30
0.0
 11
4032.1671289009041175
 21
136.3895011817822933
 31
0.0
  0
LINE
  5
6E46
  8
0
 10
4032.1687469774042256
 20
136.3944811090823066
 30
0.0
 11
4032.1718559000050845
 21
136.4040493891822905
 31
0.0
  0
LINE
  5
6E47
  8
0
 10
4032.1741880862041398
 20
136.4112271200822875
 30
0.0
 11
4032.1784813952040167
 21
136.424440566682307
 31
0.0
  0
LINE
  5
6E48
  8
0
 10
4032.1838262941041648
 20
136.3771883483823046
 30
0.0
 11
4032.1858504859042114
 21
136.3834181700823081
 31
0.0
  0
LINE
  5
6E49
  8
0
 10
4032.1929096712051432
 20
136.4051441083823022
 30
0.0
 11
4032.1972029802050201
 21
136.4183575549822933
 31
0.0
  0
LINE
  5
6E4A
  8
0
 10
4032.193246184203872
 20
136.3797935046823113
 30
0.0
 11
4032.195804013903853
 21
136.3876656950822905
 31
0.0
  0
LINE
  5
6E4B
  8
0
 10
4032.1977720563049843
 20
136.393722706782313
 30
0.0
 11
4032.2014589434038498
 21
136.4050697784823001
 31
0.0
  0
LINE
  5
6E4C
  8
0
 10
4032.204176687404015
 20
136.4134341343822996
 30
0.0
 11
4032.2074623996040827
 21
136.4235465166823076
 31
0.0
  0
LINE
  5
6E4D
  8
0
 10
4032.2122612466050668
 20
136.3746137235823142
 30
0.0
 11
4032.2148233510038153
 21
136.3824990702823072
 31
0.0
  0
LINE
  5
6E4E
  8
0
 10
4032.2167947683051352
 20
136.3885664688822885
 30
0.0
 11
4032.2204881884040333
 21
136.3999336470822925
 31
0.0
  0
LINE
  5
6E4F
  8
0
 10
4032.2232109327051148
 20
136.408313392482313
 30
0.0
 11
4032.2261839845041322
 21
136.4174635049822939
 31
0.0
  0
LINE
  5
6E50
  8
0
 10
4032.2185893377049979
 20
136.3677033011823028
 30
0.0
 11
4032.2206195941039368
 21
136.3739517877822891
 31
0.0
  0
LINE
  5
6E51
  8
0
 10
4032.2222426189050566
 20
136.3789469445823102
 30
0.0
 11
4032.2253613096040681
 21
136.388545287682291
 31
0.0
  0
LINE
  5
6E52
  8
0
 10
4032.2277010577049623
 20
136.3957462916822863
 30
0.0
 11
4032.2320088432038574
 21
136.4090042922823045
 31
0.0
  0
LINE
  5
6E53
  8
0
 10
4032.2378946430039832
 20
136.3634167959822889
 30
0.0
 11
4032.2399315959041814
 21
136.3696858922822912
 31
0.0
  0
LINE
  5
6E54
  8
0
 10
4032.2470376716050851
 20
136.3915561444823084
 30
0.0
 11
4032.251361461003853
 21
136.4048633999823039
 31
0.0
  0
LINE
  5
6E55
  8
0
 10
4032.2475696457040613
 20
136.3668071079823108
 30
0.0
 11
4032.2501475668050261
 21
136.3747411333822868
 31
0.0
  0
LINE
  5
6E56
  8
0
 10
4032.2521314750038073
 20
136.380846975182294
 30
0.0
 11
4032.2558490845049164
 21
136.3922886006822921
 31
0.0
  0
LINE
  5
6E57
  8
0
 10
4032.2585903522049193
 20
136.4007253550823009
 30
0.0
 11
4032.2604150383040178
 21
136.4063411613823007
 31
0.0
  0
LINE
  5
6E58
  8
0
 10
4032.2671799789040961
 20
136.3634593820823113
 30
0.0
 11
4032.2697710967049716
 21
136.3714340227822959
 31
0.0
  0
LINE
  5
6E59
  8
0
 10
4032.2717654315051732
 20
136.377571954082299
 30
0.0
 11
4032.2755032444051722
 21
136.3890757592822922
 31
0.0
  0
LINE
  5
6E5A
  8
0
 10
4032.278259993804113
 20
136.3975601616822928
 30
0.0
 11
4032.2791366233041117
 21
136.400258149682287
 31
0.0
  0
LINE
  5
6E5B
  8
0
 10
4032.2737364895037899
 20
136.3572519626823123
 30
0.0
 11
4032.2757921542038275
 21
136.3635786478822922
 31
0.0
  0
LINE
  5
6E5C
  8
0
 10
4032.2774359207041925
 20
136.3686376411822891
 30
0.0
 11
4032.2805955826038371
 21
136.3783620804823045
 31
0.0
  0
LINE
  5
6E5D
  8
0
 10
4032.2829670728051497
 20
136.3856607767822879
 30
0.0
 11
4032.286891357704917
 21
136.397738483782291
 31
0.0
  0
LINE
  5
6E5E
  8
0
 10
4032.2936419871048201
 20
136.3548126592822882
 30
0.0
 11
4032.2957116267039055
 21
136.3611823548822883
 31
0.0
  0
LINE
  5
6E5F
  8
0
 10
4032.2973668084041492
 20
136.366276480582286
 30
0.0
 11
4032.3005490374039255
 21
136.3760703743822944
 31
0.0
  0
LINE
  5
6E60
  8
0
 10
4032.3029380287039203
 20
136.3834229335822954
 30
0.0
 11
4032.305612942604057
 21
136.3916554720823058
 31
0.0
  0
LINE
  5
6E61
  8
0
 10
4032.3035967356040601
 20
136.3590639403822991
 30
0.0
 11
4032.3062208946039391
 21
136.3671402713823113
 31
0.0
  0
LINE
  5
6E62
  8
0
 10
4032.308241353503945
 20
136.3733586043823038
 30
0.0
 11
4032.3120298346048003
 21
136.3850183505822997
 31
0.0
  0
LINE
  5
6E63
  8
0
 10
4032.3238285088041266
 20
136.3576288103822947
 30
0.0
 11
4032.3264759978051188
 21
136.365776943682306
 31
0.0
  0
LINE
  5
6E64
  8
0
 10
4032.3285149189041476
 20
136.3720520973822943
 30
0.0
 11
4032.3320892620140512
 21
136.383052794409906
 31
0.0
  0
LINE
  5
6E65
  8
0
 10
4032.3306092470038493
 20
136.3521114922822903
 30
0.0
 11
4032.3327119279051658
 21
136.3585828787823004
 31
0.0
  0
LINE
  5
6E66
  8
0
 10
4032.3343941190041733
 20
136.3637601305823068
 30
0.0
 11
4032.3376297972040447
 21
136.3737185238823031
 31
0.0
  0
LINE
  5
6E67
  8
0
 10
4032.3511503129038829
 20
136.3516282669822886
 30
0.0
 11
4032.3532755592050307
 21
136.3581691024822931
 31
0.0
  0
LINE
  5
6E68
  8
0
 10
4032.3549762123047913
 20
136.3634031747822917
 30
0.0
 11
4032.3582484692042271
 21
136.3734741457822963
 31
0.0
  0
LINE
  5
6E69
  8
0
 10
4032.3614203281040318
 20
136.3568498392822903
 30
0.0
 11
4032.3641212666047977
 21
136.3651624732823109
 31
0.0
  0
LINE
  5
6E6A
  8
0
 10
4032.3823216703040089
 20
136.3574754307823014
 30
0.0
 11
4032.385041900718079
 21
136.3658474391243089
 31
0.0
  0
LINE
  5
6E6B
  8
0
 10
4032.3893285719050255
 20
136.3526541719822944
 30
0.0
 11
4032.3915044877039691
 21
136.3593509521822966
 31
0.0
  0
LINE
  5
6E6C
  8
0
 10
4032.5384577457048181
 20
136.3538445316823129
 30
0.0
 11
4032.5565338582041477
 21
136.4094770856823118
 31
0.0
  0
LINE
  5
6E6D
  8
0
 10
4032.7530275411318144
 20
136.3801156814919011
 30
0.0
 11
4032.7526259829041919
 21
136.3788798125823121
 31
0.0
  0
LINE
  5
6E6E
  8
0
 10
4032.9750686153038259
 20
138.929318392482287
 30
0.0
 11
4032.9750686153038259
 21
139.0534480663822876
 31
0.0
  0
LINE
  5
6E6F
  8
0
 10
4032.5714166162051697
 20
136.4170602296823063
 30
0.0
 11
4032.5565338582041477
 21
136.4094770856823118
 31
0.0
  0
LINE
  5
6E70
  8
0
 10
4032.5188882175048093
 20
136.3309315580823124
 30
0.0
 11
4032.5086138171041057
 21
136.3256964895822989
 31
0.0
  0
LINE
  5
6E71
  8
0
 10
4036.2052808729049502
 20
138.157011429382294
 30
0.0
 11
4036.9569563530039886
 21
138.5075234422822916
 31
0.0
  0
LINE
  5
6E72
  8
0
 10
4031.9680532975808092
 20
136.5013352494113974
 30
0.0
 11
4032.5086138171041057
 21
136.3256964895822989
 31
0.0
  0
LINE
  5
6E73
  8
0
 10
4032.5565338582041477
 20
136.4094770856823118
 30
0.0
 11
4032.3124794771110828
 21
136.4887751611153135
 31
0.0
  0
LINE
  5
6E74
  8
0
 10
4032.3669219927228369
 20
136.4835045605873916
 30
0.0
 11
4032.7277896076038814
 21
136.3662515647822886
 31
0.0
  0
LINE
  5
6E75
  8
0
 10
4032.4967607416037936
 20
136.4620154690823028
 30
0.0
 11
4032.7526259829041919
 21
136.3788798125823121
 31
0.0
  0
LINE
  5
6E76
  8
0
 10
4035.3147788286041759
 20
138.7363730941823121
 30
0.0
 11
4035.3147788286041759
 21
138.6959028189822902
 31
0.0
  0
LINE
  5
6E77
  8
0
 10
4035.3147788286041759
 20
138.4103094826822939
 30
0.0
 11
4035.3147788286041759
 21
138.1398097743822859
 31
0.0
  0
LINE
  5
6E78
  8
0
 10
4036.9683221357040566
 20
139.0534480662823
 30
0.0
 11
4036.9683221357040566
 21
138.5253641475823088
 31
0.0
  0
LINE
  5
6E79
  8
0
 10
4033.0047732690049997
 20
138.8969683479822947
 30
0.0
 11
4034.8431177483039392
 21
138.7928882303822888
 31
0.0
  0
LINE
  5
6E7A
  8
0
 10
4034.8431177483039392
 20
138.7928882303822888
 30
0.0
 11
4035.2854577454049831
 21
138.7677992486823086
 31
0.0
  0
LINE
  5
6E7B
  8
0
 10
4036.9368260726041626
 20
139.0849440473612901
 30
0.0
 11
4033.0065646783050397
 21
139.0849440473612901
 31
0.0
  0
ARC
  5
6E7C
  8
0
 10
4031.5869399834650721
 20
137.2613987251245931
 30
0.0
 40
0.0340400986656741
 50
95.5003432468876809
 51
175.9643807474564028
  0
ARC
  5
6E7D
  8
0
 10
4032.1272755430040888
 20
136.5784740549823084
 30
0.0
 40
0.1713762515
 50
272.6030938885048158
 51
276.162402999093672
  0
ARC
  5
6E7E
  8
0
 10
4032.1305333130039799
 20
136.5736813576822897
 30
0.0
 40
0.1683672392
 50
270.7205453662908212
 51
274.2972197572884738
  0
ARC
  5
6E7F
  8
0
 10
4032.1574413800099137
 20
136.5589323394702888
 30
0.0
 40
0.1680238613876304
 50
270.5366533957915749
 51
274.1163944426187982
  0
ARC
  5
6E80
  8
0
 10
4032.1195845274041858
 20
136.5679598223823064
 30
0.0
 40
0.1560933395
 50
265.5352462745913158
 51
269.2834353616884187
  0
ARC
  5
6E81
  8
0
 10
4032.1225024031041357
 20
136.564257951882297
 30
0.0
 40
0.154246363
 50
263.565637517710627
 51
267.3254091964022905
  0
ARC
  5
6E82
  8
0
 10
4032.1490958904000763
 20
136.5497564602059981
 30
0.0
 40
0.154739981392258
 50
263.4354566388266221
 51
267.1810953605759096
  0
ARC
  5
6E83
  8
0
 10
4032.1520356219039058
 20
136.5466211171822977
 30
0.0
 40
0.1531991691
 50
261.4775395103018241
 51
265.232761444106302
  0
ARC
  5
6E84
  8
0
 10
4032.1107797364038561
 20
136.5636056106320098
 30
0.0
 40
0.1467422475259503
 50
258.1505316388095821
 51
262.0329503531759769
  0
ARC
  5
6E85
  8
0
 10
4032.1136259842041909
 20
136.5609647973822973
 30
0.0
 40
0.1460129348
 50
256.1278728612113014
 51
260.0126197598079898
  0
ARC
  5
6E86
  8
0
 10
4032.0849054490040544
 20
136.5798092143822942
 30
0.0
 40
0.1450698091
 50
258.2564965207889145
 51
262.1849589758875823
  0
ARC
  5
6E87
  8
0
 10
4032.0713656608040765
 20
136.6193493641823125
 30
0.0
 40
0.174606126
 50
275.1855448692015784
 51
278.7488071886019156
  0
ARC
  5
6E88
  8
0
 10
4032.0620297417040092
 20
136.6118784047822885
 30
0.0
 40
0.1585761267
 50
270.0614244807958926
 51
273.8454665874066905
  0
ARC
  5
6E89
  8
0
 10
4032.0649934037051025
 20
136.6070268200822966
 30
0.0
 40
0.1561328479
 50
268.0464978506963121
 51
271.8437803632075997
  0
ARC
  5
6E8A
  8
0
 10
4032.0821396273049686
 20
136.5829926679822961
 30
0.0
 40
0.1460687071
 50
260.310555388688897
 51
264.2349693451943153
  0
ARC
  5
6E8B
  8
0
 10
4032.0541322419048811
 20
136.6048987889822968
 30
0.0
 40
0.145202923
 50
262.5877151994113206
 51
266.5677827695016049
  0
ARC
  5
6E8C
  8
0
 10
4032.0568436090038631
 20
136.6011685971822942
 30
0.0
 40
0.1439499275
 50
260.4929379468960065
 51
264.4778466813947944
  0
ARC
  5
6E8D
  8
0
 10
4032.0736348359100703
 20
136.583598626339608
 30
0.0
 40
0.1407564160969013
 50
252.6307423786703907
 51
256.6422663751569075
  0
ARC
  5
6E8E
  8
0
 10
4032.0765013420041214
 20
136.5813652455823046
 30
0.0
 40
0.1407868852
 50
250.5528378145938007
 51
254.5594349209058009
  0
ARC
  5
6E8F
  8
0
 10
4032.0414114875038649
 20
136.6081985703823136
 30
0.0
 40
0.1377516141
 50
244.6725170555025954
 51
248.7846402870100064
  0
ARC
  5
6E90
  8
0
 10
4032.0484148548048324
 20
136.6015394081823047
 30
0.0
 40
0.1377239098
 50
252.6454943466891052
 51
256.7455810898115942
  0
ARC
  5
6E91
  8
0
 10
4032.0456697082058781
 20
136.6042195755715056
 30
0.0
 40
0.137852201096613
 50
254.7772100401597015
 51
258.8835355439115915
  0
ARC
  5
6E92
  8
0
 10
4032.0381516830379951
 20
136.6094496443452897
 30
0.0
 40
0.1362721085577627
 50
246.7820023865722874
 51
250.927449529676295
  0
ARC
  5
6E93
  8
0
 10
4032.0759258481039069
 20
136.6551277967822955
 30
0.0
 40
0.2233164834
 50
287.9616014329030236
 51
288.4626923628104009
  0
ARC
  5
6E94
  8
0
 10
4032.0702979045040593
 20
136.6450007015822905
 30
0.0
 40
0.2044933013
 50
283.6205051548914753
 51
286.6471844562084925
  0
ARC
  5
6E95
  8
0
 10
4032.0744975890052046
 20
136.6382812868822896
 30
0.0
 40
0.1998710546
 50
281.8409596844924181
 51
285.1503921576942844
  0
ARC
  5
6E96
  8
0
 10
4032.067862468903968
 20
136.6253738379822948
 30
0.0
 40
0.1783387661
 50
277.0911612157124182
 51
280.636412627888717
  0
ARC
  5
6E97
  8
0
 10
4032.0369921429050919
 20
136.6315689461823126
 30
0.0
 40
0.1560878476
 50
270.5024370399050895
 51
273.5634439650052059
  0
ARC
  5
6E98
  8
0
 10
4032.0294444036039749
 20
136.6252706767822929
 30
0.0
 40
0.1426857171
 50
262.8777887933962916
 51
266.9333459343998811
  0
ARC
  5
6E99
  8
0
 10
4032.0211239578047753
 20
136.6242921726822885
 30
0.0
 40
0.1343076307
 50
254.8589405607891081
 51
258.8819488629886223
  0
ARC
  5
6E9A
  8
0
 10
4032.1384182240039991
 20
136.6117810663822922
 30
0.0
 40
0.2161103626
 50
283.8341522439092159
 51
286.9601277031061954
  0
ARC
  5
6E9B
  8
0
 10
4032.1013168414037864
 20
136.6189699855823108
 30
0.0
 40
0.1987992202
 50
281.372481609796921
 51
284.6833063269102126
  0
ARC
  5
6E9C
  8
0
 10
4032.1053816827038645
 20
136.6124216236823088
 30
0.0
 40
0.1941207237
 50
279.5981909141884216
 51
282.9287092606988949
  0
ARC
  5
6E9D
  8
0
 10
4032.1324691716058624
 20
136.5952689594118112
 30
0.0
 40
0.1929422810031707
 50
279.2673888448164803
 51
282.60765906883762
  0
ARC
  5
6E9E
  8
0
 10
4032.1363081050049004
 20
136.5894669305822902
 30
0.0
 40
0.18879436
 50
277.4948041522886797
 51
280.8529161759885255
  0
ARC
  5
6E9F
  8
0
 10
4032.0974419908047821
 20
136.6005202176822877
 30
0.0
 40
0.1747472445
 50
274.7771920189956063
 51
278.3256770246080123
  0
ARC
  5
6EA0
  8
0
 10
4032.1007997489050467
 20
136.5951386326823069
 30
0.0
 40
0.1714013619
 50
272.8866328482878885
 51
276.4528233788906846
  0
ARC
  5
6EA1
  8
0
 10
4032.0905714536038431
 20
136.5885857274822968
 30
0.0
 40
0.157332854
 50
267.7326360357113231
 51
271.4939508605932019
  0
ARC
  5
6EA2
  8
0
 10
4032.0934966559048007
 20
136.5843314255822918
 30
0.0
 40
0.1552038123
 50
265.744473093406782
 51
269.5182119964991898
  0
ARC
  5
6EA3
  8
0
 10
4032.103626627003905
 20
136.659769325682305
 30
0.0
 40
0.2540573328
 50
291.589988376604424
 51
292.7118398534938137
  0
ARC
  5
6EA4
  8
0
 10
4032.1297313581208073
 20
136.6485970628590962
 30
0.0
 40
0.2578268277771301
 50
291.257946131600022
 51
294.1433375308599807
  0
ARC
  5
6EA5
  8
0
 10
4032.1354469651050749
 20
136.6407225361822952
 30
0.0
 40
0.2510329477
 50
289.7244437632900258
 51
292.6225216290080766
  0
ARC
  5
6EA6
  8
0
 10
4032.0999449286377967
 20
136.6464490390079902
 30
0.0
 40
0.2326723175073746
 50
287.5089829695364756
 51
290.5452600694616763
  0
ARC
  5
6EA7
  8
0
 10
4032.1329977946611507
 20
136.6211036655880946
 30
0.0
 40
0.2241159595089131
 50
285.5051711751021912
 51
288.5789102808404891
  0
ARC
  5
6EA8
  8
0
 10
4032.105823013304871
 20
136.6363028231822909
 30
0.0
 40
0.223975124
 50
285.8407577660921106
 51
288.9294584761934175
  0
ARC
  5
6EA9
  8
0
 10
4032.2268790350308336
 20
136.5402060963972986
 30
0.0
 40
0.1771321550493053
 50
273.5654473737624812
 51
277.0323397135916821
  0
ARC
  5
6EAA
  8
0
 10
4032.2198179398051252
 20
136.5379399999823136
 30
0.0
 40
0.1723704867
 50
228.7393432829040876
 51
232.2562662115057037
  0
ARC
  5
6EAB
  8
0
 10
4032.1911421682038963
 20
136.5382463710822947
 30
0.0
 40
0.1623986567
 50
266.668341274896818
 51
270.2902321745935978
  0
ARC
  5
6EAC
  8
0
 10
4032.2034767775039654
 20
136.570972194282291
 30
0.0
 40
0.2017047145
 50
280.1571580857892059
 51
283.3784346485068113
  0
ARC
  5
6EAD
  8
0
 10
4032.2792648646750422
 20
136.6424191298856954
 30
0.0
 40
0.3033209430149778
 50
222.4289547472100139
 51
224.5269079754507118
  0
ARC
  5
6EAE
  8
0
 10
4032.2253844460051369
 20
136.5559334109823055
 30
0.0
 40
0.1927649906
 50
222.2530407170941089
 51
225.5695757579912879
  0
ARC
  5
6EAF
  8
0
 10
4032.1634308693837738
 20
136.5761483435344132
 30
0.0
 40
0.1892827663127199
 50
277.2958961599558734
 51
280.6391803761464985
  0
ARC
  5
6EB0
  8
0
 10
4032.1905206398041628
 20
136.5638575754823023
 30
0.0
 40
0.1861303557
 50
223.8276095497041922
 51
227.2129865085954918
  0
ARC
  5
6EB1
  8
0
 10
4032.1950202601537967
 20
136.5571383919447896
 30
0.0
 40
0.1833371380124591
 50
275.3960565686322752
 51
278.7931023158221251
  0
ARC
  5
6EB2
  8
0
 10
4032.1673954419047732
 20
136.569180189882303
 30
0.0
 40
0.1837241377
 50
275.5023371480992864
 51
278.8951198730097758
  0
ARC
  5
6EB3
  8
0
 10
4032.2279281953001373
 20
136.5425084652268026
 30
0.0
 40
0.1798804642328433
 50
226.985532037596613
 51
230.3975584973134119
  0
ARC
  5
6EB4
  8
0
 10
4032.1987308570041932
 20
136.5513908451823113
 30
0.0
 40
0.1787840483
 50
273.597171174703476
 51
277.0324321666886931
  0
ARC
  5
6EB5
  8
0
 10
4032.186052202279825
 20
136.6171120978567899
 30
0.0
 40
0.239997367005419
 50
269.468590123987326
 51
271.9446602740936214
  0
ARC
  5
6EB6
  8
0
 10
4032.1606313215052069
 20
136.5547672603823059
 30
0.0
 40
0.1653937583
 50
268.6564000132092929
 51
272.2514737415127115
  0
ARC
  5
6EB7
  8
0
 10
4032.2691249441040782
 20
136.5401386964823018
 30
0.0
 40
0.1880645957
 50
276.804427741194786
 51
280.1549762005071216
  0
ARC
  5
6EB8
  8
0
 10
4032.2900033879041075
 20
136.5276132840822925
 30
0.0
 40
0.1819074453
 50
225.0879334002997041
 51
228.5146095786091962
  0
ARC
  5
6EB9
  8
0
 10
4032.2611143143149093
 20
136.5346787724278954
 30
0.0
 40
0.1823038362573176
 50
225.1972671851434029
 51
228.6135731628781116
  0
ARC
  5
6EBA
  8
0
 10
4032.2543477924050421
 20
136.531721868982288
 30
0.0
 40
0.1771299401
 50
226.9515230585004133
 51
230.4188736000944004
  0
ARC
  5
6EBB
  8
0
 10
4032.2303823836041374
 20
136.5359795133823013
 30
0.0
 40
0.1738745711
 50
271.7589498983040244
 51
275.2454406073046016
  0
ARC
  5
6EBC
  8
0
 10
4032.292858015694037
 20
136.5142300576682999
 30
0.0
 40
0.1673191672824703
 50
229.8687794681129901
 51
233.4631098980501918
  0
ARC
  5
6EBD
  8
0
 10
4032.2874985497041962
 20
136.5122873884822923
 30
0.0
 40
0.1641328862
 50
231.7347129596950879
 51
235.3574132857009999
  0
ARC
  5
6EBE
  8
0
 10
4032.2585622055808017
 20
136.5189802814209088
 30
0.0
 40
0.1647762573841578
 50
231.8397975041411883
 51
235.446315392855098
  0
ARC
  5
6EBF
  8
0
 10
4032.2532232307039521
 20
136.5169523357822925
 30
0.0
 40
0.1612857504
 50
233.6972677063978949
 51
237.3441588440971941
  0
ARC
  5
6EC0
  8
0
 10
4032.2946880916379087
 20
136.50255486118931
 30
0.0
 40
0.1548417371528548
 50
236.8201359701012052
 51
240.563312297332601
  0
ARC
  5
6EC1
  8
0
 10
4032.2900483096041171
 20
136.5010091006822961
 30
0.0
 40
0.1524536306
 50
238.7580532307109138
 51
242.5316458148959953
  0
ARC
  5
6EC2
  8
0
 10
4032.2865580924608366
 20
136.5757263534300989
 30
0.0
 40
0.2381905670193233
 50
213.1551941513343138
 51
216.1340377150158076
  0
ARC
  5
6EC3
  8
0
 10
4032.2757900381047875
 20
136.5713552509822932
 30
0.0
 40
0.2289474855
 50
214.6755440751049946
 51
217.7130700722952952
  0
ARC
  5
6EC4
  8
0
 10
4032.2480091834891027
 20
136.5810833682878069
 30
0.0
 40
0.2289036953347642
 50
214.6356233131058957
 51
217.6752197040524095
  0
ARC
  5
6EC5
  8
0
 10
4032.2380484761051775
 20
136.5793834887822982
 30
0.0
 40
0.2229229956
 50
284.7452372350931
 51
287.806993103092509
  0
ARC
  5
6EC6
  8
0
 10
4032.237927792904884
 20
136.5770526660822952
 30
0.0
 40
0.2201962228
 50
216.1740448615946093
 51
219.2737248002943886
  0
ARC
  5
6EC7
  8
0
 10
4032.267439495322833
 20
136.5700019273112957
 30
0.0
 40
0.2197317946989638
 50
284.8699875816079725
 51
287.9817762965923862
  0
ARC
  5
6EC8
  8
0
 10
4032.2722267063049912
 20
136.5640938206823023
 30
0.0
 40
0.214227004
 50
283.2667314611906022
 51
286.4000159442013
  0
ARC
  5
6EC9
  8
0
 10
4032.2683917312961057
 20
136.5523751767746887
 30
0.0
 40
0.2043502284885691
 50
218.934541474165286
 51
222.1687187158034078
  0
ARC
  5
6ECA
  8
0
 10
4032.2614459444048407
 20
136.5500850882822874
 30
0.0
 40
0.199457617
 50
220.6034149739045915
 51
223.8609922918016082
  0
ARC
  5
6ECB
  8
0
 10
4032.3292014897288027
 20
136.6502117215648866
 30
0.0
 40
0.3314725353611092
 50
221.7323881148228111
 51
223.7106923084172934
  0
ARC
  5
6ECC
  8
0
 10
4032.2320722992949413
 20
136.5596621275336986
 30
0.0
 40
0.1993190067860931
 50
280.1448977639569193
 51
283.4049735067579832
  0
ARC
  5
6ECD
  8
0
 10
4032.236181965105061
 20
136.5543590158823122
 30
0.0
 40
0.1948489566
 50
278.4481647680054266
 51
281.7292187569057091
  0
ARC
  5
6ECE
  8
0
 10
4032.2651338817167925
 20
136.5449544801126081
 30
0.0
 40
0.1922670644958161
 50
278.5268850296267829
 51
281.855190683844512
  0
ARC
  5
6ECF
  8
0
 10
4032.2205131180039643
 20
136.6083942324823113
 30
0.0
 40
0.2449783335
 50
211.7407243825063006
 51
214.6940915245048132
  0
ARC
  5
6ED0
  8
0
 10
4032.1697942126052112
 20
136.617573310382312
 30
0.0
 40
0.2411610279
 50
287.9607859348028001
 51
290.9059941677987808
  0
ARC
  5
6ED1
  8
0
 10
4032.1987526083739795
 20
136.6040998439978864
 30
0.0
 40
0.2380036916177283
 50
287.8647919875535877
 51
290.8459750162475075
  0
ARC
  5
6ED2
  8
0
 10
4032.2039445438040275
 20
136.5971766375822938
 30
0.0
 40
0.2318516598
 50
286.3059583295039943
 51
289.3054275231909855
  0
ARC
  5
6ED3
  8
0
 10
4032.1658713752999574
 20
136.5986412868410866
 30
0.0
 40
0.2161587867644426
 50
283.6260068042022908
 51
286.7436852270080863
  0
ARC
  5
6ED4
  8
0
 10
4032.2109241986281631
 20
136.5885082265714061
 30
0.0
 40
0.2198970346623969
 50
216.0193929674665014
 51
219.1288427943686088
  0
ARC
  5
6ED5
  8
0
 10
4032.201457120005216
 20
136.584820093782298
 30
0.0
 40
0.2116607092
 50
217.5809843724942994
 51
220.7522682221982109
  0
ARC
  5
6ED6
  8
0
 10
4032.1790319342430848
 20
136.6545910441708997
 30
0.0
 40
0.2868550687997534
 50
282.5903106434440133
 51
284.8975567218477067
  0
ARC
  5
6ED7
  8
0
 10
4032.1709239789051935
 20
136.5900677312822893
 30
0.0
 40
0.2087455826
 50
281.9466187993929793
 51
285.1165366106108081
  0
ARC
  5
6ED8
  8
0
 10
4032.1751789163640751
 20
136.5980136358313928
 30
0.0
 40
0.2110393105056821
 50
217.3140706387148953
 51
220.5039836311283068
  0
ARC
  5
6ED9
  8
0
 10
4032.1662660897050046
 20
136.5946710699822972
 30
0.0
 40
0.2032189534
 50
218.9043499830958126
 51
222.1583073837938969
  0
ARC
  5
6EDA
  8
0
 10
4032.1584396065040892
 20
136.6548160661822919
 30
0.0
 40
0.2837913417
 50
294.9743810365073955
 51
295.8078374789112104
  0
ARC
  5
6EDB
  8
0
 10
4032.1634127567040196
 20
136.6498974394822881
 30
0.0
 40
0.2797373155
 50
293.5422539022958972
 51
295.871505694801499
  0
ARC
  5
6EDC
  8
0
 10
4032.1939015110037872
 20
136.6344891977823011
 30
0.0
 40
0.2737210828999999
 50
293.475006559001713
 51
296.1416258510978992
  0
ARC
  5
6EDD
  8
0
 10
4032.2268780310801048
 20
136.6222009985173997
 30
0.0
 40
0.2700083881755695
 50
292.1121803967275241
 51
294.9014081350064203
  0
ARC
  5
6EDE
  8
0
 10
4032.1986585936037955
 20
136.630123054982306
 30
0.0
 40
0.2700543545
 50
292.0370850583969968
 51
294.8225277088947109
  0
ARC
  5
6EDF
  8
0
 10
4032.1632849291918319
 20
136.6277764536237953
 30
0.0
 40
0.2506283231273441
 50
289.5221408465835111
 51
292.4165117635948832
  0
ARC
  5
6EE0
  8
0
 10
4032.194900284940104
 20
136.6221678630479062
 30
0.0
 40
0.244709679294218
 50
211.4068101958685872
 51
214.37702938143849
  0
ARC
  5
6EE1
  8
0
 10
4032.1837539432040103
 20
136.6183272020822983
 30
0.0
 40
0.2347395671
 50
212.8743878656052004
 51
215.9073203906951903
  0
ARC
  5
6EE2
  8
0
 10
4032.4149270118077766
 20
136.6933830150175027
 30
0.0
 40
0.4351620638673331
 50
210.0776646757338995
 51
211.7860517402997118
  0
ARC
  5
6EE3
  8
0
 10
4032.2350725904498177
 20
136.6142663119728127
 30
0.0
 40
0.2586942580031587
 50
210.315901245265394
 51
213.1726176131118962
  0
ARC
  5
6EE4
  8
0
 10
4032.2344744498041109
 20
136.6112165798822957
 30
0.0
 40
0.2589331039
 50
290.6316900611075198
 51
293.4773239989107765
  0
ARC
  5
6EE5
  8
0
 10
4032.258764875703946
 20
136.6005518128822871
 30
0.0
 40
0.2554895377
 50
210.5034948152027994
 51
213.3874911248977071
  0
ARC
  5
6EE6
  8
0
 10
4032.2656417844041243
 20
136.5985526169820901
 30
0.0
 40
0.2515470138997902
 50
290.8020301234960243
 51
293.7393151510174789
  0
ARC
  5
6EE7
  8
0
 10
4032.2701626457042039
 20
136.5949445259822994
 30
0.0
 40
0.2482499027
 50
289.3253732219084213
 51
292.2398108710991096
  0
ARC
  5
6EE8
  8
0
 10
4032.2330798630068784
 20
136.5857847936759981
 30
0.0
 40
0.2287284652919658
 50
286.3236155157937901
 51
289.365541102217378
  0
ARC
  5
6EE9
  8
0
 10
4032.2958346341029028
 20
136.5294562385809911
 30
0.0
 40
0.1853902858980714
 50
223.3113307293129992
 51
226.7239476026142881
  0
ARC
  5
6EEA
  8
0
 10
4032.3087279628048236
 20
136.5976556213823017
 30
0.0
 40
0.2743364455
 50
207.8616476155862927
 51
210.5222988928991015
  0
ARC
  5
6EEB
  8
0
 10
4032.2986452613040456
 20
136.594768480582303
 30
0.0
 40
0.2664188217
 50
209.1584634909985141
 51
211.9819237416946009
  0
ARC
  5
6EEC
  8
0
 10
4032.3002131969151378
 20
136.5877860695948982
 30
0.0
 40
0.2445092877176211
 50
289.6217537571163803
 51
292.5944077739329146
  0
ARC
  5
6EED
  8
0
 10
4032.3151962734041263
 20
136.5677383986823088
 30
0.0
 40
0.23805889
 50
213.0748120644960864
 51
216.0584078328940905
  0
ARC
  5
6EEE
  8
0
 10
4032.3058562028040797
 20
136.5812472064822884
 30
0.0
 40
0.2378520051
 50
288.112528036108813
 51
291.1057637076035007
  0
ARC
  5
6EEF
  8
0
 10
4032.3100629548662255
 20
136.552090610963603
 30
0.0
 40
0.2164995872948874
 50
217.2587693963932907
 51
220.3715389388007964
  0
ARC
  5
6EF0
  8
0
 10
4032.2832481057757832
 20
136.6320258432780861
 30
0.0
 40
0.288502184677987
 50
283.6129125158939246
 51
285.9427942723497154
  0
ARC
  5
6EF1
  8
0
 10
4032.298823429103777
 20
136.5463350221822907
 30
0.0
 40
0.2063189172
 50
218.8648167050995994
 51
222.0720278848957889
  0
ARC
  5
6EF2
  8
0
 10
4032.3065805555052066
 20
136.5512509888822876
 30
0.0
 40
0.2056386023
 50
281.8608415359910282
 51
285.0765010971009019
  0
ARC
  5
6EF3
  8
0
 10
4032.3376772143051312
 20
136.5447311782822908
 30
0.0
 40
0.2134836322
 50
217.0206362326015039
 51
220.1850838204983063
  0
ARC
  5
6EF4
  8
0
 10
4032.3885405811829514
 20
136.5797033225061057
 30
0.0
 40
0.2664233838612527
 50
221.8530553613821041
 51
224.2718968877570092
  0
ARC
  5
6EF5
  8
0
 10
4032.3269060957040892
 20
136.5256705605823129
 30
0.0
 40
0.186798952
 50
223.1291427348068908
 51
226.5231369369930974
  0
ARC
  5
6EF6
  8
0
 10
4032.3286185168999509
 20
136.5121902085770103
 30
0.0
 40
0.1704980910932428
 50
227.8203366892599888
 51
231.3975844053084074
  0
ARC
  5
6EF7
  8
0
 10
4032.3228301734047818
 20
136.509800275782311
 30
0.0
 40
0.1669463104
 50
229.6875541744003044
 51
233.2946807020074971
  0
ARC
  5
6EF8
  8
0
 10
4032.3292426901398358
 20
136.4998978480197138
 30
0.0
 40
0.1561525897030891
 50
234.7172762595913866
 51
238.4640426100714024
  0
ARC
  5
6EF9
  8
0
 10
4032.324208797404026
 20
136.4978085686823022
 30
0.0
 40
0.1533560136
 50
236.6636726707054095
 51
240.4452806152052062
  0
ARC
  5
6EFA
  8
0
 10
4032.3337994600001366
 20
136.49120252660191
 30
0.0
 40
0.1468002520403017
 50
241.9678164634250095
 51
245.8487005333473974
  0
ARC
  5
6EFB
  8
0
 10
4032.329760684303892
 20
136.4903324228822896
 30
0.0
 40
0.1456248968
 50
243.9822025220881869
 51
247.8773048569001958
  0
ARC
  5
6EFC
  8
0
 10
4032.3390844352038584
 20
136.5903114438823138
 30
0.0
 40
0.2764935659
 50
208.1148340634003944
 51
210.4714103631951048
  0
ARC
  5
6EFD
  8
0
 10
4032.4034739643930152
 20
136.6223383839364089
 30
0.0
 40
0.3394204134400433
 50
211.9621223357065958
 51
214.099224929974099
  0
ARC
  5
6EFE
  8
0
 10
4032.3376200997040542
 20
136.5720107044822953
 30
0.0
 40
0.2295948635
 50
288.5246402330932938
 51
289.798679837716179
  0
ARC
  5
6EFF
  8
0
 10
4032.3480895621901254
 20
136.5495935652365063
 30
0.0
 40
0.222231852959164
 50
215.4080571073916985
 51
218.5078620726989982
  0
ARC
  5
6F00
  8
0
 10
4032.348828553104795
 20
136.5929550628823108
 30
0.0
 40
0.2837914723
 50
208.1921618019948141
 51
209.0256231782003056
  0
ARC
  5
6F01
  8
0
 10
4032.3687778318849269
 20
136.5712800667305942
 30
0.0
 40
0.2582706622397417
 50
209.8591424108875003
 51
212.739574240322014
  0
ARC
  5
6F02
  8
0
 10
4032.3949445125040256
 20
136.5640358318823075
 30
0.0
 40
0.2527153327
 50
211.2851875407029922
 51
212.4129974311969136
  0
ARC
  5
6F03
  8
0
 10
4032.3563508707038636
 20
136.5662352243822966
 30
0.0
 40
0.2477078395
 50
211.358022953205591
 51
214.295011654500712
  0
ARC
  5
6F04
  8
0
 10
4032.034620995917976
 20
136.3023522445980973
 30
0.0
 40
0.202702537614179
 50
33.2302163622881892
 51
36.71553971987111
  0
ARC
  5
6F05
  8
0
 10
4032.3782239374049823
 20
136.5453482568823063
 30
0.0
 40
0.2211226477
 50
215.0506145255066031
 51
218.1791692321928053
  0
ARC
  5
6F06
  8
0
 10
4032.4278973825880712
 20
136.5792097123647864
 30
0.0
 40
0.2715463040929089
 50
220.094758182007098
 51
222.502689273535708
  0
ARC
  5
6F07
  8
0
 10
4032.3652217582048252
 20
136.5259804986822871
 30
0.0
 40
0.1919260665
 50
221.0522431951081899
 51
224.4208566300069094
  0
ARC
  5
6F08
  8
0
 10
4032.3674810196939688
 20
136.514502869071606
 30
0.0
 40
0.1765486205876845
 50
225.6924318079612988
 51
229.2046992026708097
  0
ARC
  5
6F09
  8
0
 10
4032.3972019399047895
 20
136.5117669406822927
 30
0.0
 40
0.1728111643
 50
225.2326812355927927
 51
228.8329667065924866
  0
ARC
  5
6F0A
  8
0
 10
4032.359341228303947
 20
136.5095831130823001
 30
0.0
 40
0.1698042707
 50
227.5304002552047109
 51
231.1301435176089001
  0
ARC
  5
6F0B
  8
0
 10
4032.3648453828409401
 20
136.4995369824684985
 30
0.0
 40
0.1574009264048927
 50
232.5068625895881951
 51
236.2665501462552129
  0
ARC
  5
6F0C
  8
0
 10
4032.3956211224040089
 20
136.4983774051823104
 30
0.0
 40
0.1549119463
 50
232.1412504031931121
 51
235.9684713828058875
  0
ARC
  5
6F0D
  8
0
 10
4032.3593583210049474
 20
136.496886895182314
 30
0.0
 40
0.1541567188
 50
234.4689669565993881
 51
238.2683479535093056
  0
ARC
  5
6F0E
  8
0
 10
4032.3927208832110409
 20
136.5381504397759045
 30
0.0
 40
0.2000377163115401
 50
240.6872719513941092
 51
243.5423170481290072
  0
ARC
  5
6F0F
  8
0
 10
4032.3639967029039326
 20
136.4885753312823056
 30
0.0
 40
0.1445400362
 50
241.8078388219981889
 51
245.7507056812941073
  0
ARC
  5
6F10
  8
0
 10
4032.3756151788979878
 20
136.485594869335813
 30
0.0
 40
0.1408664113786429
 50
247.3593005534854967
 51
251.3676908293057863
  0
ARC
  5
6F11
  8
0
 10
4032.3719445883039043
 20
136.4853699157822859
 30
0.0
 40
0.1407868852
 50
249.4405650790959044
 51
253.4471621853994066
  0
ARC
  5
6F12
  8
0
 10
4032.3545881886047937
 20
136.9345904825823084
 30
0.0
 40
0.5883291530000001
 50
227.4290923041197914
 51
277.384416378903893
  0
ARC
  5
6F13
  8
0
 10
4032.2688059859101486
 20
136.8227329015350904
 30
0.0
 40
0.4437708609312534
 50
229.8189042539167986
 51
235.2127864221820062
  0
ARC
  5
6F14
  8
0
 10
4032.2769270902031167
 20
136.8092509602155928
 30
0.0
 40
0.4372852523039249
 50
235.5607309529183908
 51
240.8740763758933099
  0
ARC
  5
6F15
  8
0
 10
4032.2875798973250312
 20
136.7985195841384041
 30
0.0
 40
0.4330590769143893
 50
241.1496272795012885
 51
246.4143709378344909
  0
ARC
  5
6F16
  8
0
 10
4032.3001573942560753
 20
136.7907785969721886
 30
0.0
 40
0.4309665009432138
 50
246.6480839880840108
 51
251.8900040469868031
  0
ARC
  5
6F17
  8
0
 10
4032.3140880679420661
 20
136.7862320969065024
 30
0.0
 40
0.4309473356229024
 50
252.1098793527789041
 51
257.3520327005982153
  0
ARC
  5
6F18
  8
0
 10
4032.3288088485778644
 20
136.7850639556407089
 30
0.0
 40
0.4330019332571791
 50
257.5852814304316212
 51
262.8507203723946759
  0
ARC
  5
6F19
  8
0
 10
4032.3437377059390201
 20
136.7874469702649947
 30
0.0
 40
0.4371914385142671
 50
263.1253533636888164
 51
268.4398397468359008
  0
ARC
  5
6F1A
  8
0
 10
4032.3581212655581112
 20
136.8529300212410931
 30
0.0
 40
0.5030126980040486
 50
268.9435030707861074
 51
273.6375435829671119
  0
ARC
  5
6F1B
  8
0
 10
4032.3545881886047937
 20
136.9345904825823084
 30
0.0
 40
0.5829723525000001
 50
251.0326099855884081
 51
252.9673900144053107
  0
ARC
  5
6F1C
  8
0
 10
4032.3545881886047937
 20
136.9345904825823084
 30
0.0
 40
0.5829723525000001
 50
256.5094343538103203
 51
258.4531026922026058
  0
ARC
  5
6F1D
  8
0
 10
4032.3545881886047937
 20
136.9345904825823084
 30
0.0
 40
0.5829723525000001
 50
245.5468973078110082
 51
247.4905656461978936
  0
ARC
  5
6F1E
  8
0
 10
4032.3545881886047937
 20
136.9345904825823084
 30
0.0
 40
0.5829723525000001
 50
262.0280238062911735
 51
263.9991108512040228
  0
ARC
  5
6F1F
  8
0
 10
4032.3545881886047937
 20
136.9345904825823084
 30
0.0
 40
0.5829723525000001
 50
240.0008891487970004
 51
241.9719761936896134
  0
ARC
  5
6F20
  8
0
 10
4032.3545881886047937
 20
136.9345904825823084
 30
0.0
 40
0.5829723525000001
 50
267.6426328893081177
 51
269.6621162056084131
  0
ARC
  5
6F21
  8
0
 10
4032.3545881886047937
 20
136.9345904825823084
 30
0.0
 40
0.5829723525000001
 50
234.3378837943967881
 51
236.3573671106962024
  0
ARC
  5
6F22
  8
0
 10
4032.3545881886047937
 20
136.9345904825823084
 30
0.0
 40
0.5829723525000001
 50
273.4163838342951749
 51
275.5100352362114791
  0
ARC
  5
6F23
  8
0
 10
4032.3545881886047937
 20
136.9345904825823084
 30
0.0
 40
0.5829723525000001
 50
228.003491659285686
 51
230.5836161657047967
  0
ARC
  5
6F24
  8
0
 10
4032.3545881886047937
 20
136.9345904825823084
 30
0.0
 40
0.5819257001000001
 50
270.5396336107111779
 51
272.5967150907953283
  0
ARC
  5
6F25
  8
0
 10
4032.3545881886047937
 20
136.9345904825823084
 30
0.0
 40
0.5819257001000001
 50
264.8431134100906092
 51
266.8393450907915962
  0
ARC
  5
6F26
  8
0
 10
4032.3545881886047937
 20
136.9345904825823084
 30
0.0
 40
0.5819257001000001
 50
259.2733850623022818
 51
261.2319285075997755
  0
ARC
  5
6F27
  8
0
 10
4032.3545881886047937
 20
136.9345904825823084
 30
0.0
 40
0.5819257001000001
 50
253.7721818806901126
 51
255.71266474308959
  0
ARC
  5
6F28
  8
0
 10
4032.3545881886047937
 20
136.9345904825823084
 30
0.0
 40
0.5819257001000001
 50
248.2873352569008887
 51
250.227818119296586
  0
ARC
  5
6F29
  8
0
 10
4032.3545881886047937
 20
136.9345904825823084
 30
0.0
 40
0.5819257001000001
 50
242.7680714924063921
 51
244.7266149376883106
  0
ARC
  5
6F2A
  8
0
 10
4032.3545881886047937
 20
136.9345904825823084
 30
0.0
 40
0.5819257001000001
 50
237.1606549092018099
 51
239.1568865898950094
  0
ARC
  5
6F2B
  8
0
 10
4032.3545881886047937
 20
136.9345904825823084
 30
0.0
 40
0.5819257001000001
 50
231.4032849092010053
 51
233.4603663892980023
  0
ARC
  5
6F2C
  8
0
 10
4032.3545881886047937
 20
136.9345904825823084
 30
0.0
 40
0.577781039
 50
253.784898569800589
 51
255.7393349561019988
  0
ARC
  5
6F2D
  8
0
 10
4032.3545881886047937
 20
136.9345904825823084
 30
0.0
 40
0.577781039
 50
248.2606650438883094
 51
250.2151014303018997
  0
ARC
  5
6F2E
  8
0
 10
4032.3545881886047937
 20
136.9345904825823084
 30
0.0
 40
0.577781039
 50
259.325845201791708
 51
261.2987383981039784
  0
ARC
  5
6F2F
  8
0
 10
4032.3545881886047937
 20
136.9345904825823084
 30
0.0
 40
0.577781039
 50
242.7012616019034112
 51
244.6741547981899032
  0
ARC
  5
6F30
  8
0
 10
4032.3545881886047937
 20
136.9345904825823084
 30
0.0
 40
0.577781039
 50
264.9368345344017825
 51
266.9482671046985729
  0
ARC
  5
6F31
  8
0
 10
4032.3545881886047937
 20
136.9345904825823084
 30
0.0
 40
0.577781039
 50
237.0517328953098968
 51
239.0631654656091882
  0
ARC
  5
6F32
  8
0
 10
4032.3545881886047937
 20
136.9345904825823084
 30
0.0
 40
0.577781039
 50
270.6775263528078881
 51
272.7512537822868239
  0
ARC
  5
6F33
  8
0
 10
4032.3545881886047937
 20
136.9345904825823084
 30
0.0
 40
0.577781039
 50
231.248746217691604
 51
233.3224736471981942
  0
ARC
  5
6F34
  8
0
 10
4032.3545881886047937
 20
136.9345904825823084
 30
0.0
 40
0.5764228747
 50
251.0216171672936127
 51
252.9783828326877995
  0
ARC
  5
6F35
  8
0
 10
4032.3545881886047937
 20
136.9345904825823084
 30
0.0
 40
0.5764228747
 50
256.5607796870114043
 51
258.526741633987001
  0
ARC
  5
6F36
  8
0
 10
4032.3545881886047937
 20
136.9345904825823084
 30
0.0
 40
0.5764228747
 50
245.473258366108297
 51
247.4392203129924894
  0
ARC
  5
6F37
  8
0
 10
4032.3545881886047937
 20
136.9345904825823084
 30
0.0
 40
0.5764228747
 50
262.1431634294003743
 51
264.1375125438107148
  0
ARC
  5
6F38
  8
0
 10
4032.3545881886047937
 20
136.9345904825823084
 30
0.0
 40
0.5764228747
 50
239.8624874562092941
 51
241.8568365705891949
  0
ARC
  5
6F39
  8
0
 10
4032.3545881886047937
 20
136.9345904825823084
 30
0.0
 40
0.5764228747
 50
267.8250021870953788
 51
269.8695260122945001
  0
ARC
  5
6F3A
  8
0
 10
4032.3545881886047937
 20
136.9345904825823084
 30
0.0
 40
0.5764228747
 50
234.1304739876941028
 51
236.1749978128952989
  0
ARC
  5
6F3B
  8
0
 10
4032.3545881886047937
 20
136.9345904825823084
 30
0.0
 40
0.5764228747
 50
273.67195130461198
 51
274.7709835671099086
  0
ARC
  5
6F3C
  8
0
 10
4032.3545881886047937
 20
136.9345904825823084
 30
0.0
 40
0.5764228747
 50
229.2292833194946979
 51
230.3280486953989055
  0
ARC
  5
6F3D
  8
0
 10
4032.3545881886047937
 20
136.9345904825823084
 30
0.0
 40
0.5711874396
 50
251.0126485446880054
 51
252.9873514553050029
  0
ARC
  5
6F3E
  8
0
 10
4032.3545881886047937
 20
136.9345904825823084
 30
0.0
 40
0.5711874396
 50
256.6026729850033803
 51
258.5868286848034927
  0
ARC
  5
6F3F
  8
0
 10
4032.3545881886047937
 20
136.9345904825823084
 30
0.0
 40
0.5711874396
 50
245.4131713152094107
 51
247.3973270149944028
  0
ARC
  5
6F40
  8
0
 10
4032.3545881886047937
 20
136.9345904825823084
 30
0.0
 40
0.5711874396
 50
262.2371318426008884
 51
264.25048213360418
  0
ARC
  5
6F41
  8
0
 10
4032.3545881886047937
 20
136.9345904825823084
 30
0.0
 40
0.5711874396
 50
239.7495178664019875
 51
241.7628681574051086
  0
ARC
  5
6F42
  8
0
 10
4032.3545881886047937
 20
136.9345904825823084
 30
0.0
 40
0.5711874396
 50
267.9739118031019984
 51
270.0389226436091121
  0
ARC
  5
6F43
  8
0
 10
4032.3545881886047937
 20
136.9345904825823084
 30
0.0
 40
0.5711874396
 50
233.9610773564074009
 51
236.026088196897291
  0
ARC
  5
6F44
  8
0
 10
4032.3545881886047937
 20
136.9345904825823084
 30
0.0
 40
0.5695078027
 50
253.8108363552103128
 51
255.7937352041884083
  0
ARC
  5
6F45
  8
0
 10
4032.3545881886047937
 20
136.9345904825823084
 30
0.0
 40
0.5695078027
 50
248.2062647958991874
 51
250.1891636447923872
  0
ARC
  5
6F46
  8
0
 10
4032.3545881886047937
 20
136.9345904825823084
 30
0.0
 40
0.5695078027
 50
259.4328643783048278
 51
261.4350464105060041
  0
ARC
  5
6F47
  8
0
 10
4032.3545881886047937
 20
136.9345904825823084
 30
0.0
 40
0.5695078027
 50
242.5649535895086046
 51
244.5671356217079051
  0
ARC
  5
6F48
  8
0
 10
4032.3545881886047937
 20
136.9345904825823084
 30
0.0
 40
0.5695078027
 50
265.1281017324998857
 51
267.1706011549920845
  0
ARC
  5
6F49
  8
0
 10
4032.3545881886047937
 20
136.9345904825823084
 30
0.0
 40
0.5695078027
 50
236.8293988450043912
 51
238.8718982675090103
  0
ARC
  5
6F4A
  8
0
 10
4032.3545881886047937
 20
136.9345904825823084
 30
0.0
 40
0.5695078027
 50
270.9591275897954006
 51
273.0519513118721875
  0
ARC
  5
6F4B
  8
0
 10
4032.3545881886047937
 20
136.9345904825823084
 30
0.0
 40
0.5695078027
 50
230.9330505721063105
 51
233.040872410206191
  0
ARC
  5
6F4C
  8
0
 10
4032.3545881886047937
 20
136.9345904825823084
 30
0.0
 40
0.5631423001
 50
253.831312153805186
 51
255.8366816986080039
  0
ARC
  5
6F4D
  8
0
 10
4032.3545881886047937
 20
136.9345904825823084
 30
0.0
 40
0.5631423001
 50
248.1633183014089923
 51
250.1686878462122081
  0
ARC
  5
6F4E
  8
0
 10
4032.3545881886047937
 20
136.9345904825823084
 30
0.0
 40
0.5631423001
 50
259.5173647470043079
 51
261.542687297488726
  0
ARC
  5
6F4F
  8
0
 10
4032.3545881886047937
 20
136.9345904825823084
 30
0.0
 40
0.5631423001
 50
242.4573127024906114
 51
244.4826352529944131
  0
ARC
  5
6F50
  8
0
 10
4032.3545881886047937
 20
136.9345904825823084
 30
0.0
 40
0.5631423001
 50
265.2791950285056828
 51
267.3462789823059893
  0
ARC
  5
6F51
  8
0
 10
4032.3545881886047937
 20
136.9345904825823084
 30
0.0
 40
0.5631423001
 50
236.6537210176983876
 51
238.7208049714897982
  0
ARC
  5
6F52
  8
0
 10
4032.3545881886047937
 20
136.9345904825823084
 30
0.0
 40
0.5611282751
 50
250.9949468158046955
 51
253.0050531841883128
  0
ARC
  5
6F53
  8
0
 10
4032.3545881886047937
 20
136.9345904825823084
 30
0.0
 40
0.5611282751
 50
256.6853663883014178
 51
258.7054458436015238
  0
ARC
  5
6F54
  8
0
 10
4032.3545881886047937
 20
136.9345904825823084
 30
0.0
 40
0.5611282751
 50
245.2945541563956908
 51
247.3146336117115993
  0
ARC
  5
6F55
  8
0
 10
4032.3545881886047937
 20
136.9345904825823084
 30
0.0
 40
0.5611282751
 50
262.4226822784124806
 51
264.4735963034111137
  0
ARC
  5
6F56
  8
0
 10
4032.3545881886047937
 20
136.9345904825823084
 30
0.0
 40
0.5611282751
 50
239.5264036966028129
 51
241.5773177215895089
  0
ARC
  5
6F57
  8
0
 10
4032.3545881886047937
 20
136.9345904825823084
 30
0.0
 40
0.5611282751
 50
268.2681460353012994
 51
270.373747191999712
  0
ARC
  5
6F58
  8
0
 10
4032.3545881886047937
 20
136.9345904825823084
 30
0.0
 40
0.5611282751
 50
233.6262528080040966
 51
235.7318539647027933
  0
ARC
  5
6F59
  8
0
 10
4032.3545881886047937
 20
136.9345904825823084
 30
0.0
 40
0.5535823391
 50
250.9812454015043102
 51
253.0187545985054953
  0
ARC
  5
6F5A
  8
0
 10
4032.3545881886047937
 20
136.9345904825823084
 30
0.0
 40
0.5535823391
 50
256.7493787723873879
 51
258.7972767332074113
  0
ARC
  5
6F5B
  8
0
 10
4032.3545881886047937
 20
136.9345904825823084
 30
0.0
 40
0.5535823391
 50
245.2027232668048953
 51
247.2506212275924895
  0
ARC
  5
6F5C
  8
0
 10
4032.3545881886047937
 20
136.9345904825823084
 30
0.0
 40
0.5535823391
 50
262.5663763408986142
 51
264.6464211869011933
  0
ARC
  5
6F5D
  8
0
 10
4032.3545881886047937
 20
136.9345904825823084
 30
0.0
 40
0.5535823391
 50
239.3535788131032973
 51
241.4336236591049101
  0
ARC
  5
6F5E
  8
0
 10
4032.3545881886047937
 20
136.9345904825823084
 30
0.0
 40
0.5512175086
 50
253.8709438750020979
 51
255.9198110995108095
  0
ARC
  5
6F5F
  8
0
 10
4032.3545881886047937
 20
136.9345904825823084
 30
0.0
 40
0.5512175086
 50
248.0801889005061014
 51
250.1290561250019095
  0
ARC
  5
6F60
  8
0
 10
4032.3545881886047937
 20
136.9345904825823084
 30
0.0
 40
0.5512175086
 50
259.68096271160681
 51
261.7511239739068856
  0
ARC
  5
6F61
  8
0
 10
4032.3545881886047937
 20
136.9345904825823084
 30
0.0
 40
0.5512175086
 50
242.2488760261018967
 51
244.3190372883888983
  0
ARC
  5
6F62
  8
0
 10
4032.3545881886047937
 20
136.9345904825823084
 30
0.0
 40
0.5512175086
 50
265.5719055775898028
 51
267.3726566577423114
  0
ARC
  5
6F63
  8
0
 10
4032.3545881886047937
 20
136.9345904825823084
 30
0.0
 40
0.5512175086
 50
267.6867267788555864
 51
267.6869051481746169
  0
ARC
  5
6F64
  8
0
 10
4032.3545881886047937
 20
136.9345904825823084
 30
0.0
 40
0.5512175086
 50
236.6276979698963032
 51
238.4280944223955885
  0
ARC
  5
6F65
  8
0
 10
4032.3545881886047937
 20
136.9345904825823084
 30
0.0
 40
0.5424274688000001
 50
253.9012735739030973
 51
255.9834333776927053
  0
ARC
  5
6F66
  8
0
 10
4032.3545881886047937
 20
136.9345904825823084
 30
0.0
 40
0.5424274688000001
 50
248.0165666223039977
 51
250.0987264260922132
  0
ARC
  5
6F67
  8
0
 10
4032.3545881886047937
 20
136.9345904825823084
 30
0.0
 40
0.5424274688000001
 50
259.8062023494978803
 51
261.9107228973024917
  0
ARC
  5
6F68
  8
0
 10
4032.3545881886047937
 20
136.9345904825823084
 30
0.0
 40
0.5424274688000001
 50
242.089277102689806
 51
244.1937976505012955
  0
ARC
  5
6F69
  8
0
 10
4032.3545881886047937
 20
136.9345904825823084
 30
0.0
 40
0.5396911518
 50
250.9550206607916039
 51
253.0449793392012054
  0
ARC
  5
6F6A
  8
0
 10
4032.3545881886047937
 20
136.9345904825823084
 30
0.0
 40
0.5396911518
 50
256.87191544629178
 51
258.9730906709881992
  0
ARC
  5
6F6B
  8
0
 10
4032.3545881886047937
 20
136.9345904825823084
 30
0.0
 40
0.5396911518
 50
245.026909329010806
 51
247.1280845537075948
  0
ARC
  5
6F6C
  8
0
 10
4032.4157733126039602
 20
136.5447116244822894
 30
0.0
 40
0.223324655
 50
215.5373406582968983
 51
216.0384018885928015
  0
ARC
  5
6F6D
  8
0
 10
4032.4136711379051121
 20
136.532609916382313
 30
0.0
 40
0.203576982
 50
218.5482028092995108
 51
220.3786670513032107
  0
ARC
  5
6F6E
  8
0
 10
4032.4051780238041829
 20
136.5286646888822872
 30
0.0
 40
0.1974494724
 50
218.8293081350979037
 51
222.1793400227080895
  0
ARC
  5
6F6F
  8
0
 10
4032.4050222403930093
 20
136.5161179220845895
 30
0.0
 40
0.1786519820712791
 50
223.3666963000204078
 51
226.9057301268256879
  0
ARC
  5
6F70
  8
0
 10
4032.4017204612150636
 20
136.5017197973608063
 30
0.0
 40
0.1587921264869383
 50
230.1571077316752962
 51
233.9360006685116105
  0
ARC
  5
6F71
  8
0
 10
4032.4327376805040331
 20
136.5018939397822919
 30
0.0
 40
0.1549853483
 50
230.425104785081686
 51
233.508455842698794
  0
ARC
  5
6F72
  8
0
 10
4032.4039002135709779
 20
136.4913046825168124
 30
0.0
 40
0.1452539496892605
 50
237.4329165658411966
 51
241.4115854197150099
  0
ARC
  5
6F73
  8
0
 10
4032.3991611179039865
 20
136.4892339602822915
 30
0.0
 40
0.1432646559
 50
239.5126190265930006
 51
243.5165963451105995
  0
ARC
  5
6F74
  8
0
 10
4032.4353795767037809
 20
136.4924926841823094
 30
0.0
 40
0.141826021
 50
237.0543572523932028
 51
241.1345080197939978
  0
ARC
  5
6F75
  8
0
 10
4032.3363116173709386
 20
136.1605269435789012
 30
0.0
 40
0.1978377026878492
 50
74.2434195665056933
 51
76.9591779927071116
  0
ARC
  5
6F76
  8
0
 10
4032.4065251091051323
 20
136.4851823331823084
 30
0.0
 40
0.1377239098
 50
247.2544189101876952
 51
251.3545056533064894
  0
ARC
  5
6F77
  8
0
 10
4032.4103350675168258
 20
136.4857696828657936
 30
0.0
 40
0.1378875549574321
 50
245.1169914999204025
 51
249.2222637123475124
  0
ARC
  5
6F78
  8
0
 10
4032.4193842188042254
 20
136.4852271489806128
 30
0.0
 40
0.1359366868981862
 50
253.0707129349779052
 51
257.227203257127087
  0
ARC
  5
6F79
  8
0
 10
4032.4419767768040401
 20
136.4875464687823126
 30
0.0
 40
0.1343054042
 50
245.1135902337458958
 51
249.141095176190106
  0
ARC
  5
6F7A
  8
0
 10
4032.5010145757041755
 20
136.3660105550823118
 30
0.0
 40
0.0393700787
 50
297.0000000000013074
 51
341.9999999999977263
  0
ARC
  5
6F7B
  8
0
 10
4032.328049332703813
 20
139.374769078082295
 30
0.0
 40
2.9553575307999989
 50
255.2672488313922941
 51
256.1320687096916231
  0
ARC
  5
6F7C
  8
0
 10
4033.0110528248937953
 20
139.0489598260834896
 30
0.0
 40
0.0362630340813475
 50
97.1095247665585077
 51
172.8903260254801069
  0
ARC
  5
6F7D
  8
0
 10
4036.0388957381542241
 20
138.5138255238553882
 30
0.0
 40
0.3937007887730806
 50
270.0000000417924184
 51
294.9999986757583201
  0
ARC
  5
6F7E
  8
0
 10
4036.9346457818869567
 20
139.0512676878593084
 30
0.0
 40
0.0337468643990902
 50
3.704449783447489
 51
86.295699593516801
  0
ARC
  5
6F7F
  8
0
 10
4035.3359481223678813
 20
138.1412940288452944
 30
0.0
 40
0.0212212632508589
 50
184.0106474200102866
 51
265.9893525836969843
  0
LINE
  5
6F80
  8
0
 10
4032.7526259829041919
 20
136.3788798125823121
 30
0.0
 11
4032.7277896076038814
 21
136.3662515647822886
 31
0.0
  0
LINE
  5
6F81
  8
0
 10
4035.194716388803954
 20
132.8784885149823083
 30
0.0
 11
4037.0451104539051812
 21
132.8784885149823083
 31
0.0
  0
LINE
  5
6F82
  8
0
 10
4035.194716388803954
 20
132.9572286724823016
 30
0.0
 11
4037.0451104539051812
 21
132.9572286724823016
 31
0.0
  0
LINE
  5
6F83
  8
0
 10
4035.194716388803954
 20
132.9905525644217903
 30
0.0
 11
4035.194716388803954
 21
132.8784885149823083
 31
0.0
  0
LINE
  5
6F84
  8
0
 10
4035.2912692454810895
 20
133.3170835592823096
 30
0.0
 11
4035.2912692454810895
 21
135.5202882904291926
 31
0.0
  0
LINE
  5
6F85
  8
0
 10
4035.2912692454810895
 20
133.3053334947823032
 30
0.0
 11
4035.2912692454810895
 21
133.3170835592823096
 31
0.0
  0
LINE
  5
6F86
  8
0
 10
4035.194716388803954
 20
132.9905525644217903
 30
0.0
 11
4035.1965149569041387
 21
133.0023151642822938
 31
0.0
  0
LINE
  5
6F87
  8
0
 10
4035.2912692454810895
 20
133.3053334947823032
 30
0.0
 11
4035.1965149569041387
 21
133.0023151642822938
 31
0.0
  0
LINE
  5
6F88
  8
0
 10
4036.9485575972271363
 20
138.0472900893823009
 30
0.0
 11
4035.2931387903108771
 21
138.0472900893823009
 31
0.0
  0
LINE
  5
6F89
  8
0
 10
4035.3344638679041054
 20
138.1201247350822996
 30
0.0
 11
4036.0388957383052002
 21
138.1201247350822996
 31
0.0
  0
ARC
  5
6F8A
  8
0
 10
4036.2257893263040387
 20
137.9276887910822893
 30
0.0
 40
0.8661417322998467
 50
167.1631252227780067
 51
172.0629436037357038
  0
LINE
  5
6F8B
  8
0
 10
4037.0451104539051812
 20
132.9905525644217903
 30
0.0
 11
4037.0451104539051812
 21
132.8784885149823083
 31
0.0
  0
LINE
  5
6F8C
  8
0
 10
4036.9485575972271363
 20
133.3170835592823096
 30
0.0
 11
4036.9485575972271363
 21
138.0472900893823009
 31
0.0
  0
LINE
  5
6F8D
  8
0
 10
4036.9485575972271363
 20
133.3053334947823032
 30
0.0
 11
4036.9485575972271363
 21
133.3170835592823096
 31
0.0
  0
LINE
  5
6F8E
  8
0
 10
4037.0451104539051812
 20
132.9905525644217903
 30
0.0
 11
4037.0433118858040871
 21
133.0023151642822938
 31
0.0
  0
LINE
  5
6F8F
  8
0
 10
4036.9485575972271363
 20
133.3053334947823032
 30
0.0
 11
4037.0433118858040871
 21
133.0023151642822938
 31
0.0
  0
ARC
  5
6F90
  8
0
 10
4036.014037516404187
 20
137.9276887910822893
 30
0.0
 40
0.8661417322998467
 50
7.9370563962642624
 51
33.4324548846853489
  0
LINE
  5
6F91
  8
0
 10
4035.1965149569041387
 20
133.0023151642822938
 30
0.0
 11
4037.0433118858040871
 21
133.0023151642822938
 31
0.0
  0
LINE
  5
6F92
  8
0
 10
4035.2912692454810895
 20
133.3170835592823096
 30
0.0
 11
4036.9485575972271363
 21
133.3170835592823096
 31
0.0
  0
ARC
  5
6F93
  8
0
 10
4036.950236229939037
 20
138.5243453865064112
 30
0.0
 40
0.0181145759402865
 50
291.7759931072030781
 51
3.2240072512591662
  0
ARC
  5
6F94
  8
0
 10
4033.0090541240210769
 20
138.9307119563129902
 30
0.0
 40
0.0340140680137442
 50
182.3480778703396936
 51
262.7698417809345983
  0
ARC
  5
6F95
  8
0
 10
4035.2798697571302
 20
138.7331939831078103
 30
0.0
 40
0.0350535307556177
 50
5.2034781009058522
 51
80.8271740754938577
  0
ARC
  5
6F96
  8
0
 10
4034.5267185890229484
 20
138.5531061507763866
 30
0.0
 40
0.8008931449505201
 50
349.7294323044835096
 51
10.2705677036442005
  0
ARC
  5
6F97
  8
0
 10
4034.7139784786700147
 20
138.057452200112408
 30
0.0
 40
0.5792494584149573
 50
306.0437140665625861
 51
358.9947751897294097
  0
ARC
  5
6F98
  8
0
 10
4034.1724150683207881
 20
139.3199728145735889
 30
0.0
 40
1.9428274271556241
 50
269.3497178109519723
 51
297.0122452169799203
  0
LINE
  5
6F99
  8
0
 10
4034.1503652950250398
 20
137.3772705164317074
 30
0.0
 11
4031.5836771816047985
 21
137.295282090382301
 31
0.0
  0
ARC
  5
6F9A
  8
0
 10
4031.5887743000389491
 20
136.5503478693173918
 30
0.0
 40
0.0359433303180638
 50
185.2939426907711891
 51
249.9813599872888972
  0
ARC
  5
6F9B
  8
0
 10
4041.3016286650740767
 20
333.3370958615528252
 30
0.0
 40
197.1463218388194036
 50
267.5176798202917894
 51
267.9673042147148863
  0
ARC
  5
6F9C
  8
0
 10
4034.2312243301539638
 20
134.8617401516420102
 30
0.0
 40
1.455162464031974
 50
53.1480386852528426
 51
86.9405448547212245
  0
ARC
  5
6F9D
  8
0
 10
4034.527979542167941
 20
135.5252587139964078
 30
0.0
 40
0.7633058864541166
 50
359.6269040885576942
 51
41.0110363483677673
  0
ARC
  5
6F9E
  8
0
 10
4031.7666572045550311
 20
137.9328662388851967
 30
0.0
 40
1.4348543080131859
 50
264.1212955235864115
 51
271.5787336121238127
  0
ARC
  5
6F9F
  8
0
 10
4031.968202898349773
 20
131.7766831083235957
 30
0.0
 40
4.7246521434562281
 50
85.8212599426873055
 51
91.9651334059927876
  0
ARC
  5
6FA0
  8
0
 10
4032.2067293615759809
 20
135.1126159083752043
 30
0.0
 40
1.3802164235501539
 50
66.2320349372764525
 51
85.6057766956621009
  0
ENDSEC
  0
EOF
