  0
SECTION
  2
HEADER
  9
$ACADVER
  1
AC1009
  9
$INSBASE
 10
530.0980177520235657
 20
1.3650660230895291
 30
0.0
  9
$EXTMIN
 10
525.4947241132440467
 20
1.365020947630277
 30
-0.0000000000000053
  9
$EXTMAX
 10
531.3694548983017967
 20
7.512548546679759
 30
0.0000000000000099
  9
$LIMMIN
 10
0.0
 20
0.0
  9
$LIMMAX
 10
11.6929133858000007
 20
8.2677165353999982
  9
$ORTHOMODE
 70
     0
  9
$REGENMODE
 70
     1
  9
$FILLMODE
 70
     1
  9
$QTEXTMODE
 70
     0
  9
$MIRRTEXT
 70
     0
  9
$DRAGMODE
 70
     2
  9
$LTSCALE
 40
0.6431102362
  9
$OSMODE
 70
  4095
  9
$ATTMODE
 70
     1
  9
$TEXTSIZE
 40
0.2
  9
$TRACEWID
 40
0.05
  9
$TEXTSTYLE
  7
STANDARD
  9
$CLAYER
  8
DEFPOINT
  9
$CELTYPE
  6
BYLAYER
  9
$CECOLOR
 62
   256
  9
$DIMSCALE
 40
1.0
  9
$DIMASZ
 40
0.1875
  9
$DIMEXO
 40
0.0625
  9
$DIMDLI
 40
0.4443307087
  9
$DIMRND
 40
0.0
  9
$DIMDLE
 40
0.0
  9
$DIMEXE
 40
0.125
  9
$DIMTP
 40
0.01
  9
$DIMTM
 40
0.01
  9
$DIMTXT
 40
1.0
  9
$DIMCEN
 40
0.1052362205
  9
$DIMTSZ
 40
0.0
  9
$DIMTOL
 70
     1
  9
$DIMLIM
 70
     0
  9
$DIMTIH
 70
     1
  9
$DIMTOH
 70
     1
  9
$DIMSE1
 70
     0
  9
$DIMSE2
 70
     0
  9
$DIMTAD
 70
     0
  9
$DIMZIN
 70
     0
  9
$DIMBLK
  1

  9
$DIMASO
 70
     1
  9
$DIMSHO
 70
     1
  9
$DIMPOST
  1
\X
  9
$DIMAPOST
  1

  9
$DIMALT
 70
     1
  9
$DIMALTD
 70
     2
  9
$DIMALTF
 40
25.3999999999999986
  9
$DIMLFAC
 40
1.0
  9
$DIMTOFL
 70
     0
  9
$DIMTVP
 40
0.0
  9
$DIMTIX
 70
     0
  9
$DIMSOXD
 70
     0
  9
$DIMSAH
 70
     0
  9
$DIMBLK1
  1

  9
$DIMBLK2
  1

  9
$DIMSTYLE
  2
STANDARD
  9
$DIMCLRD
 70
     0
  9
$DIMCLRE
 70
     0
  9
$DIMCLRT
 70
     0
  9
$DIMTFAC
 40
1.0
  9
$DIMGAP
 40
0.09
  9
$LUNITS
 70
     2
  9
$LUPREC
 70
     4
  9
$SKETCHINC
 40
0.1
  9
$FILLETRAD
 40
0.0
  9
$AUNITS
 70
     0
  9
$AUPREC
 70
     0
  9
$MENU
  1
.
  9
$ELEVATION
 40
0.0
  9
$PELEVATION
 40
0.0
  9
$THICKNESS
 40
0.0
  9
$LIMCHECK
 70
     0
  9
$BLIPMODE
 70
     0
  9
$CHAMFERA
 40
0.0
  9
$CHAMFERB
 40
0.0
  9
$SKPOLY
 70
     0
  9
$TDCREATE
 40
2458306.6094560190103948
  9
$TDUPDATE
 40
2459034.5727662038989365
  9
$TDINDWG
 40
0.0986201389
  9
$TDUSRTIMER
 40
0.0986200116
  9
$USRTIMER
 70
     1
  9
$ANGBASE
 50
0.0
  9
$ANGDIR
 70
     0
  9
$PDMODE
 70
     0
  9
$PDSIZE
 40
0.3125
  9
$PLINEWID
 40
0.0
  9
$COORDS
 70
     1
  9
$SPLFRAME
 70
     0
  9
$SPLINETYPE
 70
     6
  9
$SPLINESEGS
 70
     8
  9
$ATTDIA
 70
     1
  9
$ATTREQ
 70
     1
  9
$HANDLING
 70
     1
  9
$HANDSEED
  5
3DC4
  9
$SURFTAB1
 70
     6
  9
$SURFTAB2
 70
     6
  9
$SURFTYPE
 70
     6
  9
$SURFU
 70
     6
  9
$SURFV
 70
     6
  9
$UCSNAME
  2

  9
$UCSORG
 10
0.0
 20
0.0
 30
0.0
  9
$UCSXDIR
 10
1.0
 20
0.0
 30
0.0
  9
$UCSYDIR
 10
0.0
 20
1.0
 30
0.0
  9
$PUCSNAME
  2

  9
$PUCSORG
 10
0.0
 20
0.0
 30
0.0
  9
$PUCSXDIR
 10
1.0
 20
0.0
 30
0.0
  9
$PUCSYDIR
 10
0.0
 20
1.0
 30
0.0
  9
$USERI1
 70
     0
  9
$USERI2
 70
     0
  9
$USERI3
 70
     0
  9
$USERI4
 70
     0
  9
$USERI5
 70
     0
  9
$USERR1
 40
0.0
  9
$USERR2
 40
0.0
  9
$USERR3
 40
0.0
  9
$USERR4
 40
0.0
  9
$USERR5
 40
0.0
  9
$WORLDVIEW
 70
     1
  9
$SHADEDGE
 70
     3
  9
$SHADEDIF
 70
    70
  9
$TILEMODE
 70
     1
  9
$MAXACTVP
 70
    64
  9
$PLIMCHECK
 70
     0
  9
$PEXTMIN
 10
1.0000000000000000E+20
 20
1.0000000000000000E+20
 30
1.0000000000000000E+20
  9
$PEXTMAX
 10
-1.0000000000000000E+20
 20
-1.0000000000000000E+20
 30
-1.0000000000000000E+20
  9
$PLIMMIN
 10
0.0
 20
0.0
  9
$PLIMMAX
 10
12.0
 20
9.0
  9
$UNITMODE
 70
     0
  9
$VISRETAIN
 70
     1
  9
$PLINEGEN
 70
     0
  9
$PSLTSCALE
 70
     1
  0
ENDSEC
  0
SECTION
  2
TABLES
  0
TABLE
  2
VPORT
 70
     1
  0
VPORT
  2
*ACTIVE
 70
     0
 10
0.0
 20
0.0
 11
1.0
 21
1.0
 12
186.8248032849120932
 22
13.4087218411455105
 13
0.0
 23
0.0
 14
1.0
 24
1.0
 15
0.0
 25
0.0
 16
0.0
 26
0.0
 36
57.1721640433716018
 17
341.6072862208607717
 27
-8.9699370939904934
 37
0.0
 40
6.1893949833789899
 41
2.1579545454545448
 42
50.0
 43
0.0
 44
0.0
 50
0.0
 51
0.0
 71
     0
 72
   100
 73
     1
 74
     1
 75
     0
 76
     0
 77
     0
 78
     0
  0
ENDTAB
  0
TABLE
  2
LTYPE
 70
     1
  0
LTYPE
  2
CONTINUOUS
 70
     0
  3
Solid line
 72
    65
 73
     0
 40
0.0
  0
ENDTAB
  0
TABLE
  2
LAYER
 70
     2
  0
LAYER
  2
0
 70
     0
 62
   255
  6
CONTINUOUS
  0
LAYER
  2
DEFPOINT
 70
     0
 62
     7
  6
CONTINUOUS
  0
ENDTAB
  0
TABLE
  2
STYLE
 70
     1
  0
STYLE
  2
STANDARD
 70
     0
 40
0.0
 41
0.8
 50
0.0
 71
     0
 42
0.2
  3
txt
  4

  0
ENDTAB
  0
TABLE
  2
VIEW
 70
     0
  0
ENDTAB
  0
TABLE
  2
UCS
 70
     0
  0
ENDTAB
  0
TABLE
  2
APPID
 70
    10
  0
APPID
  2
ACAD
 70
     0
  0
APPID
  2
ACADANNOTATIVE
 70
     0
  0
APPID
  2
ACAD_MLEADERVER
 70
     0
  0
APPID
  2
ACAD_EXEMPT_FROM_CAD_STANDARDS
 70
     0
  0
APPID
  2
ACAD_DSTYLE_DIMJAG
 70
     0
  0
APPID
  2
ACAD_DSTYLE_DIMTALN
 70
     0
  0
APPID
  2
ACAD_NAV_VCDISPLAY
 70
     0
  0
APPID
  2
ACAECLAYERSTANDARD
 70
     0
  0
APPID
  2
ACCMTRANSPARENCY
 70
     0
  0
APPID
  2
ACDBATTR
 70
     0
  0
ENDTAB
  0
TABLE
  2
DIMSTYLE
 70
     1
  0
DIMSTYLE
  2
STANDARD
 70
     0
  3

  4

  5

  6

  7

 40
1.0
 41
0.1875
 42
0.0625
 43
0.38
 44
0.125
 45
0.0
 46
0.0
 47
0.01
 48
0.01
140
0.15625
141
0.09
142
0.0
143
25.3999999999999986
144
1.0
145
0.0
146
1.0
147
0.09
 71
     1
 72
     0
 73
     1
 74
     1
 75
     0
 76
     0
 77
     0
 78
     4
170
     0
171
     2
172
     0
173
     0
174
     0
175
     0
176
     0
177
     0
178
     0
  0
ENDTAB
  0
ENDSEC
  0
SECTION
  2
BLOCKS
  0
BLOCK
  8
0
  2
$MODEL_SPACE
 70
     0
 10
0.0
 20
0.0
 30
0.0
  3
$MODEL_SPACE
  1

  0
ENDBLK
  5
1598
  8
0
  0
BLOCK
 67
     1
  8
0
  2
$PAPER_SPACE
 70
     0
 10
0.0
 20
0.0
 30
0.0
  3
$PAPER_SPACE
  1

  0
ENDBLK
  5
1594
 67
     1
  8
0
  0
ENDSEC
  0
SECTION
  2
ENTITIES
  0
ATTDEF
  5
659
  8
DEFPOINT
 10
530.0954617928448442
 20
1.3700640159926301
 30
0.0
 40
0.001
  1
K-74013T-4E2
  3

  2
MODELNUMBER
 70
     0
1001
ACDBATTR
1070
     0
1070
     1
  0
ATTDEF
  5
65A
  8
DEFPOINT
 10
530.0954617928448442
 20
1.3683973493259649
 30
0.0
 40
0.001
  1
TAUT
  3

  2
TRADENAME
 70
     0
1001
ACDBATTR
1070
     0
1070
     1
  0
ATTDEF
  5
65B
  8
DEFPOINT
 10
530.0954617928448442
 20
1.3667306826593011
 30
0.0
 40
0.001
  1
BATHROOM SINK FAUCET
  3

  2
PRODUCT
 70
     0
1001
ACDBATTR
1070
     0
1070
     1
  0
LINE
  5
3B05
  8
0
 10
526.9295508986235745
 20
7.3576877953132431
 30
0.0
 11
526.9295508986235745
 21
7.4809704562895263
 31
0.0
  0
LINE
  5
3B06
  8
0
 10
530.1597631563237201
 20
6.5845338193895273
 30
0.0
 11
530.9114386364235543
 21
6.9350458321895303
 31
0.0
  0
LINE
  5
3B07
  8
0
 10
529.2692611119235835
 20
6.8378318725895184
 30
0.0
 11
529.2692611119235835
 21
6.5674436108845811
 31
0.0
  0
LINE
  5
3B08
  8
0
 10
530.9247204141501015
 20
6.4551274399895284
 30
0.0
 11
529.2712036593236462
 21
6.4551274399895284
 31
0.0
  0
LINE
  5
3B09
  8
0
 10
529.2890575978185552
 20
6.5476471249895267
 30
0.0
 11
529.9933780216235846
 21
6.5476471249895267
 31
0.0
  0
LINE
  5
3B0A
  8
0
 10
527.0045217396235557
 20
7.3241819829895292
 30
0.0
 11
529.7633221874433502
 21
7.246819076024166
 31
0.0
  0
LINE
  5
3B0B
  8
0
 10
526.9592562582237179
 20
7.3244906980895257
 30
0.0
 11
528.7976083217237147
 21
7.2206587289895259
 31
0.0
  0
LINE
  5
3B0C
  8
0
 10
528.7976000480235825
 20
7.2204106193895248
 30
0.0
 11
529.2393864990006023
 21
7.1953602775704359
 31
0.0
  0
LINE
  5
3B0D
  8
0
 10
530.8913083559236838
 20
7.5124665192895277
 30
0.0
 11
526.9610469616236514
 21
7.5124665192895277
 31
0.0
  0
ARC
  5
3B0E
  8
0
 10
526.9627388033660509
 20
7.3574959357136498
 30
0.0
 40
0.0331884593088317
 50
179.6687762320684101
 51
263.976727360116513
  0
ARC
  5
3B0F
  8
0
 10
526.9610469616236514
 20
7.4809704562895263
 30
0.0
 40
0.031496063
 50
90.0
 51
180.0
  0
ARC
  5
3B10
  8
0
 10
530.203893656923583
 20
6.3355261416895274
 30
0.0
 40
0.8661417323
 50
165.8238798575434032
 51
172.0629436037366986
  0
ARC
  5
3B11
  8
0
 10
529.9921418470237313
 20
6.3355261416895274
 30
0.0
 40
0.8661417323
 50
7.9370563962632623
 51
35.2979626538705702
  0
ARC
  5
3B12
  8
0
 10
530.8898382759266497
 20
7.4774441257887183
 30
0.0
 40
0.0350537365836474
 50
5.671583931249967
 51
87.5964301551218938
  0
ARC
  5
3B13
  8
0
 10
529.2889539042237175
 20
6.5673399172895301
 30
0.0
 40
0.0196930653
 50
179.698308377981391
 51
270.3016916217546282
  0
LINE
  5
3B14
  8
0
 10
526.9538304093794068
 20
7.3255254126045202
 30
0.0
 11
527.0045218976235901
 21
7.3241866799895297
 31
0.0
  0
LINE
  5
3B15
  8
0
 10
530.9247787657235449
 20
1.72543387363715
 30
0.0
 11
530.9247787657235449
 21
2.639089203877826
 31
0.0
  0
ARC
  5
3B16
  8
0
 10
536.3854821930048047
 20
231.2755306005371096
 30
0.0
 40
226.6975645975234954
 50
267.561951004732407
 51
267.9527482616281873
  0
ARC
  5
3B17
  8
0
 10
528.2775917102337644
 20
3.38847433488128
 30
0.0
 40
1.3342247003360781
 50
57.2717816966775928
 51
89.5955130165887113
  0
ARC
  5
3B18
  8
0
 10
528.5723367942241566
 20
3.968395474827525
 30
0.0
 40
0.6901371914232132
 50
6.9415129386324121
 51
51.8186818353200067
  0
ARC
  5
3B19
  8
0
 10
527.8695253278850714
 20
3.8547365153775761
 30
0.0
 40
1.4018108635610811
 50
359.6856230962814038
 51
8.0813963388573136
  0
ARC
  5
3B1A
  8
0
 10
504.3694913226051995
 20
690.6680111549568437
 30
0.0
 40
685.2926495634261528
 50
271.7721223213209214
 51
271.9992738044268776
  0
ARC
  5
3B1B
  8
0
 10
528.2934928791571565
 20
7.2744565163639621
 30
0.0
 40
1.4820260199153319
 50
269.3693021714145743
 51
297.9660270743326009
  0
ARC
  5
3B1C
  8
0
 10
528.6795997743172393
 20
6.4702841557989137
 30
0.0
 40
0.5917980084359981
 50
301.4628260583468204
 51
358.5324201826816761
  0
ARC
  5
3B1D
  8
0
 10
529.9933780215783372
 20
6.9413479127727484
 30
0.0
 40
0.393700787783219
 50
270.0000000211567226
 51
294.9999987421255128
  0
ARC
  5
3B1E
  8
0
 10
530.8975084602831203
 20
6.9592806193879957
 30
0.0
 40
0.0279530806506688
 50
299.8903255913077146
 51
346.7768997514971829
  0
ARC
  5
3B1F
  8
0
 10
528.4816614482823525
 20
6.9806285407895281
 30
0.0
 40
0.8004399531612797
 50
349.7235541746832155
 51
10.2764458214186902
  0
ARC
  5
3B20
  8
0
 10
529.2377002369115644
 20
7.1638446974165362
 30
0.0
 40
0.0315606601999909
 50
359.9084028995457061
 51
86.937271677432534
  0
LINE
  5
3B21
  8
0
 10
529.2692608567813295
 20
7.1637942423261967
 30
0.0
 11
529.2692611119332469
 21
7.1234252089359407
 31
0.0
  0
ARC
  5
3B22
  8
0
 10
530.0140993371642253
 20
2.054367351589931
 30
0.0
 40
5.1985040241787042
 50
92.7650360409837162
 51
98.5454430210061929
  0
ARC
  5
3B23
  8
0
 10
529.9769100380362943
 20
2.4334961832280788
 30
0.0
 40
0.8881774089567128
 50
344.933688611875823
 51
1.337831047501449
  0
ARC
  5
3B24
  8
0
 10
530.8072638925063984
 20
2.2099732092358648
 30
0.0
 40
0.0282645973672594
 50
283.8237968340926045
 51
344.9336886118747998
  0
ARC
  5
3B25
  8
0
 10
530.8182823334127534
 20
2.2077046266693219
 30
0.0
 40
0.0255360195119302
 50
206.6327285430400025
 51
260.385483648847412
  0
ARC
  5
3B26
  8
0
 10
531.4782212692987287
 20
2.4550475692094258
 30
0.0
 40
0.7301650713790118
 50
181.7563913186939999
 51
200.7583098575294969
  0
ARC
  5
3B27
  8
0
 10
532.4550065560337089
 20
2.483674262507729
 30
0.0
 40
1.707369365722043
 50
168.9780432177174134
 51
181.7119191560715024
  0
ARC
  5
3B28
  8
0
 10
530.9252147743218302
 20
2.7802662971553
 30
0.0
 40
0.1490982769721752
 50
143.1554296248382059
 51
168.4583371564474135
  0
ARC
  5
3B29
  8
0
 10
530.8139504184410953
 20
2.862213324267159
 30
0.0
 40
0.0109774040197639
 50
38.0319481871796228
 51
137.1950046745562872
  0
ARC
  5
3B2A
  8
0
 10
530.6463870635734565
 20
2.7680427627865001
 30
0.0
 40
0.2030703069699025
 50
5.6842758461244642
 51
29.8042574377390004
  0
ARC
  5
3B2B
  8
0
 10
530.9934441183205536
 20
2.6019796990307351
 30
0.0
 40
0.2358135398452693
 50
122.8678144865933035
 51
164.171827033979298
  0
ARC
  5
3B2C
  8
0
 10
530.954246860749322
 20
2.6594796588172471
 30
0.0
 40
0.1662543065484391
 50
63.9174190930862167
 51
122.2759524285152963
  0
ARC
  5
3B2D
  8
0
 10
530.9995922575510576
 20
2.5976246442782478
 30
0.0
 40
0.0855357718279401
 50
122.6170018007358067
 51
165.6564198914703923
  0
ARC
  5
3B2E
  8
0
 10
531.3245956115210902
 20
2.5809165090479982
 30
0.0
 40
0.0642177990002164
 50
91.3539681881567134
 51
149.5864380026609979
  0
ARC
  5
3B2F
  8
0
 10
531.4080378557805489
 20
2.5319346820051059
 30
0.0
 40
0.1609743362858336
 50
149.5864380026609979
 51
160.7907690228780098
  0
ARC
  5
3B30
  8
0
 10
531.3121847802997308
 20
2.5653315712044309
 30
0.0
 40
0.059469832507385
 50
160.7907690228786066
 51
221.094477952091097
  0
ARC
  5
3B31
  8
0
 10
531.2902403008225747
 20
2.5619208838164802
 30
0.0
 40
0.04238149100002
 50
237.3363216096215069
 51
301.2775680798117151
  0
ARC
  5
3B32
  8
0
 10
531.2559541600385273
 20
2.606422439968421
 30
0.0
 40
0.0984115263024045
 50
287.5725552579413034
 51
326.1206383797591002
  0
ARC
  5
3B33
  8
0
 10
531.2541798698985076
 20
2.6076137859851052
 30
0.0
 40
0.1005486764685386
 50
326.120638379758816
 51
1.0905828270335209
  0
ARC
  5
3B34
  8
0
 10
531.2857773394830474
 20
2.608215293115582
 30
0.0
 40
0.0689454820891694
 50
1.090582827034029
 51
33.7114281766019275
  0
ARC
  5
3B35
  8
0
 10
531.3188613832619467
 20
2.630289142775303
 30
0.0
 40
0.0291735222234955
 50
33.711428176603448
 51
77.9567870037908648
  0
ARC
  5
3B36
  8
0
 10
531.3136095357541535
 20
2.6056724506533739
 30
0.0
 40
0.0543442082147531
 50
77.9567870037909358
 51
126.908398707199197
  0
ARC
  5
3B37
  8
0
 10
531.3487956790139606
 20
2.5588232120879111
 30
0.0
 40
0.1129352982512432
 50
126.908398707199396
 51
172.3975548314056994
  0
ARC
  5
3B38
  8
0
 10
531.3019065131989009
 20
2.565626857514391
 30
0.0
 40
0.06556040750892
 50
172.8698938176547131
 51
228.2672370348381037
  0
ARC
  5
3B39
  8
0
 10
531.2780062507590628
 20
2.5531659836532858
 30
0.0
 40
0.0414646409902015
 50
241.570295555447899
 51
269.4712222310359948
  0
ARC
  5
3B3A
  8
0
 10
531.2762727242039773
 20
2.5601496156064658
 30
0.0
 40
0.0484653367998049
 50
271.5971933018391269
 51
281.1753544070335806
  0
ARC
  5
3B3B
  8
0
 10
531.3182697149811702
 20
2.6118386598489169
 30
0.0
 40
0.0336233274967143
 50
14.3974711306165997
 51
81.7779027039862711
  0
ARC
  5
3B3C
  8
0
 10
531.279653818190809
 20
2.5996423315778201
 30
0.0
 40
0.0740920543830331
 50
351.5030178194552946
 51
16.1079362061705815
  0
LINE
  5
3B3D
  8
0
 10
531.0271461994768742
 20
2.8088991383336661
 30
0.0
 11
531.327514502061149
 21
2.6581498307418761
 31
0.0
  0
LINE
  5
3B3E
  8
0
 10
530.953486701803854
 20
2.669670782213851
 30
0.0
 11
531.258265756578794
 21
2.5167019007501512
 31
0.0
  0
LINE
  5
3B3F
  8
0
 10
530.9167228427598957
 20
2.6188149334303001
 30
0.0
 11
530.7890604304075168
 21
2.2138041867080651
 31
0.0
  0
LINE
  5
3B40
  8
0
 10
530.7665716860633438
 20
2.6662986313607582
 30
0.0
 11
530.7534756489935717
 21
2.6247512747861199
 31
0.0
  0
LINE
  5
3B42
  8
0
 10
530.9265695768533533
 20
1.7131710065895649
 30
0.0
 11
529.269465926723683
 21
1.713171020389527
 31
0.0
  0
LINE
  5
3B43
  8
0
 10
529.2692888165820477
 20
1.712618896037936
 30
0.0
 11
529.1746192875235693
 21
1.4101525144895279
 31
0.0
  0
ARC
  5
3B44
  8
0
 10
529.2296850327130642
 20
1.725448634238427
 30
0.0
 40
0.0416300598008393
 50
342.0501473518739886
 51
359.9796848676616037
  0
LINE
  5
3B45
  8
0
 10
530.9267466874651973
 20
1.712618896037936
 30
0.0
 11
531.0214162165236758
 21
1.4101525144895279
 31
0.0
  0
ARC
  5
3B46
  8
0
 10
530.9663504713339535
 20
1.725448634238427
 30
0.0
 40
0.0416300598008258
 50
180.020315132333991
 51
197.9498526481309
  0
ARC
  5
3B47
  8
0
 10
530.9806765478631405
 20
1.3979734275130591
 30
0.0
 40
0.0425211801594351
 50
0.3981912130493685
 51
16.643987385945799
  0
LINE
  5
3B48
  8
0
 10
529.1728388028857353
 20
1.3650660230895291
 30
0.0
 11
531.0231967011616234
 21
1.3650660230895291
 31
0.0
  0
LINE
  5
3B49
  8
0
 10
529.1728388028857353
 20
1.3982689366091221
 30
0.0
 11
531.0231967011616234
 21
1.3982689366091221
 31
0.0
  0
LINE
  5
3B4A
  8
0
 10
531.0231967011616234
 20
1.3650660230895291
 30
0.0
 11
531.0231967011616234
 21
1.3982689366091221
 31
0.0
  0
ARC
  5
3B4B
  8
0
 10
529.2153589561841045
 20
1.3979734275130591
 30
0.0
 40
0.0425211801594351
 50
163.3560126140542081
 51
179.6018087869506132
  0
LINE
  5
3B4C
  8
0
 10
529.1728388028857353
 20
1.3650660230895291
 30
0.0
 11
529.1728388028857353
 21
1.3982689366091221
 31
0.0
  0
LINE
  5
3B4D
  8
0
 10
530.9247204141501015
 20
6.4551274399895284
 30
0.0
 11
530.9247204141501015
 21
2.8230910379970662
 31
0.0
  0
LINE
  5
3B4E
  8
0
 10
530.9247204141501015
 20
2.6389837463953318
 30
0.0
 11
530.9247204141501015
 21
1.7254338736371471
 31
0.0
  0
LINE
  5
3B4F
  8
0
 10
529.2713150898971435
 20
3.8470449410356551
 30
0.0
 11
529.2713150898971435
 21
1.7254338736371471
 31
0.0
  0
LINE
  5
3B50
  8
0
 10
530.9247204141501015
 20
6.9528865373895448
 30
0.0
 11
530.9247204141501015
 21
7.4809083546259521
 31
0.0
  0
LINE
  5
3B51
  8
0
 10
525.5310886181237038
 20
5.6714496684538309
 30
0.0
 11
525.5310886181237038
 21
4.9550160359200071
 31
0.0
  0
LINE
  5
3B52
  8
0
 10
525.967290815123647
 20
4.9036235523895293
 30
0.0
 11
525.96697106992724
 21
4.9026394776722588
 31
0.0
  0
LINE
  5
3B53
  8
0
 10
525.9688177340858601
 20
4.908322925678422
 30
0.0
 11
525.9684206575235521
 21
4.9071008494895274
 31
0.0
  0
LINE
  5
3B54
  8
0
 10
525.9726993670235515
 20
4.9000224550895277
 30
0.0
 11
525.9733143959236941
 21
4.901915319589528
 31
0.0
  0
LINE
  5
3B55
  8
0
 10
525.9750127434235765
 20
4.9071422955895283
 30
0.0
 11
525.9753915367482477
 21
4.9083081018266412
 31
0.0
  0
LINE
  5
3B56
  8
0
 10
525.9943990254237178
 20
4.8969656349895274
 30
0.0
 11
525.993167155523679
 21
4.8931743292895291
 31
0.0
  0
LINE
  5
3B57
  8
0
 10
525.9980542784246609
 20
4.9082153469831118
 30
0.0
 11
525.9972487314237242
 21
4.9057361279895266
 31
0.0
  0
LINE
  5
3B58
  8
0
 10
525.9914921940236354
 20
4.8880193278895261
 30
0.0
 11
525.9908855213235483
 21
4.8861521812895283
 31
0.0
  0
LINE
  5
3B59
  8
0
 10
525.9957132494356529
 20
4.880763492217369
 30
0.0
 11
525.9960241314237237
 21
4.8817202887895279
 31
0.0
  0
LINE
  5
3B5A
  8
0
 10
525.9971297843236471
 20
4.8851231385895266
 30
0.0
 11
525.9980421558235548
 21
4.8879311292895258
 31
0.0
  0
LINE
  5
3B5B
  8
0
 10
526.0002870240236916
 20
4.8948401231895282
 30
0.0
 11
526.0018390045237311
 21
4.8996166278895279
 31
0.0
  0
LINE
  5
3B5C
  8
0
 10
526.0259392500121294
 20
4.9039480548969614
 30
0.0
 11
526.0237402008235676
 21
4.8971800774895282
 31
0.0
  0
LINE
  5
3B5D
  8
0
 10
526.0203259858235469
 20
4.8866722041895283
 30
0.0
 11
526.0187924675235536
 21
4.881952520189528
 31
0.0
  0
LINE
  5
3B5E
  8
0
 10
526.0145786165236359
 20
4.8689836202895282
 30
0.0
 11
526.0142672027419621
 21
4.868025187266749
 31
0.0
  0
LINE
  5
3B5F
  8
0
 10
526.0165737234235621
 20
4.8751239279895273
 30
0.0
 11
526.0156717785235969
 21
4.8723480268895267
 31
0.0
  0
LINE
  5
3B60
  8
0
 10
526.0201935669235809
 20
4.866017752789527
 30
0.0
 11
526.0207894488237343
 21
4.8678516885895284
 31
0.0
  0
LINE
  5
3B61
  8
0
 10
526.0224342300236913
 20
4.8729138046895271
 30
0.0
 11
526.0236435328237121
 21
4.876635655789527
 31
0.0
  0
LINE
  5
3B62
  8
0
 10
526.0264397896237369
 20
4.8852416493895268
 30
0.0
 11
526.0283002979235789
 21
4.8909677052895271
 31
0.0
  0
LINE
  5
3B63
  8
0
 10
526.0524155693236708
 20
4.8953453772895283
 30
0.0
 11
526.0511234219236485
 21
4.8913685563895282
 31
0.0
  0
LINE
  5
3B64
  8
0
 10
526.0471255471236418
 20
4.8790643629895269
 30
0.0
 11
526.0452835009235741
 21
4.8733951275895278
 31
0.0
  0
LINE
  5
3B65
  8
0
 10
526.0396868613237302
 20
4.8561704421895291
 30
0.0
 11
526.0390964445235795
 21
4.8543533259895284
 31
0.0
  0
LINE
  5
3B66
  8
0
 10
526.0425142534236329
 20
4.8648722601895278
 30
0.0
 11
526.0413163658236044
 21
4.8611855413895269
 31
0.0
  0
LINE
  5
3B67
  8
0
 10
526.0441221531002611
 20
4.8495739583581212
 30
0.0
 11
526.0444432484237041
 21
4.850562188189528
 31
0.0
  0
LINE
  5
3B68
  8
0
 10
526.0455205937237224
 20
4.8538779161895276
 30
0.0
 11
526.0464093419235496
 21
4.8566132019895276
 31
0.0
  0
LINE
  5
3B69
  8
0
 10
526.0485950449235588
 20
4.8633401038895272
 30
0.0
 11
526.0501052332235759
 21
4.8679879855895267
 31
0.0
  0
LINE
  5
3B6A
  8
0
 10
526.0534659986236647
 20
4.878331358089528
 30
0.0
 11
526.0556457559235923
 21
4.8850399612895279
 31
0.0
  0
LINE
  5
3B6B
  8
0
 10
526.0748027362235462
 20
4.874157582389528
 30
0.0
 11
526.0726404798235762
 21
4.8675028412895278
 31
0.0
  0
LINE
  5
3B6C
  8
0
 10
526.069305840623656
 20
4.8572398772895289
 30
0.0
 11
526.0678070675236313
 21
4.8526271278895283
 31
0.0
  0
LINE
  5
3B6D
  8
0
 10
526.0656375431236711
 20
4.8459500184895283
 30
0.0
 11
526.0647552604235671
 21
4.843234631489528
 31
0.0
  0
LINE
  5
3B6E
  8
0
 10
526.0636856671236501
 20
4.8399427616895281
 30
0.0
 11
526.0633531650282748
 21
4.8389194256573411
 31
0.0
  0
LINE
  5
3B6F
  8
0
 10
526.069492924523729
 20
4.8375687541895269
 30
0.0
 11
526.0700766448236436
 21
4.8393652605895268
 31
0.0
  0
LINE
  5
3B70
  8
0
 10
526.0716874376237229
 20
4.84432277088953
 30
0.0
 11
526.072871350223636
 21
4.8479664791895258
 31
0.0
  0
LINE
  5
3B71
  8
0
 10
526.0756075563236891
 20
4.8563876557895274
 30
0.0
 11
526.0774270372237424
 21
4.8619874421895277
 31
0.0
  0
LINE
  5
3B72
  8
0
 10
526.0813742424236352
 20
4.8741356907895268
 30
0.0
 11
526.0838893335236435
 21
4.8818763449895277
 31
0.0
  0
LINE
  5
3B73
  8
0
 10
526.0959035581237231
 20
4.881215273189528
 30
0.0
 11
526.0941959235235572
 21
4.875959714189527
 31
0.0
  0
LINE
  5
3B74
  8
0
 10
526.0919964050236786
 20
4.8691902922895274
 30
0.0
 11
526.0877990571236751
 21
4.8562721836895282
 31
0.0
  0
LINE
  5
3B75
  8
0
 10
526.0862074694235844
 20
4.851373780689527
 30
0.0
 11
526.083297316623657
 21
4.842417251289528
 31
0.0
  0
LINE
  5
3B76
  8
0
 10
526.0822615266237108
 20
4.8392294173895278
 30
0.0
 11
526.0805481369236531
 21
4.8339561459895277
 31
0.0
  0
LINE
  5
3B77
  8
0
 10
526.1258580941237142
 20
4.8714824544895272
 30
0.0
 11
526.1082980556236635
 21
4.8174382131895266
 31
0.0
  0
LINE
  5
3B78
  8
0
 10
526.2056479540236751
 20
4.7857993399895271
 30
0.0
 11
526.223210335923568
 21
4.8398507935895276
 31
0.0
  0
LINE
  5
3B79
  8
0
 10
526.2367319550091906
 20
4.7795426571169024
 30
0.0
 11
526.2372987161236324
 21
4.78128696838953
 31
0.0
  0
LINE
  5
3B7A
  8
0
 10
526.2405586304237204
 20
4.7913199529895278
 30
0.0
 11
526.2434687832236477
 21
4.8002764823895268
 31
0.0
  0
LINE
  5
3B7B
  8
0
 10
526.2378094506235584
 20
4.7828588476895284
 30
0.0
 11
526.2395228403237297
 21
4.7881321190895276
 31
0.0
  0
LINE
  5
3B7C
  8
0
 10
526.245060370823694
 20
4.8051748853895271
 30
0.0
 11
526.2492577187236975
 21
4.8180929939895272
 31
0.0
  0
LINE
  5
3B7D
  8
0
 10
526.2514572372236898
 20
4.8248624158895277
 30
0.0
 11
526.2531648719157147
 21
4.8301179748651322
 31
0.0
  0
LINE
  5
3B7E
  8
0
 10
526.2632731520235438
 20
4.8235910090895269
 30
0.0
 11
526.2607580610236937
 21
4.8158503548895277
 31
0.0
  0
LINE
  5
3B7F
  8
0
 10
526.2522551688236945
 20
4.7896811433895294
 30
0.0
 11
526.251071256223554
 21
4.7860374349895274
 31
0.0
  0
LINE
  5
3B80
  8
0
 10
526.2568108558235735
 20
4.8037021062895269
 30
0.0
 11
526.2549913749236339
 21
4.7981023198895283
 31
0.0
  0
LINE
  5
3B81
  8
0
 10
526.2494604634237021
 20
4.7810799247895277
 30
0.0
 11
526.2488767431236738
 21
4.7792834182895261
 31
0.0
  0
LINE
  5
3B82
  8
0
 10
526.2546202408640283
 20
4.7767131787495174
 30
0.0
 11
526.254970319723725
 21
4.7777906104895278
 31
0.0
  0
LINE
  5
3B83
  8
0
 10
526.2560399130236419
 20
4.7810824801895278
 30
0.0
 11
526.2569221957236323
 21
4.783797867189528
 31
0.0
  0
LINE
  5
3B84
  8
0
 10
526.2590917201237062
 20
4.7904749766895272
 30
0.0
 11
526.2605904932237308
 21
4.7950877260895277
 31
0.0
  0
LINE
  5
3B85
  8
0
 10
526.2639251323236067
 20
4.8053506899895266
 30
0.0
 11
526.2660873888237347
 21
4.8120054311895286
 31
0.0
  0
LINE
  5
3B86
  8
0
 10
526.2879822132235859
 20
4.8095492700895282
 30
0.0
 11
526.2858024559235446
 21
4.8028406669895283
 31
0.0
  0
LINE
  5
3B87
  8
0
 10
526.2787457993237012
 20
4.781122510889527
 30
0.0
 11
526.2778570510237159
 21
4.7783872249895287
 31
0.0
  0
LINE
  5
3B88
  8
0
 10
526.2824416905235694
 20
4.7924972944895279
 30
0.0
 11
526.2809315022235523
 21
4.7878494127895284
 31
0.0
  0
LINE
  5
3B89
  8
0
 10
526.2767797057236976
 20
4.7750714970895292
 30
0.0
 11
526.2764348916578001
 21
4.7740102684719261
 31
0.0
  0
LINE
  5
3B8A
  8
0
 10
526.2833337358235894
 20
4.7749958194895266
 30
0.0
 11
526.2839241526237402
 21
4.7768129356895273
 31
0.0
  0
LINE
  5
3B8B
  8
0
 10
526.285553657123728
 20
4.7818280348895277
 30
0.0
 11
526.2867515447236428
 21
4.7855147536895286
 31
0.0
  0
LINE
  5
3B8C
  8
0
 10
526.2895207922236978
 20
4.7940376210895286
 30
0.0
 11
526.2913628384236517
 21
4.7997068564895278
 31
0.0
  0
LINE
  5
3B8D
  8
0
 10
526.2953607132235447
 20
4.8120110498895272
 30
0.0
 11
526.2966528606227712
 21
4.8159878707871862
 31
0.0
  0
LINE
  5
3B8E
  8
0
 10
526.3135893940235519
 20
4.7982716587895267
 30
0.0
 11
526.3117288857237099
 21
4.7925456029895273
 31
0.0
  0
LINE
  5
3B8F
  8
0
 10
526.3060785449237073
 20
4.7751556420895289
 30
0.0
 11
526.3054826630235539
 21
4.7733217062895292
 31
0.0
  0
LINE
  5
3B90
  8
0
 10
526.3089326288236407
 20
4.7839396093895266
 30
0.0
 11
526.3077233261235506
 21
4.7802177581895267
 31
0.0
  0
LINE
  5
3B91
  8
0
 10
526.3114256672731699
 20
4.7713654843616728
 30
0.0
 11
526.3117685465235809
 21
4.7724207584895266
 31
0.0
  0
LINE
  5
3B92
  8
0
 10
526.3128617085236556
 20
4.7757851650895278
 30
0.0
 11
526.3137636535235515
 21
4.7785610661895284
 31
0.0
  0
LINE
  5
3B93
  8
0
 10
526.3159823976236567
 20
4.785389658389529
 30
0.0
 11
526.3175159158237193
 21
4.7901093423895267
 31
0.0
  0
LINE
  5
3B94
  8
0
 10
526.3209301308235126
 20
4.8006172156895266
 30
0.0
 11
526.323129180023443
 21
4.8073851931317542
 31
0.0
  0
LINE
  5
3B95
  8
0
 10
526.3400807393236391
 20
4.7897152261895277
 30
0.0
 11
526.3385287588237134
 21
4.784938721489528
 31
0.0
  0
LINE
  5
3B96
  8
0
 10
526.3342658662236317
 20
4.7718188870895277
 30
0.0
 11
526.3339199059884095
 21
4.7707541307510608
 31
0.0
  0
LINE
  5
3B97
  8
0
 10
526.3362838906235766
 20
4.7780297275895283
 30
0.0
 11
526.3353715191235551
 21
4.7752217368895273
 31
0.0
  0
LINE
  5
3B98
  8
0
 10
526.3410280901235865
 20
4.7723839641895269
 30
0.0
 11
526.3416347628235599
 21
4.7742511107895282
 31
0.0
  0
LINE
  5
3B99
  8
0
 10
526.3433097243237171
 20
4.7794061121895277
 30
0.0
 11
526.3445415942236423
 21
4.7831974178895278
 31
0.0
  0
LINE
  5
3B9A
  8
0
 10
526.3473913001237179
 20
4.7919679108895279
 30
0.0
 11
526.3492883872236234
 21
4.7978065444895277
 31
0.0
  0
LINE
  5
3B9B
  8
0
 10
526.3645087694236508
 20
4.7748085625895271
 30
0.0
 11
526.3638937405237357
 21
4.772915698089526
 31
0.0
  0
LINE
  5
3B9C
  8
0
 10
526.3674564879237323
 20
4.7838807069895282
 30
0.0
 11
526.3662071169236469
 21
4.7800355385895283
 31
0.0
  0
LINE
  5
3B9D
  8
0
 10
526.3700276884446794
 20
4.7715471406240626
 30
0.0
 11
526.3703860227235509
 21
4.7726499799895272
 31
0.0
  0
LINE
  5
3B9E
  8
0
 10
526.371515865023639
 20
4.776127277189528
 30
0.0
 11
526.3724484399236871
 21
4.7789974473895276
 31
0.0
  0
LINE
  5
3B9F
  8
0
 10
526.3747439764235878
 20
4.7860623822895292
 30
0.0
 11
526.376081818803641
 21
4.7901798378277114
 31
0.0
  0
LINE
  5
3BA0
  8
0
 10
526.3936346693235464
 20
4.7743604553895276
 30
0.0
 11
526.3932632172145532
 21
4.7732172429421382
 31
0.0
  0
LINE
  5
3BA1
  8
0
 10
526.3957310917236327
 20
4.7808125797895293
 30
0.0
 11
526.3947830351237371
 21
4.7778947615895291
 31
0.0
  0
LINE
  5
3BA2
  8
0
 10
526.4006282624236519
 20
4.7756376134895291
 30
0.0
 11
526.4012592952235536
 21
4.7775797327895271
 31
0.0
  0
LINE
  5
3BA3
  8
0
 10
526.5407212005238762
 20
4.8360360212903863
 30
0.0
 11
526.522645088032732
 21
4.7804034672172584
 31
0.0
  0
LINE
  5
3BA4
  8
0
 10
526.4928011594791997
 20
4.7522554251177906
 30
0.0
 11
526.5030755598039605
 21
4.7574904935795583
 31
0.0
  0
LINE
  5
3BA5
  8
0
 10
526.0042398594237056
 20
4.8758742514895266
 30
0.0
 11
526.0052327458237187
 21
4.8751407387895291
 31
0.0
  0
LINE
  5
3BA6
  8
0
 10
525.9662578184236281
 20
4.904790614489527
 30
0.0
 11
525.9665319323237327
 21
4.9045848416895259
 31
0.0
  0
LINE
  5
3BA7
  8
0
 10
526.0790052959237073
 20
4.8625135352895281
 30
0.0
 11
526.0798214807236945
 21
4.8618882704895281
 31
0.0
  0
LINE
  5
3BA8
  8
0
 10
526.0923541773236138
 20
4.8770014621895292
 30
0.0
 11
526.0933733131237204
 21
4.8761442820895278
 31
0.0
  0
LINE
  5
3BA9
  8
0
 10
526.0795093513236225
 20
4.8344278973895269
 30
0.0
 11
526.0797704130236525
 21
4.834278860289527
 31
0.0
  0
LINE
  5
3BAA
  8
0
 10
526.0532670779236923
 20
4.8454892980895279
 30
0.0
 11
526.0539990017235823
 21
4.8450510220895282
 31
0.0
  0
LINE
  5
3BAB
  8
0
 10
526.0135043484235666
 20
4.8699966297895294
 30
0.0
 11
526.0151707278237154
 21
4.8689905023895292
 31
0.0
  0
LINE
  5
3BAC
  8
0
 10
526.0431277983235532
 20
4.851388380389527
 30
0.0
 11
526.0428087218236897
 21
4.8515887820895278
 31
0.0
  0
LINE
  5
3BAD
  8
0
 10
526.0630728092237405
 20
4.8405797818895273
 30
0.0
 11
526.0642978329235575
 21
4.8399947312895293
 31
0.0
  0
LINE
  5
3BAE
  8
0
 10
526.0818762987237278
 20
4.853031513389527
 30
0.0
 11
526.0800718018236921
 21
4.8536111100895267
 31
0.0
  0
LINE
  5
3BAF
  8
0
 10
526.0131052849422986
 20
4.908118062928124
 30
0.0
 11
526.4928011594791997
 21
4.7522554251177906
 31
0.0
  0
LINE
  5
3BB0
  8
0
 10
526.2778570510237159
 20
4.7783872249895287
 30
0.0
 11
526.2782527882236536
 21
4.778317665789527
 31
0.0
  0
LINE
  5
3BB1
  8
0
 10
526.2544235331237132
 20
4.7782078341895282
 30
0.0
 11
526.2562941233236415
 21
4.7778617138895276
 31
0.0
  0
LINE
  5
3BB2
  8
0
 10
526.3832364197444349
 20
4.8872059284315164
 30
0.0
 11
526.7083271429237357
 21
4.7815775493895281
 31
0.0
  0
LINE
  5
3BB3
  8
0
 10
526.2376038578237285
 20
4.7812480003895281
 30
0.0
 11
526.2372987161236324
 21
4.78128696838953
 31
0.0
  0
LINE
  5
3BB4
  8
0
 10
526.2376038617236418
 20
4.7812480227895282
 30
0.0
 11
526.2372987161236324
 21
4.78128696838953
 31
0.0
  0
ARC
  5
3BB5
  8
0
 10
525.5625934104402859
 20
4.9548809650020864
 30
0.0
 40
0.0315050818610782
 50
179.7543565424055032
 51
255.2540337482892028
  0
ARC
  5
3BB6
  8
0
 10
526.4852019180236766
 20
4.7925694905895284
 30
0.0
 40
0.0393700787
 50
297.0000000792484798
 51
342.0000000734327159
  0
ARC
  5
3BB7
  8
0
 10
526.2361586223237282
 20
5.2463226450895268
 30
0.0
 40
0.4362977481000001
 50
243.5873892414012971
 51
243.8391561786964132
  0
ARC
  5
3BB8
  8
0
 10
526.2360643751236466
 20
5.2461307793895271
 30
0.0
 40
0.4360839843
 50
243.8391562185020121
 51
244.0910146187987948
  0
ARC
  5
3BB9
  8
0
 10
526.232296256823588
 20
5.245446506389527
 30
0.0
 40
0.4328655342000001
 50
247.3554733698960035
 51
247.6065858497005081
  0
ARC
  5
3BBA
  8
0
 10
526.2322556992237423
 20
5.2453480751895292
 30
0.0
 40
0.4327590747
 50
247.6065859032005108
 51
247.8577764030985122
  0
ARC
  5
3BBB
  8
0
 10
526.2321800348237275
 20
5.2451615227895303
 30
0.0
 40
0.432557762
 50
247.8577461089996916
 51
248.6118215345967997
  0
ARC
  5
3BBC
  8
0
 10
526.2306010054236367
 20
5.2465224483895261
 30
0.0
 40
0.4324559454
 50
246.1740848007972886
 51
247.9367646166006978
  0
ARC
  5
3BBD
  8
0
 10
526.2321039030235852
 20
5.2449677735895293
 30
0.0
 40
0.432349592
 50
248.6118521875987994
 51
249.1149464384020007
  0
ARC
  5
3BBE
  8
0
 10
526.2320504758235984
 20
5.2448277864895303
 30
0.0
 40
0.4321997559000001
 50
249.114948068600313
 51
249.6183496307019141
  0
ARC
  5
3BBF
  8
0
 10
526.2304052865235917
 20
5.2460479654895273
 30
0.0
 40
0.4319426911999999
 50
247.9371833230970026
 51
248.1893269101963995
  0
ARC
  5
3BC0
  8
0
 10
526.2303654583237176
 20
5.2459484426895271
 30
0.0
 40
0.4318354947
 50
248.1893269650965976
 51
248.4415523883037054
  0
ARC
  5
3BC1
  8
0
 10
526.2048857073236832
 20
5.265020524289528
 30
0.0
 40
0.4239917981000001
 50
240.2352193834001923
 51
240.4958678150995013
  0
ARC
  5
3BC2
  8
0
 10
526.2047482467237387
 20
5.2647776047895292
 30
0.0
 40
0.4237126828
 50
240.4958678411975939
 51
240.7566225515990936
  0
ARC
  5
3BC3
  8
0
 10
526.2046090800237153
 20
5.2645290376895266
 30
0.0
 40
0.4234278092000001
 50
240.7566225779962963
 51
241.0174926624972898
  0
ARC
  5
3BC4
  8
0
 10
526.2041066325235761
 20
5.2636114081895249
 30
0.0
 40
0.4223816394
 50
241.0168000731000859
 51
242.5848229713035948
  0
ARC
  5
3BC5
  8
0
 10
526.1984285825235474
 20
5.2638307694895259
 30
0.0
 40
0.4170960541
 50
244.7222851171017055
 51
245.2458088487969121
  0
ARC
  5
3BC6
  8
0
 10
526.198098217823599
 20
5.2631051678895266
 30
0.0
 40
0.4162987938000001
 50
245.245283085897313
 51
247.0805846192986905
  0
ARC
  5
3BC7
  8
0
 10
526.196546456723695
 20
5.2645170863895281
 30
0.0
 40
0.4156755187
 50
245.3172043566964931
 51
245.5803894932026878
  0
ARC
  5
3BC8
  8
0
 10
526.1964758369236961
 20
5.2643615483895303
 30
0.0
 40
0.4155046994
 50
245.5803895468986866
 51
245.8436684078990027
  0
ARC
  5
3BC9
  8
0
 10
526.1930850860236433
 20
5.2644614052895271
 30
0.0
 40
0.4121105036000001
 50
249.2570646938970924
 51
249.7837326243964924
  0
ARC
  5
3BCA
  8
0
 10
526.1930238634237185
 20
5.2642949859895287
 30
0.0
 40
0.4119331802000001
 50
249.7837246189959899
 51
251.6290456815999903
  0
ARC
  5
3BCB
  8
0
 10
526.2035979848235456
 20
5.2667822369895267
 30
0.0
 40
0.4238826832
 50
238.9835373433998029
 51
240.2922358756962922
  0
ARC
  5
3BCC
  8
0
 10
526.2030170365236472
 20
5.2657720193895257
 30
0.0
 40
0.42271734
 50
240.2927714083998012
 51
240.8172569366014955
  0
ARC
  5
3BCD
  8
0
 10
526.2028126658235578
 20
5.2654067672895257
 30
0.0
 40
0.4222987992000001
 50
240.8173022445014055
 51
241.0797198102968082
  0
ARC
  5
3BCE
  8
0
 10
526.2026762800236384
 20
5.265159911789528
 30
0.0
 40
0.4220167731
 50
241.0797198383002069
 51
241.3422647652027138
  0
ARC
  5
3BCF
  8
0
 10
526.1968914539236266
 20
5.2652554308895283
 30
0.0
 40
0.4164904722
 50
243.4770509651002044
 51
245.3164962031983123
  0
ARC
  5
3BD0
  8
0
 10
526.1914010956236325
 20
5.2656150858895279
 30
0.0
 40
0.4111140976
 50
248.0172266218015977
 51
249.8673051742019027
  0
ARC
  5
3BD1
  8
0
 10
526.1913012461235439
 20
5.2653480241895281
 30
0.0
 40
0.4108289861000001
 50
249.8675599822990137
 51
250.132132215997899
  0
ARC
  5
3BD2
  8
0
 10
526.191281130623679
 20
5.2652923595895302
 30
0.0
 40
0.4107697984000001
 50
250.1321322839004893
 51
250.3967783663024136
  0
ARC
  5
3BD3
  8
0
 10
526.1886563757235535
 20
5.2674568788895293
 30
0.0
 40
0.4094473268
 50
255.7125641628001063
 51
256.244266783602427
  0
ARC
  5
3BD4
  8
0
 10
526.1886238191236771
 20
5.2673286104895283
 30
0.0
 40
0.4093149913000001
 50
255.4467923979005093
 51
255.7125494181998988
  0
ARC
  5
3BD5
  8
0
 10
526.1885600921235664
 20
5.2670855254895272
 30
0.0
 40
0.4090636925
 50
253.8536354823025079
 51
255.4468764611966094
  0
ARC
  5
3BD6
  8
0
 10
526.1868232808235462
 20
5.2681089611895286
 30
0.0
 40
0.4078411915000001
 50
254.7490832160019067
 51
255.0157113585005106
  0
ARC
  5
3BD7
  8
0
 10
526.1868091736237147
 20
5.2680572179895293
 30
0.0
 40
0.4077875597
 50
254.4825221430969009
 51
254.7490831443004993
  0
ARC
  5
3BD8
  8
0
 10
526.1867628520235485
 20
5.2678914473895304
 30
0.0
 40
0.4076154391
 50
252.6183433602020045
 51
254.4825620870020941
  0
ARC
  5
3BD9
  8
0
 10
526.1815100505236842
 20
5.273338423289526
 30
0.0
 40
0.4051290148
 50
244.3388007247629901
 51
245.6796137714979977
  0
ARC
  5
3BDA
  8
0
 10
526.1763041810236246
 20
5.2743402071895282
 30
0.0
 40
0.3996964175
 50
248.013198170037299
 51
250.3512198153972008
  0
ARC
  5
3BDB
  8
0
 10
526.2361604612236761
 20
5.2626579134895257
 30
0.0
 40
0.448237036
 50
232.2309292356727894
 51
232.9764907448966085
  0
ARC
  5
3BDC
  8
0
 10
526.2355654759236359
 20
5.2618710954895276
 30
0.0
 40
0.4472505833
 50
233.0205667928017021
 51
233.2334528634007995
  0
ARC
  5
3BDD
  8
0
 10
526.2353109993235876
 20
5.2615304392895288
 30
0.0
 40
0.4468253716
 50
233.2334470446986074
 51
233.490402702898507
  0
ARC
  5
3BDE
  8
0
 10
526.2350381490236941
 20
5.2611618318895266
 30
0.0
 40
0.4463667665
 50
233.490402662297214
 51
233.7475412270026141
  0
ARC
  5
3BDF
  8
0
 10
526.234762955623637
 20
5.260786548789528
 30
0.0
 40
0.4459013969
 50
233.7475411866973047
 51
234.0048721108011023
  0
ARC
  5
3BE0
  8
0
 10
526.2359598193236252
 20
5.2591318942895269
 30
0.0
 40
0.4456108639
 50
233.4330737264984919
 51
235.2244651095028019
  0
ARC
  5
3BE1
  8
0
 10
526.227459040923577
 20
5.259143316889527
 30
0.0
 40
0.4392526372
 50
236.074502466300487
 51
237.6084118002968069
  0
ARC
  5
3BE2
  8
0
 10
526.2286956795236392
 20
5.2574326581895292
 30
0.0
 40
0.4390121891
 50
237.2951300493982956
 51
237.5497305848004999
  0
ARC
  5
3BE3
  8
0
 10
526.228506998023704
 20
5.2571359195895289
 30
0.0
 40
0.4386605437
 50
237.549730587602312
 51
237.8044553083022947
  0
ARC
  5
3BE4
  8
0
 10
526.2281350695236597
 20
5.2565433580895258
 30
0.0
 40
0.4379609302000001
 50
237.8043265606029024
 51
238.5692996897001024
  0
ARC
  5
3BE5
  8
0
 10
526.226661842723729
 20
5.2579005656895283
 30
0.0
 40
0.4377761886
 50
237.6093821507984956
 51
237.8656342121975058
  0
ARC
  5
3BE6
  8
0
 10
526.2264759254236424
 20
5.2576045827895292
 30
0.0
 40
0.4374266588000001
 50
237.865634215597396
 51
238.1220246426998983
  0
ARC
  5
3BE7
  8
0
 10
526.2262881568235571
 20
5.2573026612895291
 30
0.0
 40
0.4370711117
 50
238.1220246461977013
 51
238.3785623264020899
  0
ARC
  5
3BE8
  8
0
 10
526.2274719198236426
 20
5.255454999589527
 30
0.0
 40
0.4366864543000001
 50
238.5690771315003929
 51
239.5910748333969877
  0
ARC
  5
3BE9
  8
0
 10
526.2213624651235477
 20
5.255074804489527
 30
0.0
 40
0.4316261082000001
 50
241.675891198097986
 51
241.9307955111985962
  0
ARC
  5
3BEA
  8
0
 10
526.2198645247235618
 20
5.2564787260895294
 30
0.0
 40
0.4313940969
 50
240.4619275385965977
 51
242.252784464700909
  0
ARC
  5
3BEB
  8
0
 10
526.2212474754236382
 20
5.2548591695895288
 30
0.0
 40
0.4313817293000001
 50
241.9307955446982987
 51
242.1857891874965958
  0
ARC
  5
3BEC
  8
0
 10
526.2210233475235555
 20
5.254432923089527
 30
0.0
 40
0.4309001496000001
 50
242.1857019846007972
 51
242.9512655014966924
  0
ARC
  5
3BED
  8
0
 10
526.2193163085237302
 20
5.2554517615895264
 30
0.0
 40
0.4302299891
 50
242.2537235536001106
 51
242.5100460579006949
  0
ARC
  5
3BEE
  8
0
 10
526.2206723444236331
 20
5.2537446375895271
 30
0.0
 40
0.4301275308000001
 50
242.9512140555000883
 51
243.9732085449030876
  0
ARC
  5
3BEF
  8
0
 10
526.2192024997235649
 20
5.2552330437895272
 30
0.0
 40
0.4299834329000001
 50
242.5100460931022042
 51
242.7664754683972888
  0
ARC
  5
3BF0
  8
0
 10
526.2151197285236321
 20
5.2540193166895293
 30
0.0
 40
0.4257089166
 50
246.0804061987981868
 51
247.6154237303996979
  0
ARC
  5
3BF1
  8
0
 10
526.2136558206235577
 20
5.2556153232895246
 30
0.0
 40
0.4255878853000001
 50
244.8719335521996072
 51
245.8977411625986065
  0
ARC
  5
3BF2
  8
0
 10
526.2149000906235869
 20
5.2534917907895284
 30
0.0
 40
0.4251374977000001
 50
247.6157195037025929
 51
248.384297010699413
  0
ARC
  5
3BF3
  8
0
 10
526.2134358120237039
 20
5.255125093589526
 30
0.0
 40
0.4250505507000001
 50
245.8978266858985933
 51
246.6680080990014119
  0
ARC
  5
3BF4
  8
0
 10
526.2133265968236628
 20
5.2548730231895284
 30
0.0
 40
0.4247758377000001
 50
246.6680687395017912
 51
246.9249408344016103
  0
ARC
  5
3BF5
  8
0
 10
526.2132725236235729
 20
5.2547460981895284
 30
0.0
 40
0.4246378744000001
 50
246.924940889202702
 51
247.1818958109020059
  0
ARC
  5
3BF6
  8
0
 10
526.2083359995235696
 20
5.2562363384895292
 30
0.0
 40
0.4213025798
 50
249.3171698104011114
 51
250.0898948493968987
  0
ARC
  5
3BF7
  8
0
 10
526.2082805641235836
 20
5.2560836522895293
 30
0.0
 40
0.4211401417000001
 50
250.0899119002993132
 51
251.3791878750998876
  0
ARC
  5
3BF8
  8
0
 10
526.208250026223709
 20
5.255994272989529
 30
0.0
 40
0.4210456904
 50
251.3792423317995031
 51
251.6373111615006906
  0
ARC
  5
3BF9
  8
0
 10
526.2224422911236843
 20
5.276555863389528
 30
0.0
 40
0.4548014054
 50
275.1507978255029911
 51
276.1198622654845849
  0
ARC
  5
3BFA
  8
0
 10
526.2207600023236864
 20
5.2762490400895281
 30
0.0
 40
0.4528159617
 50
274.7553363623994755
 51
275.8081950955188972
  0
ARC
  5
3BFB
  8
0
 10
526.2208919834237122
 20
5.274678469789527
 30
0.0
 40
0.4512398562
 50
274.2387075307963187
 51
274.7551681395980836
  0
ARC
  5
3BFC
  8
0
 10
526.220945686623736
 20
5.2739612230895281
 30
0.0
 40
0.4505206021000001
 50
273.9820007805979003
 51
274.2386384404996988
  0
ARC
  5
3BFD
  8
0
 10
526.2120623919237232
 20
5.2668467998895281
 30
0.0
 40
0.4315878019
 50
236.1730841769634139
 51
236.8230095604010046
  0
ARC
  5
3BFE
  8
0
 10
526.2101307885236565
 20
5.2675162914895282
 30
0.0
 40
0.4302904973
 50
236.5940999928830877
 51
236.8784498647981138
  0
ARC
  5
3BFF
  8
0
 10
526.2112698591237177
 20
5.2656262652895256
 30
0.0
 40
0.4301325383
 50
236.8224005086993031
 51
238.1280978713992056
  0
ARC
  5
3C00
  8
0
 10
526.2537431232235576
 20
5.238879126289528
 30
0.0
 40
0.4415861068
 50
243.1065121163034064
 51
244.4190482963034015
  0
ARC
  5
3C01
  8
0
 10
526.255310942723554
 20
5.2376033925895271
 30
0.0
 40
0.4414229533
 50
244.2714460959981864
 51
244.5190323112989859
  0
ARC
  5
3C02
  8
0
 10
526.2552328403237425
 20
5.2374395080895289
 30
0.0
 40
0.4412414096
 50
244.5190323532004015
 51
244.7666970527002093
  0
ARC
  5
3C03
  8
0
 10
526.2533817229235638
 20
5.2381300756895248
 30
0.0
 40
0.4407544326
 50
244.5958513369994876
 51
244.8443219522025061
  0
ARC
  5
3C04
  8
0
 10
526.2533062089237319
 20
5.2379692783895271
 30
0.0
 40
0.4405767865
 50
244.8443219955026962
 51
245.092869064300487
  0
ARC
  5
3C05
  8
0
 10
526.2549460442236295
 20
5.2368237592895284
 30
0.0
 40
0.4405621532000001
 50
244.76629817129961
 51
246.254291082997014
  0
ARC
  5
3C06
  8
0
 10
526.2532292205237354
 20
5.2378034757895264
 30
0.0
 40
0.4403939815
 50
245.0928691079008956
 51
245.3415002772991045
  0
ARC
  5
3C07
  8
0
 10
526.2547603004236407
 20
5.2364038617895261
 30
0.0
 40
0.4401030085000001
 50
246.2544128793024925
 51
246.5026407189004942
  0
ARC
  5
3C08
  8
0
 10
526.260916914523591
 20
5.2528244652895282
 30
0.0
 40
0.4596774352000001
 50
271.2998789532974797
 51
273.0539254111998844
  0
ARC
  5
3C09
  8
0
 10
526.265725486023598
 20
5.245432260989527
 30
0.0
 40
0.4550056454
 50
268.909853239202107
 51
269.1646251821978808
  0
ARC
  5
3C0A
  8
0
 10
526.2657186501236311
 20
5.245072943189526
 30
0.0
 40
0.4546462626
 50
268.6565337970970972
 51
268.9098530486983236
  0
ARC
  5
3C0B
  8
0
 10
526.2656785615237141
 20
5.2436220268895291
 30
0.0
 40
0.4531948053
 50
267.4113424912023902
 51
268.6572999100949914
  0
ARC
  5
3C0C
  8
0
 10
526.2656298202235803
 20
5.2425112333895276
 30
0.0
 40
0.452082944
 50
266.9230422358988903
 51
267.4111552114990786
  0
ARC
  5
3C0D
  8
0
 10
526.2439246416237211
 20
5.2497291715895278
 30
0.0
 40
0.4441737443
 50
237.4942617160982934
 51
238.7507796513997107
  0
ARC
  5
3C0E
  8
0
 10
526.2451811922236402
 20
5.2480363934895271
 30
0.0
 40
0.4436874495000001
 50
238.6851175243994021
 51
238.9356471287979105
  0
ARC
  5
3C0F
  8
0
 10
526.2450171822235916
 20
5.2477641283895258
 30
0.0
 40
0.4433696011000001
 50
238.9356471425004997
 51
239.1862813098975948
  0
ARC
  5
3C10
  8
0
 10
526.2431551429235697
 20
5.2484671952895283
 30
0.0
 40
0.4426956675
 50
239.0031268623980907
 51
239.2549900635027882
  0
ARC
  5
3C11
  8
0
 10
526.2429940257236467
 20
5.2481963281895281
 30
0.0
 40
0.4423805044
 50
239.2549900776984941
 51
239.5069707901002118
  0
ARC
  5
3C12
  8
0
 10
526.242831193523557
 20
5.2479198172895281
 30
0.0
 40
0.442059611
 50
239.5069708045988932
 51
239.7590773412973988
  0
ARC
  5
3C13
  8
0
 10
526.2443030607236096
 20
5.2465514179895294
 30
0.0
 40
0.4419622726
 50
239.1852578219026952
 51
240.9434779811001022
  0
ARC
  5
3C14
  8
0
 10
526.2381822413235568
 20
5.2459522482895258
 30
0.0
 40
0.4374131597
 50
243.0126479640989032
 51
243.2632712012012064
  0
ARC
  5
3C15
  8
0
 10
526.2366134205235539
 20
5.2472247317895286
 30
0.0
 40
0.4373079785
 50
241.8271025023015
 51
243.5865970658024935
  0
ARC
  5
3C16
  8
0
 10
526.2380868032237231
 20
5.2457627939895266
 30
0.0
 40
0.4372010244000001
 50
243.2632712394998009
 51
243.5139730659018085
  0
ARC
  5
3C17
  8
0
 10
526.2376850244236266
 20
5.2449452102895293
 30
0.0
 40
0.4362900666
 50
243.5133143082007905
 51
245.2709876476982913
  0
ARC
  5
3C18
  8
0
 10
526.2850998499236539
 20
5.2354515358895268
 30
0.0
 40
0.4539333662
 50
236.7555781691017103
 51
237.0032617921991118
  0
ARC
  5
3C19
  8
0
 10
526.2868256244237273
 20
5.2346011102895282
 30
0.0
 40
0.4538260945000001
 50
236.9159946794030986
 51
237.1663257914985081
  0
ARC
  5
3C1A
  8
0
 10
526.2848021336235433
 20
5.2349923436895258
 30
0.0
 40
0.4533861073
 50
237.0032141610010967
 51
237.4961153873020123
  0
ARC
  5
3C1B
  8
0
 10
526.2865239488237421
 20
5.2341328671895289
 30
0.0
 40
0.453269085
 50
237.1662752217997081
 51
237.6646144438994952
  0
ARC
  5
3C1C
  8
0
 10
526.2901267311235642
 20
5.2325207747895268
 30
0.0
 40
0.4532689205
 50
265.3457930408990251
 51
267.0733087551008111
  0
ARC
  5
3C1D
  8
0
 10
526.284508666423676
 20
5.234532504889529
 30
0.0
 40
0.4528406033
 50
237.496165937596686
 51
237.7413901990007901
  0
ARC
  5
3C1E
  8
0
 10
526.2861380375236422
 20
5.2335233769895266
 30
0.0
 40
0.4525476933000001
 50
237.6646230597004887
 51
238.1598755123985995
  0
ARC
  5
3C1F
  8
0
 10
526.2842937950237001
 20
5.2341918683895301
 30
0.0
 40
0.452437859
 50
237.7890977360968918
 51
237.985811286599386
  0
ARC
  5
3C20
  8
0
 10
526.2882037725237296
 20
5.2323418009895297
 30
0.0
 40
0.4524041207
 50
265.6734915769002896
 51
265.923093253500781
  0
ARC
  5
3C21
  8
0
 10
526.2881791411236918
 20
5.2320162173895284
 30
0.0
 40
0.4520776067
 50
265.4246108017953816
 51
265.6734914695991847
  0
ARC
  5
3C22
  8
0
 10
526.2857802805235679
 20
5.2329473390895274
 30
0.0
 40
0.4518696006000001
 50
238.1598797750970107
 51
238.6519889679985909
  0
ARC
  5
3C23
  8
0
 10
526.290007856223724
 20
5.2309473672895299
 30
0.0
 40
0.4516910556
 50
265.0971659331020192
 51
265.3446277741991253
  0
ARC
  5
3C24
  8
0
 10
526.2899796301236393
 20
5.2306183140895293
 30
0.0
 40
0.451360794
 50
264.8495597305010847
 51
265.097165925596812
  0
ARC
  5
3C25
  8
0
 10
526.2854711393237039
 20
5.232440235889527
 30
0.0
 40
0.4512756967
 50
238.6520144834022119
 51
239.0325964363017022
  0
ARC
  5
3C26
  8
0
 10
526.2880848020237181
 20
5.2308913798895267
 30
0.0
 40
0.4509488283
 50
264.1910318023981858
 51
265.4251583251003126
  0
ARC
  5
3C27
  8
0
 10
526.2879916342235447
 20
5.2299656243895276
 30
0.0
 40
0.4500183969
 50
263.7024534349984037
 51
264.1909034311979099
  0
ARC
  5
3C28
  8
0
 10
526.2949033074237377
 20
5.240739803189526
 30
0.0
 40
0.4628005324
 50
231.441755200598891
 51
232.4465741821026086
  0
ARC
  5
3C29
  8
0
 10
526.2957762075235451
 20
5.2388188339895256
 30
0.0
 40
0.4612584347000001
 50
232.6082554663960025
 51
233.1109423907971063
  0
ARC
  5
3C2A
  8
0
 10
526.2939613284237339
 20
5.2395144791895261
 30
0.0
 40
0.4612549763000001
 50
232.4465681032025088
 51
233.1921153278983923
  0
ARC
  5
3C2B
  8
0
 10
526.2854751194237224
 20
5.2413250746895272
 30
0.0
 40
0.460251949
 50
269.6587424717988029
 51
271.3974112297968873
  0
ARC
  5
3C2C
  8
0
 10
526.2950662235236905
 20
5.2378715567895284
 30
0.0
 40
0.4600746228000001
 50
233.1108458810967932
 51
233.8591829513966047
  0
ARC
  5
3C2D
  8
0
 10
526.2932531992237273
 20
5.2385696884895259
 30
0.0
 40
0.4600742666
 50
233.1922282633036048
 51
233.6855163745013897
  0
ARC
  5
3C2E
  8
0
 10
526.2836185106236826
 20
5.2409127629895274
 30
0.0
 40
0.4590888066
 50
269.9905427767982928
 51
270.2415133073976108
  0
ARC
  5
3C2F
  8
0
 10
526.2943954658236407
 20
5.2369546437895274
 30
0.0
 40
0.4589385575
 50
233.8592970972987928
 51
234.3543489149986954
  0
ARC
  5
3C30
  8
0
 10
526.2836184400237016
 20
5.2404800181895288
 30
0.0
 40
0.4586560618
 50
269.7402425021954855
 51
269.9905426781991764
  0
ARC
  5
3C31
  8
0
 10
526.293994841323638
 20
5.2363967659895279
 30
0.0
 40
0.4582517333
 50
234.3544048539015137
 51
234.6310662660972923
  0
ARC
  5
3C32
  8
0
 10
526.2854730950236899
 20
5.239029783889527
 30
0.0
 40
0.4579566870000001
 50
269.1583057364965725
 51
269.6572853576990951
  0
ARC
  5
3C33
  8
0
 10
526.2937388472237217
 20
5.2360362697895289
 30
0.0
 40
0.4578095902000001
 50
234.6310761450972109
 51
234.8463819678013067
  0
ARC
  5
3C34
  8
0
 10
526.2835983300235512
 20
5.2384984902895289
 30
0.0
 40
0.4566744633
 50
268.0070837226962226
 51
269.7416384422970737
  0
ARC
  5
3C35
  8
0
 10
526.2855578224236979
 20
5.2361483622895264
 30
0.0
 40
0.4547672157
 50
235.7563529944000891
 51
236.7554506633024971
  0
ARC
  5
3C36
  8
0
 10
526.2904781863236394
 20
5.2527507484895279
 30
0.0
 40
0.4724350797
 50
227.0236125476010898
 51
227.5324628203987913
  0
ARC
  5
3C37
  8
0
 10
526.2895320798236298
 20
5.251716947889526
 30
0.0
 40
0.4710337014000001
 50
227.5324520382997946
 51
228.2909856865981055
  0
ARC
  5
3C38
  8
0
 10
526.2962249738236551
 20
5.2479959316895259
 30
0.0
 40
0.4709494588
 50
275.4878584426004977
 51
275.737923861300203
  0
ARC
  5
3C39
  8
0
 10
526.2876688767237283
 20
5.2523733102895269
 30
0.0
 40
0.4707860903000001
 50
227.605977696398611
 51
228.1084687555014909
  0
ARC
  5
3C3A
  8
0
 10
526.2963438453236904
 20
5.2467431053895259
 30
0.0
 40
0.4696910065
 50
274.4861614171985025
 51
275.4880398591997164
  0
ARC
  5
3C3B
  8
0
 10
526.2884493907237129
 20
5.2505053354895281
 30
0.0
 40
0.4694088273
 50
228.2912444541011894
 51
228.7940204647991891
  0
ARC
  5
3C3C
  8
0
 10
526.2801964342236261
 20
5.2520863344895261
 30
0.0
 40
0.4690280894
 50
274.0138039634048255
 51
275.7691227514999923
  0
ARC
  5
3C3D
  8
0
 10
526.2878707060235683
 20
5.2498454337895266
 30
0.0
 40
0.4685311338
 50
228.7940998487997035
 51
229.0445659869994017
  0
ARC
  5
3C3E
  8
0
 10
526.2874842869235863
 20
5.2494002115895269
 30
0.0
 40
0.4679416064
 50
229.0445660709983997
 51
229.2944273393030983
  0
ARC
  5
3C3F
  8
0
 10
526.2784439688235807
 20
5.2514465028895279
 30
0.0
 40
0.4675661621
 50
274.3519797059008738
 51
274.604932900696781
  0
ARC
  5
3C40
  8
0
 10
526.2965244252236516
 20
5.2444849415895263
 30
0.0
 40
0.4674256365
 50
273.4806232962978925
 51
274.4857450271998118
  0
ARC
  5
3C41
  8
0
 10
526.2784851371236527
 20
5.2509055539895293
 30
0.0
 40
0.4670236488000001
 50
274.0996186708970868
 51
274.3519796347999886
  0
ARC
  5
3C42
  8
0
 10
526.2804111716236548
 20
5.249234130389528
 30
0.0
 40
0.4661678505
 50
273.5077073228965787
 51
274.0120137532967988
  0
ARC
  5
3C43
  8
0
 10
526.2786489144236839
 20
5.2484227141895259
 30
0.0
 40
0.4645354537000001
 50
272.3499391890010202
 51
274.101362948901226
  0
ARC
  5
3C44
  8
0
 10
526.2785649985237342
 20
5.2491244721895276
 30
0.0
 40
0.4634820204
 50
230.1862024182007076
 51
231.1970749014014075
  0
ARC
  5
3C45
  8
0
 10
526.2794823482237234
 20
5.2472827922895284
 30
0.0
 40
0.4622807012
 50
231.3699679127965112
 51
231.6229961595028897
  0
ARC
  5
3C46
  8
0
 10
526.2775416922237355
 20
5.2478517960895266
 30
0.0
 40
0.461848968
 50
231.197069247198101
 51
231.9477517206981929
  0
ARC
  5
3C47
  8
0
 10
526.2790011651236455
 20
5.2466742791895271
 30
0.0
 40
0.4615049274000001
 50
231.6229259887012972
 51
232.1268410383013929
  0
ARC
  5
3C48
  8
0
 10
526.2769141308235703
 20
5.2470524839895267
 30
0.0
 40
0.4608327343
 50
231.9479373171980114
 51
232.1967894390990921
  0
ARC
  5
3C49
  8
0
 10
526.2783862561235537
 20
5.2458837735895294
 30
0.0
 40
0.4605034224000001
 50
232.1268520107996949
 51
232.6279108046028057
  0
ARC
  5
3C4A
  8
0
 10
526.276599708023582
 20
5.2466471809895259
 30
0.0
 40
0.4603197702000001
 50
232.196789549701009
 51
232.444965228798111
  0
ARC
  5
3C4B
  8
0
 10
526.2779526368236702
 20
5.2453169286895287
 30
0.0
 40
0.4597897428000001
 50
232.6279772638006023
 51
232.8774116413000002
  0
ARC
  5
3C4C
  8
0
 10
526.2774712334237392
 20
5.2446796162895266
 30
0.0
 40
0.4589910466
 50
232.8773133745970085
 51
233.4669101436996073
  0
ARC
  5
3C4D
  8
0
 10
526.2675824526236283
 20
5.2457645264895261
 30
0.0
 40
0.4563410356000001
 50
268.5627818291985136
 51
270.3159366156031069
  0
ARC
  5
3C4E
  8
0
 10
526.2675403950237296
 20
5.2436202953895261
 30
0.0
 40
0.4541964244
 50
268.0714415668957145
 51
268.561301334900179
  0
ARC
  5
3C4F
  8
0
 10
526.2625178717237304
 20
5.2564638099895262
 30
0.0
 40
0.464394462
 50
273.2014856157990152
 51
274.7210425902001134
  0
ARC
  5
3C50
  8
0
 10
526.2607756563236308
 20
5.255692048389526
 30
0.0
 40
0.4625484765
 50
273.3070146011988868
 51
273.5629496294984051
  0
ARC
  5
3C51
  8
0
 10
526.2608036677237351
 20
5.2552072971895276
 30
0.0
 40
0.4620629166
 50
273.0522066000013979
 51
273.3070144405949122
  0
ARC
  5
3C52
  8
0
 10
526.2626789008236301
 20
5.2537589065895283
 30
0.0
 40
0.4616847871
 50
272.4533416710967799
 51
273.2002798489033921
  0
ARC
  5
3C53
  8
0
 10
526.2449490453235512
 20
5.262037077589528
 30
0.0
 40
0.4584891849
 50
272.9858328407980252
 51
273.7588417572985122
  0
ARC
  5
3C54
  8
0
 10
526.2450652831237221
 20
5.2597836655895271
 30
0.0
 40
0.4562327774
 50
271.4752252312003975
 51
272.9859958522014267
  0
ARC
  5
3C55
  8
0
 10
526.2432379413237413
 20
5.2607405482895251
 30
0.0
 40
0.455859499
 50
272.3418361477021108
 51
272.6010118225999008
  0
ARC
  5
3C56
  8
0
 10
526.2432642082236498
 20
5.2600863935895283
 30
0.0
 40
0.4552048173
 50
271.8278309628992133
 51
272.3418971476992283
  0
ARC
  5
3C57
  8
0
 10
526.2433163258235709
 20
5.2583191714895277
 30
0.0
 40
0.4534368321000001
 50
270.8162648147975915
 51
271.828371367396926
  0
ARC
  5
3C58
  8
0
 10
526.243333408723629
 20
5.257182860789527
 30
0.0
 40
0.4523003934000001
 50
270.318821423695681
 51
270.8161516616981999
  0
ARC
  5
3C59
  8
0
 10
526.2374594790236415
 20
5.261170383989529
 30
0.0
 40
0.4481415443
 50
232.9246652572967093
 51
233.1795543616028112
  0
ARC
  5
3C5A
  8
0
 10
526.237184369323586
 20
5.2608029100895273
 30
0.0
 40
0.4476824992
 50
233.1795543212028008
 51
233.4346114671978114
  0
ARC
  5
3C5B
  8
0
 10
526.256444152823633
 20
5.269768491089529
 30
0.0
 40
0.4749481626
 50
278.4264085525986729
 51
279.1998388035015068
  0
ARC
  5
3C5C
  8
0
 10
526.256857569423687
 20
5.2669694969895282
 30
0.0
 40
0.4721188022
 50
276.9015847876985958
 51
278.4265551580010083
  0
ARC
  5
3C5D
  8
0
 10
526.2549883026235875
 20
5.2679347763895272
 30
0.0
 40
0.4719470598
 50
277.7733899682024798
 51
278.0318139980994943
  0
ARC
  5
3C5E
  8
0
 10
526.2551110789237327
 20
5.2670303579895261
 30
0.0
 40
0.4710343461999999
 50
277.259339598496183
 51
277.7734726074994001
  0
ARC
  5
3C5F
  8
0
 10
526.2554608784236052
 20
5.2641935441895269
 30
0.0
 40
0.4681760705000001
 50
275.7384773644963047
 51
277.2607428266953207
  0
ARC
  5
3C60
  8
0
 10
526.2391912970236945
 20
5.2744649430895256
 30
0.0
 40
0.4674698027000001
 50
277.5172175117971847
 51
278.2993307272993775
  0
ARC
  5
3C61
  8
0
 10
526.2395484989235683
 20
5.271747504989527
 30
0.0
 40
0.4647289887
 50
275.9821870387950185
 51
277.5173869725974782
  0
ARC
  5
3C62
  8
0
 10
526.2377019704237
 20
5.2727766656895261
 30
0.0
 40
0.464359218
 50
276.8710257859996773
 51
277.132734680898011
  0
ARC
  5
3C63
  8
0
 10
526.2379385783235648
 20
5.270741036889528
 30
0.0
 40
0.4623099027000001
 50
275.5800255898985256
 51
276.8720945223004151
  0
ARC
  5
3C64
  8
0
 10
526.2381598186235578
 20
5.268482771989528
 30
0.0
 40
0.4600408265000001
 50
274.8186545033008201
 51
275.5799499478977168
  0
ARC
  5
3C65
  8
0
 10
526.2913642021236456
 20
5.2620063970895279
 30
0.0
 40
0.4841433497
 50
280.3130791820971126
 51
281.2157342063621854
  0
ARC
  5
3C66
  8
0
 10
526.2898346850237203
 20
5.2607557463895267
 30
0.0
 40
0.4822275165
 50
279.8882651532995851
 51
280.1413530550992164
  0
ARC
  5
3C67
  8
0
 10
526.2900118530236568
 20
5.2597349309895298
 30
0.0
 40
0.4811914412
 50
279.3814727577956774
 51
279.8883563350992745
  0
ARC
  5
3C68
  8
0
 10
526.2919138188235593
 20
5.2589408530895261
 30
0.0
 40
0.4810289359000001
 50
279.0353561157002105
 51
280.314041281900586
  0
ARC
  5
3C69
  8
0
 10
526.2904997388236552
 20
5.2567059637895284
 30
0.0
 40
0.478123458
 50
277.8553774153958784
 51
279.3829565954001168
  0
ARC
  5
3C6A
  8
0
 10
526.272373539423711
 20
5.2639301433895289
 30
0.0
 40
0.4778870299000001
 50
278.7789981173008869
 51
279.0315331132006236
  0
ARC
  5
3C6B
  8
0
 10
526.2725213526236985
 20
5.2629683023895266
 30
0.0
 40
0.4769138976
 50
278.2730608682007869
 51
278.7790843926972002
  0
ARC
  5
3C6C
  8
0
 10
526.2744357408236056
 20
5.2618728286895289
 30
0.0
 40
0.4766991372
 50
277.9152049714971895
 51
278.6818269417959186
  0
ARC
  5
3C6D
  8
0
 10
526.2729345810237191
 20
5.2600433480895283
 30
0.0
 40
0.4739599220000001
 50
276.7473552957987977
 51
278.2745050223983867
  0
ARC
  5
3C6E
  8
0
 10
526.288624716923664
 20
5.2534193562895259
 30
0.0
 40
0.4722030738000001
 50
226.9546050124058922
 51
227.6058998265006039
  0
ARC
  5
3C6F
  8
0
 10
526.2739346900236797
 20
5.2650697809895268
 30
0.0
 40
0.4799350907
 50
278.6833476729959216
 51
280.2074935541957075
  0
ARC
  5
3C70
  8
0
 10
526.3285436296237094
 20
5.225941804389528
 30
0.0
 40
0.4563265215
 50
233.6837794812026914
 51
234.9358315598994977
  0
ARC
  5
3C71
  8
0
 10
526.3278884040237244
 20
5.2250114988895291
 30
0.0
 40
0.4551886351
 50
234.936064890001802
 51
235.184938333302
  0
ARC
  5
3C72
  8
0
 10
526.3296510248236473
 20
5.2242995129895284
 30
0.0
 40
0.4546455980000001
 50
234.8352259228961998
 51
235.5865055013017013
  0
ARC
  5
3C73
  8
0
 10
526.3274262384236408
 20
5.2243449530895267
 30
0.0
 40
0.4543775376000001
 50
235.1847979790967997
 51
235.9284530007020919
  0
ARC
  5
3C74
  8
0
 10
526.3291805405236801
 20
5.2236149030895263
 30
0.0
 40
0.4538149088
 50
235.5866602123016094
 51
235.8361877818996959
  0
ARC
  5
3C75
  8
0
 10
526.3285996086236764
 20
5.2227560159895283
 30
0.0
 40
0.4527780065
 50
235.8359810350989108
 51
237.0763615156969024
  0
ARC
  5
3C76
  8
0
 10
526.3062824500235592
 20
5.2261034687895283
 30
0.0
 40
0.4516907704000001
 50
264.8592258534959001
 51
266.3343377085989232
  0
ARC
  5
3C77
  8
0
 10
526.3031326432236483
 20
5.2258212272895292
 30
0.0
 40
0.4507728261
 50
239.0695668570031103
 51
239.8080661297989025
  0
ARC
  5
3C78
  8
0
 10
526.3027624238236513
 20
5.225186273289526
 30
0.0
 40
0.4500378237
 50
239.808152731597005
 51
240.2592559444013887
  0
ARC
  5
3C79
  8
0
 10
526.349987768523647
 20
5.2148308066895259
 30
0.0
 40
0.4437467276
 50
265.2358073209985037
 51
265.9941350047993751
  0
ARC
  5
3C7A
  8
0
 10
526.3479796456236954
 20
5.2142768165895284
 30
0.0
 40
0.4433373657
 50
264.2998289126960003
 51
265.3149516427949948
  0
ARC
  5
3C7B
  8
0
 10
526.3499160469235676
 20
5.2139557349895291
 30
0.0
 40
0.4428687224
 50
264.985126811398402
 51
265.2356513821009116
  0
ARC
  5
3C7C
  8
0
 10
526.3498802368236511
 20
5.2135487802895284
 30
0.0
 40
0.4424601952
 50
264.4877520229989045
 51
264.9851396670968029
  0
ARC
  5
3C7D
  8
0
 10
526.3498527074235653
 20
5.2132613045895289
 30
0.0
 40
0.4421714045
 50
264.2409163363008133
 51
264.4877245011970786
  0
ARC
  5
3C7E
  8
0
 10
526.3478338004237003
 20
5.2128080380895261
 30
0.0
 40
0.4418613642000001
 50
263.0565678834956884
 51
264.2997304841002233
  0
ARC
  5
3C7F
  8
0
 10
526.3357327576236457
 20
5.212451170789528
 30
0.0
 40
0.4417901221000001
 50
260.3888065951967974
 51
260.8933632887960812
  0
ARC
  5
3C80
  8
0
 10
526.3356693804237239
 20
5.2120815193895282
 30
0.0
 40
0.4414150778
 50
259.640724787798888
 51
260.3889065510040268
  0
ARC
  5
3C81
  8
0
 10
526.3336561854237061
 20
5.2120005587895264
 30
0.0
 40
0.4412819334000001
 50
259.4767507259974195
 51
259.7285457917988083
  0
ARC
  5
3C82
  8
0
 10
526.3336402170236852
 20
5.2119165511895282
 30
0.0
 40
0.4411964223
 50
258.7275834149974116
 51
259.4767970973023239
  0
ARC
  5
3C83
  8
0
 10
526.3355113508237082
 20
5.21121852798953
 30
0.0
 40
0.4405377330000001
 50
258.6584921428955113
 51
259.3933101804998955
  0
ARC
  5
3C84
  8
0
 10
526.333506916623719
 20
5.211240817989526
 30
0.0
 40
0.4405076679000001
 50
257.4976747364005973
 51
258.7274066006024782
  0
ARC
  5
3C85
  8
0
 10
526.3544706144235761
 20
5.208991014789528
 30
0.0
 40
0.4373664387
 50
260.9104819524982872
 51
262.1729650508996201
  0
ARC
  5
3C86
  8
0
 10
526.3524011243235918
 20
5.2085473995895271
 30
0.0
 40
0.4371312652000001
 50
259.9801234764011042
 51
260.9874489665982082
  0
ARC
  5
3C87
  8
0
 10
526.3543242781237268
 20
5.2080715536895283
 30
0.0
 40
0.4364354057
 50
260.1585969429007719
 51
260.9103827957965223
  0
ARC
  5
3C88
  8
0
 10
526.3522383697236364
 20
5.2076282511895293
 30
0.0
 40
0.4361978184000001
 50
258.7290055838028024
 51
259.9801694122999152
  0
ARC
  5
3C89
  8
0
 10
526.3542811572236815
 20
5.2078197842895264
 30
0.0
 40
0.4361799709000001
 50
259.9617628749966798
 51
260.1585251520031079
  0
ARC
  5
3C8A
  8
0
 10
526.3568776782236682
 20
5.2048196546895289
 30
0.0
 40
0.4327244435
 50
255.6401605628975062
 51
256.6445727668984205
  0
ARC
  5
3C8B
  8
0
 10
526.3567825814235448
 20
5.2044476481895279
 30
0.0
 40
0.4323404744
 50
254.6336292009006002
 51
255.6401425513026879
  0
ARC
  5
3C8C
  8
0
 10
526.3567409168236964
 20
5.2042940649895293
 30
0.0
 40
0.4321813409000001
 50
254.3816366001024107
 51
254.6335598735992107
  0
ARC
  5
3C8D
  8
0
 10
526.3560307135236371
 20
5.225334088989527
 30
0.0
 40
0.4578659036000001
 50
230.2406116770997926
 51
231.3130208890000858
  0
ARC
  5
3C8E
  8
0
 10
526.3553164370237027
 20
5.2244446975895293
 30
0.0
 40
0.4567251997
 50
231.3132237196020924
 51
231.5144757809011082
  0
ARC
  5
3C8F
  8
0
 10
526.3544637798237318
 20
5.2233654489895294
 30
0.0
 40
0.4553497783
 50
231.5139467935975972
 51
232.5257905636987061
  0
ARC
  5
3C90
  8
0
 10
526.3567236608237181
 20
5.2233527379895293
 30
0.0
 40
0.4553376799000001
 50
231.398825771199995
 51
232.4164724171980083
  0
ARC
  5
3C91
  8
0
 10
526.3553056612237242
 20
5.221510829089528
 30
0.0
 40
0.4530131624
 50
232.5465610851018141
 51
233.6806004074014993
  0
ARC
  5
3C92
  8
0
 10
526.3500423337236498
 20
5.2155967411895281
 30
0.0
 40
0.4445146027000001
 50
265.9940158001001009
 51
266.5055801827969049
  0
ARC
  5
3C93
  8
0
 10
526.3222761809237227
 20
5.2387241263895268
 30
0.0
 40
0.4693505915
 50
228.2308757973972888
 51
229.2425355891033121
  0
ARC
  5
3C94
  8
0
 10
526.3214538685236903
 20
5.2377723477895302
 30
0.0
 40
0.4680927848
 50
229.2427202255967131
 51
229.4939450304970876
  0
ARC
  5
3C95
  8
0
 10
526.3228390434236417
 20
5.2366268536895291
 30
0.0
 40
0.467159719
 50
229.3949801245987032
 51
230.152117866396793
  0
ARC
  5
3C96
  8
0
 10
526.3204363319235881
 20
5.2365742348895266
 30
0.0
 40
0.4665208959
 50
229.4933877906960902
 51
230.4921976663007968
  0
ARC
  5
3C97
  8
0
 10
526.3220376943236261
 20
5.2356706487895286
 30
0.0
 40
0.4659121288000001
 50
230.1524308001986867
 51
230.4036682977009036
  0
ARC
  5
3C98
  8
0
 10
526.3211572279235497
 20
5.2346027529895274
 30
0.0
 40
0.4645280704000001
 50
230.4033966013971053
 51
231.6497592089986028
  0
ARC
  5
3C99
  8
0
 10
526.3216590971236428
 20
5.2348487795895258
 30
0.0
 40
0.4632016966000001
 50
272.0520782812006928
 51
273.8137742894032272
  0
ARC
  5
3C9A
  8
0
 10
526.3035060499237261
 20
5.2376782953895278
 30
0.0
 40
0.4625300078000001
 50
270.8160143783989042
 51
272.5582366555029239
  0
ARC
  5
3C9B
  8
0
 10
526.3198173084235805
 20
5.2341408584895284
 30
0.0
 40
0.4622437957
 50
272.3759798218961237
 51
272.6300302362013781
  0
ARC
  5
3C9C
  8
0
 10
526.3198369692237293
 20
5.233667044689529
 30
0.0
 40
0.4617695743
 50
272.1229184762955242
 51
272.3759796797996842
  0
ARC
  5
3C9D
  8
0
 10
526.3016534245235789
 20
5.2371421524895281
 30
0.0
 40
0.4614931153000001
 50
271.1437719708001737
 51
271.3916795206002917
  0
ARC
  5
3C9E
  8
0
 10
526.3016626956235768
 20
5.2366777761895298
 30
0.0
 40
0.4610286464000001
 50
270.8956806821973942
 51
271.1437720143990759
  0
ARC
  5
3C9F
  8
0
 10
526.3217583796237022
 20
5.2324762306895281
 30
0.0
 40
0.4608271144
 50
271.802191806401197
 51
272.0503049393005881
  0
ARC
  5
3CA0
  8
0
 10
526.3116234302236762
 20
5.2330868683895266
 30
0.0
 40
0.4605119867000001
 50
232.602587016799589
 51
233.6041821541975025
  0
ARC
  5
3CA1
  8
0
 10
526.3217727780236146
 20
5.2320186613895281
 30
0.0
 40
0.4603693187
 50
271.5550321979969226
 51
271.8021916645977853
  0
ARC
  5
3CA2
  8
0
 10
526.3035532509236418
 20
5.2352335752895272
 30
0.0
 40
0.4600848636000001
 50
270.3144841821949171
 51
270.8144727381039729
  0
ARC
  5
3CA3
  8
0
 10
526.3199080824236944
 20
5.2313983604895284
 30
0.0
 40
0.4594998131000001
 50
270.3791271406021792
 51
272.1245364143006213
  0
ARC
  5
3CA4
  8
0
 10
526.310755449923704
 20
5.2319092907895266
 30
0.0
 40
0.4590490859000001
 50
233.6041749062009956
 51
234.3485302305982998
  0
ARC
  5
3CA5
  8
0
 10
526.3016838344236703
 20
5.2345642558895298
 30
0.0
 40
0.4589150541
 50
269.1540931430972137
 51
270.8971666774028222
  0
ARC
  5
3CA6
  8
0
 10
526.312600353523635
 20
5.2312843579895301
 30
0.0
 40
0.458877038
 50
233.7584272303014075
 51
234.2592514363996088
  0
ARC
  5
3CA7
  8
0
 10
526.3120822869235553
 20
5.2305645041895259
 30
0.0
 40
0.4579901431000001
 50
234.2592537224979026
 51
234.7576926538025077
  0
ARC
  5
3CA8
  8
0
 10
526.3101137951235842
 20
5.2310162362895261
 30
0.0
 40
0.4579494193000001
 50
234.3486396502966898
 51
234.8416953713976056
  0
ARC
  5
3CA9
  8
0
 10
526.3113212190237391
 20
5.2294851659895301
 30
0.0
 40
0.4566694639000001
 50
234.7575373522975042
 51
235.9926744876997873
  0
ARC
  5
3CAA
  8
0
 10
526.3083496173236426
 20
5.2285354312895294
 30
0.0
 40
0.454561699
 50
266.5040825478969282
 51
268.2436303678992999
  0
ARC
  5
3CAB
  8
0
 10
526.3064195306235433
 20
5.2282119630895281
 30
0.0
 40
0.4538037315
 50
266.8328501181039201
 51
267.0840041618959049
  0
ARC
  5
3CAC
  8
0
 10
526.3026358330237144
 20
5.2286583772895261
 30
0.0
 40
0.4534679377000001
 50
236.9266897560005134
 51
237.9212649177989078
  0
ARC
  5
3CAD
  8
0
 10
526.3064004891235754
 20
5.2278678208895277
 30
0.0
 40
0.4534590629000001
 50
266.5826890137984719
 51
266.8328499787958776
  0
ARC
  5
3CAE
  8
0
 10
526.3063796747236438
 20
5.2275192353895292
 30
0.0
 40
0.4531098565
 50
266.3335145353022995
 51
266.5826888724001265
  0
ARC
  5
3CAF
  8
0
 10
526.3082547743237001
 20
5.2268140817895272
 30
0.0
 40
0.4528377695000001
 50
266.2579975367025895
 51
266.5027797262948184
  0
ARC
  5
3CB0
  8
0
 10
526.3082333277236557
 20
5.2264861521895289
 30
0.0
 40
0.4525091394
 50
266.0141928591045257
 51
266.2579973984003914
  0
ARC
  5
3CB1
  8
0
 10
526.3038072157237366
 20
5.22694106208953
 30
0.0
 40
0.4520801503000001
 50
238.0767873249978948
 51
238.8222186904019111
  0
ARC
  5
3CB2
  8
0
 10
526.3018947688235585
 20
5.2274725581895281
 30
0.0
 40
0.4520696031000001
 50
237.921030203199507
 51
238.905764918303106
  0
ARC
  5
3CB3
  8
0
 10
526.3034576375237066
 20
5.2263652729895291
 30
0.0
 40
0.4514065502000001
 50
238.8223460704018066
 51
239.0696760540996024
  0
ARC
  5
3CB4
  8
0
 10
526.3015257266235949
 20
5.2268622470895281
 30
0.0
 40
0.4513563913000001
 50
238.9058695801030865
 51
239.1504405393025934
  0
ARC
  5
3CB5
  8
0
 10
526.3075736795235571
 20
5.2572527396895259
 30
0.0
 40
0.4838127533
 50
280.6112032705988213
 51
281.0267660861143213
  0
ARC
  5
3CB6
  8
0
 10
526.3094294456235502
 20
5.2568504018895288
 30
0.0
 40
0.4837974911
 50
280.7902439357026765
 51
280.9768961730317756
  0
ARC
  5
3CB7
  8
0
 10
526.3096124457237011
 20
5.2558851690895274
 30
0.0
 40
0.4828150642000001
 50
280.2747013995015095
 51
280.7903555628981849
  0
ARC
  5
3CB8
  8
0
 10
526.3081281602236459
 20
5.2542200634895257
 30
0.0
 40
0.480729834
 50
279.0760592591992122
 51
280.6128061969030796
  0
ARC
  5
3CB9
  8
0
 10
526.316173647023561
 20
5.2479992985895256
 30
0.0
 40
0.4777378118000001
 50
225.3221550918198091
 51
226.1446735809016957
  0
ARC
  5
3CBA
  8
0
 10
526.315704111023706
 20
5.247061341489526
 30
0.0
 40
0.4747686642000001
 50
277.1553269714019052
 51
278.171048787496602
  0
ARC
  5
3CBB
  8
0
 10
526.3140990175236311
 20
5.2453542436895289
 30
0.0
 40
0.4727268139
 50
276.7217004511988989
 51
276.9763034989002222
  0
ARC
  5
3CBC
  8
0
 10
526.3059584438235561
 20
5.2464783204895289
 30
0.0
 40
0.4726193120000001
 50
227.0857376605000866
 51
228.0991201605980905
  0
ARC
  5
3CBD
  8
0
 10
526.3159954814235562
 20
5.244777133889527
 30
0.0
 40
0.4724659527
 50
276.3961180455008275
 51
277.1547714225970935
  0
ARC
  5
3CBE
  8
0
 10
526.2979638002235561
 20
5.2487539197895279
 30
0.0
 40
0.4722816225
 50
275.1555768395990071
 51
276.9142604095966931
  0
ARC
  5
3CBF
  8
0
 10
526.3141694013236247
 20
5.244757050489528
 30
0.0
 40
0.4721254873
 50
276.4676808989976848
 51
276.7217003956977237
  0
ARC
  5
3CC0
  8
0
 10
526.3048816425236964
 20
5.245279661689529
 30
0.0
 40
0.4710080134
 50
228.0992354237961877
 51
228.6019067797030004
  0
ARC
  5
3CC1
  8
0
 10
526.3161833434236314
 20
5.2431213250895281
 30
0.0
 40
0.4707995224000001
 50
275.8915273930984995
 51
276.3958463012971833
  0
ARC
  5
3CC2
  8
0
 10
526.3064944374235665
 20
5.2443758952895294
 30
0.0
 40
0.4706554213000001
 50
228.2619976355987035
 51
228.7683987002016011
  0
ARC
  5
3CC3
  8
0
 10
526.3038245007236355
 20
5.2440775393895294
 30
0.0
 40
0.4694071877
 50
228.6016686755029923
 51
229.3510711351993052
  0
ARC
  5
3CC4
  8
0
 10
526.3144652130237091
 20
5.242006938889527
 30
0.0
 40
0.4693595579000001
 50
274.7061787399982791
 51
276.469615886594795
  0
ARC
  5
3CC5
  8
0
 10
526.3056236903237277
 20
5.2433822190895292
 30
0.0
 40
0.4693342124
 50
228.7683877621018951
 51
229.5228111173989873
  0
ARC
  5
3CC6
  8
0
 10
526.298249477223635
 20
5.2457571790895301
 30
0.0
 40
0.4692713347
 50
274.6489188490995161
 51
275.1537169790973962
  0
ARC
  5
3CC7
  8
0
 10
526.3043768723235871
 20
5.2419230909895296
 30
0.0
 40
0.4674149394
 50
229.5229611624982056
 51
230.5193863914020938
  0
ARC
  5
3CC8
  8
0
 10
526.3334928122236533
 20
5.2415684181895257
 30
0.0
 40
0.4752296499
 50
225.9899967414970945
 51
226.2438630753989059
  0
ARC
  5
3CC9
  8
0
 10
526.351163945223675
 20
5.2383174455895301
 30
0.0
 40
0.4742291974000001
 50
224.7995701997008098
 51
225.8274601565993009
  0
ARC
  5
3CCA
  8
0
 10
526.3325316022236393
 20
5.2405622070895284
 30
0.0
 40
0.4738381101
 50
226.2436679524016085
 51
227.2524862034005935
  0
ARC
  5
3CCB
  8
0
 10
526.3501510419237093
 20
5.2372773775895283
 30
0.0
 40
0.4727774014000001
 50
225.827673195301486
 51
226.0832058736974091
  0
ARC
  5
3CCC
  8
0
 10
526.3517870859235472
 20
5.2365053016895251
 30
0.0
 40
0.4719707265000001
 50
225.9681850922970909
 51
226.2250880463990086
  0
ARC
  5
3CCD
  8
0
 10
526.3341475308236568
 20
5.2416631934895292
 30
0.0
 40
0.4710738523
 50
277.5071973250962856
 51
277.7608915143968034
  0
ARC
  5
3CCE
  8
0
 10
526.3488916585237121
 20
5.235961761589528
 30
0.0
 40
0.4709561757
 50
226.0825569136970046
 51
227.0997237399980122
  0
ARC
  5
3CCF
  8
0
 10
526.351019558123653
 20
5.2357030296895282
 30
0.0
 40
0.4708604389000001
 50
226.2249870551003994
 51
226.9923674722010105
  0
ARC
  5
3CD0
  8
0
 10
526.3323689249235713
 20
5.241156424789529
 30
0.0
 40
0.4704965206000001
 50
276.801458103898824
 51
277.8235748060000105
  0
ARC
  5
3CD1
  8
0
 10
526.3342265012237249
 20
5.2410639420895277
 30
0.0
 40
0.4704694198
 50
277.2543474425983163
 51
277.5071972165977741
  0
ARC
  5
3CD2
  8
0
 10
526.3500776312237122
 20
5.2346976943895269
 30
0.0
 40
0.4694827902
 50
226.9927410622971138
 51
227.1977445394012136
  0
ARC
  5
3CD3
  8
0
 10
526.3325370714236442
 20
5.2397617776895302
 30
0.0
 40
0.4690917749000001
 50
276.5479564159003871
 51
276.8012387085973955
  0
ARC
  5
3CD4
  8
0
 10
526.3326332841236308
 20
5.2389181400895266
 30
0.0
 40
0.4682426689
 50
276.044132240296392
 51
276.5480321594981774
  0
ARC
  5
3CD5
  8
0
 10
526.3491737666237213
 20
5.2337189944895277
 30
0.0
 40
0.4681505659000001
 50
227.1975206778016059
 51
228.2612802274003059
  0
ARC
  5
3CD6
  8
0
 10
526.3387815027235774
 20
5.2314473817895291
 30
0.0
 40
0.4641519426
 50
229.278452462601706
 51
230.5438679650021925
  0
ARC
  5
3CD7
  8
0
 10
526.339528056823724
 20
5.229542247389527
 30
0.0
 40
0.4619747067000001
 50
230.4368835276974892
 51
231.4473463879014901
  0
ARC
  5
3CD8
  8
0
 10
526.3372717600235546
 20
5.2296099547895274
 30
0.0
 40
0.4617738220000001
 50
230.5436232839028037
 51
231.5466658819981092
  0
ARC
  5
3CD9
  8
0
 10
526.3381003400236295
 20
5.2277544392895257
 30
0.0
 40
0.4596867758000001
 50
231.447633491402911
 51
232.6998053593009956
  0
ARC
  5
3CDA
  8
0
 10
526.3353527411236428
 20
5.2434681730895276
 30
0.0
 40
0.4778883297000001
 50
224.9684657215973971
 51
225.2247664119979902
  0
ARC
  5
3CDB
  8
0
 10
526.3326047276235613
 20
5.2431510964895258
 30
0.0
 40
0.4768877171
 50
224.6104349927936994
 51
226.0848399686018126
  0
ARC
  5
3CDC
  8
0
 10
526.3345341974236362
 20
5.242641952989529
 30
0.0
 40
0.4767252937000001
 50
225.2246623827979874
 51
225.9896231116013041
  0
ARC
  5
3CDD
  8
0
 10
526.3337173322237277
 20
5.2446817369895271
 30
0.0
 40
0.4741228407
 50
277.7631436143013843
 51
279.5605373143004044
  0
ARC
  5
3CDE
  8
0
 10
526.3320375052236386
 20
5.2435901455895291
 30
0.0
 40
0.4729527083
 50
278.0804148678008119
 51
278.3388236902022186
  0
ARC
  5
3CDF
  8
0
 10
526.3321243323237013
 20
5.2429785742895261
 30
0.0
 40
0.4723350042
 50
277.8228808351998964
 51
278.0804147652985989
  0
ARC
  5
3CE0
  8
0
 10
526.366726249223575
 20
5.2105519197895296
 30
0.0
 40
0.4370214762
 50
264.409295937396621
 51
265.6782724590983094
  0
ARC
  5
3CE1
  8
0
 10
526.3589312809235707
 20
5.2049072856895293
 30
0.0
 40
0.4325341866
 50
256.567201766200526
 51
257.8258795295964774
  0
ARC
  5
3CE2
  8
0
 10
526.3588044198236275
 20
5.2043726537895258
 30
0.0
 40
0.4319847102
 50
255.5585134812980073
 51
256.5670947396030215
  0
ARC
  5
3CE3
  8
0
 10
526.3714080169235103
 20
5.2062631286895282
 30
0.0
 40
0.431569145
 50
262.0682257696956867
 51
262.3241057885015266
  0
ARC
  5
3CE4
  8
0
 10
526.3734562646236554
 20
5.2066144633895268
 30
0.0
 40
0.4314338003
 50
262.2556712826986995
 51
263.5381887844955031
  0
ARC
  5
3CE5
  8
0
 10
526.3713543985236356
 20
5.205882799289526
 30
0.0
 40
0.4311850551
 50
261.3017061769970155
 51
262.0683084688009785
  0
ARC
  5
3CE6
  8
0
 10
526.3878476396237147
 20
5.2105120473895283
 30
0.0
 40
0.4310201239
 50
267.3818487282997012
 51
268.1649756484047202
  0
ARC
  5
3CE7
  8
0
 10
526.3733210124237303
 20
5.2056147642895283
 30
0.0
 40
0.4304249936
 50
261.4887307347028127
 51
262.2555789457016999
  0
ARC
  5
3CE8
  8
0
 10
526.3857977522236524
 20
5.2091725095895276
 30
0.0
 40
0.4303818762
 50
265.8722868771048979
 51
267.1720495535989244
  0
ARC
  5
3CE9
  8
0
 10
526.3878181504236409
 20
5.2098423989895286
 30
0.0
 40
0.4303498275
 50
267.121546366599091
 51
267.381698177501903
  0
ARC
  5
3CEA
  8
0
 10
526.3712160963235647
 20
5.204981457589529
 30
0.0
 40
0.4302731647
 50
260.0269531047991904
 51
261.3017594923990146
  0
ARC
  5
3CEB
  8
0
 10
526.3732645336235692
 20
5.2052327780895267
 30
0.0
 40
0.4300388553000001
 50
261.2335212473034858
 51
261.4886403096988943
  0
ARC
  5
3CEC
  8
0
 10
526.3758632744236365
 20
5.2018770724895296
 30
0.0
 40
0.4257915933
 50
256.896837405299209
 51
257.9195540731017786
  0
ARC
  5
3CED
  8
0
 10
526.3779556690235495
 20
5.2021640234895301
 30
0.0
 40
0.4255236700000001
 50
257.84586835110008
 51
259.128112711096378
  0
ARC
  5
3CEE
  8
0
 10
526.3757393482236466
 20
5.201344813489527
 30
0.0
 40
0.4252450978000001
 50
255.615798113398796
 51
256.8968419536972192
  0
ARC
  5
3CEF
  8
0
 10
526.3778232906237236
 20
5.201543753189525
 30
0.0
 40
0.424889432
 50
257.0751662348015998
 51
257.845708958401076
  0
ARC
  5
3CF0
  8
0
 10
526.3777729362235505
 20
5.2013225464895276
 30
0.0
 40
0.4246625668
 50
256.8181026840979939
 51
257.0751123630020061
  0
ARC
  5
3CF1
  8
0
 10
526.3826264419235486
 20
5.199564559589529
 30
0.0
 40
0.4212631865
 50
253.3945161089000067
 51
254.6828470298032983
  0
ARC
  5
3CF2
  8
0
 10
526.3825729865236553
 20
5.1993839269895261
 30
0.0
 40
0.4210748102000001
 50
252.3626996079995024
 51
253.3944371170985903
  0
ARC
  5
3CF3
  8
0
 10
526.3829582423236388
 20
5.2240964121895281
 30
0.0
 40
0.4544851886
 50
227.8800678923014118
 51
228.8495250270970871
  0
ARC
  5
3CF4
  8
0
 10
526.3848808306237288
 20
5.2236977759895282
 30
0.0
 40
0.4536192774
 50
228.1924506887984023
 51
228.7173141293012861
  0
ARC
  5
3CF5
  8
0
 10
526.3837843846235955
 20
5.2224471996895288
 30
0.0
 40
0.4519561076
 50
228.7171671617990114
 51
229.8478405450005937
  0
ARC
  5
3CF6
  8
0
 10
526.3753462976236506
 20
5.225987705889529
 30
0.0
 40
0.4503757092000001
 50
274.727418221997425
 51
275.1047450181195018
  0
ARC
  5
3CF7
  8
0
 10
526.3638936008236442
 20
5.2214981210895282
 30
0.0
 40
0.4485827433
 50
271.0111889591966019
 51
272.3051918295997211
  0
ARC
  5
3CF8
  8
0
 10
526.3619845944235749
 20
5.2201874891895272
 30
0.0
 40
0.4476163605
 50
270.042887412497123
 51
271.075462590801294
  0
ARC
  5
3CF9
  8
0
 10
526.3639208093236448
 20
5.2200866632895284
 30
0.0
 40
0.4471710251
 50
270.755303479298675
 51
271.0108948563001832
  0
ARC
  5
3CFA
  8
0
 10
526.3639289316237182
 20
5.21944692678953
 30
0.0
 40
0.4465312371000001
 50
270.247443686597876
 51
270.7553434539005934
  0
ARC
  5
3CFB
  8
0
 10
526.3639317050236741
 20
5.218899223289525
 30
0.0
 40
0.4459835268
 50
269.9951226703008729
 51
270.2473912618003737
  0
ARC
  5
3CFC
  8
0
 10
526.3619877565237175
 20
5.2180982904895279
 30
0.0
 40
0.44552716
 50
268.7756953875982049
 51
270.0426818653987198
  0
ARC
  5
3CFD
  8
0
 10
526.3826609769237166
 20
5.2207970145895279
 30
0.0
 40
0.4430684311000001
 50
272.6053094184957786
 51
273.733189803126777
  0
ARC
  5
3CFE
  8
0
 10
526.3807780498235616
 20
5.2194258685895276
 30
0.0
 40
0.4423205728000001
 50
271.602976338396104
 51
272.6539770981996753
  0
ARC
  5
3CFF
  8
0
 10
526.3827234430236786
 20
5.2194637109895288
 30
0.0
 40
0.4417336663000001
 50
272.3433716970989735
 51
272.6050765342969839
  0
ARC
  5
3D00
  8
0
 10
526.3827520992235804
 20
5.2187538081895291
 30
0.0
 40
0.4410231854
 50
271.8222569804997875
 51
272.3434229323959244
  0
ARC
  5
3D01
  8
0
 10
526.3827727173236326
 20
5.218120919889528
 30
0.0
 40
0.4403899615000001
 50
271.5627646140980005
 51
271.8221942106006281
  0
ARC
  5
3D02
  8
0
 10
526.3808427478236354
 20
5.2171799325895272
 30
0.0
 40
0.4400737059000001
 50
270.3046152147967973
 51
271.6027360058982936
  0
ARC
  5
3D03
  8
0
 10
526.3688685836235663
 20
5.2130858849895283
 30
0.0
 40
0.4391438115
 50
266.6387433812960808
 51
267.9257923549985208
  0
ARC
  5
3D04
  8
0
 10
526.3668453537236473
 20
5.2121419553895256
 30
0.0
 40
0.4386159661
 50
265.678410181696222
 51
266.7049603974958814
  0
ARC
  5
3D05
  8
0
 10
526.3687852734236685
 20
5.2116509032895273
 30
0.0
 40
0.4377064138000001
 50
265.8747211632979202
 51
266.638616661900528
  0
ARC
  5
3D06
  8
0
 10
526.3687463298236935
 20
5.2110976159895301
 30
0.0
 40
0.4371517585
 50
265.6214328458980276
 51
265.8745954157010942
  0
ARC
  5
3D07
  8
0
 10
526.387896200923592
 20
5.2120574441895293
 30
0.0
 40
0.4325662833
 50
268.1651014692973831
 51
269.478768773699926
  0
ARC
  5
3D08
  8
0
 10
526.3858821230236344
 20
5.2109082081895286
 30
0.0
 40
0.4321196237
 50
267.1722306855950819
 51
268.2185086242978969
  0
ARC
  5
3D09
  8
0
 10
526.3905869999236984
 20
5.2046394498895259
 30
0.0
 40
0.4239499566
 50
263.5035058225009266
 51
263.7647783200013123
  0
ARC
  5
3D0A
  8
0
 10
526.3925909320237224
 20
5.2045680020895304
 30
0.0
 40
0.4230974759000001
 50
262.9198776536014179
 51
265.0177788986990208
  0
ARC
  5
3D0B
  8
0
 10
526.3904708307236433
 20
5.2036476503895273
 30
0.0
 40
0.4229513820000001
 50
261.4162416982994159
 51
263.5039404836999779
  0
ARC
  5
3D0C
  8
0
 10
526.392466063223651
 20
5.2035349026895261
 30
0.0
 40
0.4220568632
 50
262.657732735798902
 51
262.91941333709849
  0
ARC
  5
3D0D
  8
0
 10
526.395086443723585
 20
5.1997695706895248
 30
0.0
 40
0.4169396712
 50
258.230798909102873
 51
259.2777977260969919
  0
ARC
  5
3D0E
  8
0
 10
526.3971986744236347
 20
5.2001864556895248
 30
0.0
 40
0.4165048092000001
 50
259.2092233949991851
 51
260.5230571553009895
  0
ARC
  5
3D0F
  8
0
 10
526.3949449740237014
 20
5.199091155889529
 30
0.0
 40
0.4162466631
 50
256.9194339355959755
 51
258.2308153554994874
  0
ARC
  5
3D10
  8
0
 10
526.3970586644236391
 20
5.1994513122895292
 30
0.0
 40
0.4157564520000001
 50
258.1564618500984238
 51
259.2092093838980986
  0
ARC
  5
3D11
  8
0
 10
526.4099102814235493
 20
5.2032613569895281
 30
0.0
 40
0.4136771599000001
 50
264.2689162652957862
 51
264.8496525203602232
  0
ARC
  5
3D12
  8
0
 10
526.4098081657236889
 20
5.2022532173895293
 30
0.0
 40
0.4126638623
 50
262.9256522371957203
 51
264.269045788701078
  0
ARC
  5
3D13
  8
0
 10
526.3997964789235766
 20
5.1972442597895281
 30
0.0
 40
0.4120604827000001
 50
253.6892008432963905
 51
254.7429564631985102
  0
ARC
  5
3D14
  8
0
 10
526.3997473753237273
 20
5.1970753735895272
 30
0.0
 40
0.4118846031000001
 50
252.370868645900913
 51
253.6891585498001973
  0
ARC
  5
3D15
  8
0
 10
526.4018654700237221
 20
5.1972952814895272
 30
0.0
 40
0.4111752924000001
 50
254.6616637386995876
 51
255.9827208425008962
  0
ARC
  5
3D16
  8
0
 10
526.4017824863236683
 20
5.1969901114895256
 30
0.0
 40
0.4108590417000001
 50
253.6032722142005866
 51
254.6615667971965138
  0
ARC
  5
3D17
  8
0
 10
526.4051087925237198
 20
5.1970022463895296
 30
0.0
 40
0.4093281788000001
 50
247.7556559665999032
 51
249.0829878939979949
  0
ARC
  5
3D18
  8
0
 10
526.4049849735235966
 20
5.19668031308953
 30
0.0
 40
0.4089832561
 50
249.0830893141962008
 51
250.1464708130012866
  0
ARC
  5
3D19
  8
0
 10
526.4069922608236993
 20
5.1964907402895264
 30
0.0
 40
0.4077640791
 50
248.9842525048011908
 51
250.0492668403005041
  0
ARC
  5
3D1A
  8
0
 10
526.4069220444237089
 20
5.196298161189528
 30
0.0
 40
0.4075590986
 50
250.0493079183005989
 51
251.3817574960002901
  0
ARC
  5
3D1B
  8
0
 10
526.414556920923701
 20
5.1985710223895287
 30
0.0
 40
0.4060445151
 50
259.6714619295005946
 51
260.7500147794992245
  0
ARC
  5
3D1C
  8
0
 10
526.4144133892235686
 20
5.1977814392895283
 30
0.0
 40
0.4052419924000001
 50
258.3205957544990952
 51
259.6714109940036224
  0
ARC
  5
3D1D
  8
0
 10
526.4191702941236599
 20
5.1953421256895282
 30
0.0
 40
0.3996144721
 50
253.6486421683021888
 51
255.9870839213996021
  0
ARC
  5
3D1E
  8
0
 10
526.3676530518237087
 20
5.2317203875895286
 30
0.0
 40
0.4664078099000001
 50
225.6996836079013917
 51
226.9927566578969049
  0
ARC
  5
3D1F
  8
0
 10
526.3686291007236377
 20
5.2302741917895261
 30
0.0
 40
0.4643994895000001
 50
226.8672637857970926
 51
227.1260072262004996
  0
ARC
  5
3D20
  8
0
 10
526.3657562679236435
 20
5.2296833558895273
 30
0.0
 40
0.4636244160000001
 50
226.9924620082994124
 51
228.0190837468983034
  0
ARC
  5
3D21
  8
0
 10
526.3679055727235436
 20
5.2294936938895296
 30
0.0
 40
0.4633352202000001
 50
227.1259079436021864
 51
227.8994409385022095
  0
ARC
  5
3D22
  8
0
 10
526.3669726890236689
 20
5.228465574389527
 30
0.0
 40
0.4619469503
 50
227.8997987602018043
 51
228.1569416307974052
  0
ARC
  5
3D23
  8
0
 10
526.3661117104236382
 20
5.2275018139895257
 30
0.0
 40
0.4606546206
 50
228.1567538295009001
 51
229.1808147499019981
  0
LINE
  5
3D24
  8
0
 10
526.238146153523644
 20
4.7811788103895259
 30
0.0
 11
526.2376038578237285
 21
4.7812480003895281
 31
0.0
  0
LINE
  5
3D25
  8
0
 10
526.2403853817236268
 20
4.7880704460895274
 30
0.0
 11
526.2395228403237297
 21
4.7881321190895276
 31
0.0
  0
LINE
  5
3D26
  8
0
 10
526.2443476020235948
 20
4.8002649061895291
 30
0.0
 11
526.2434687832236477
 21
4.8002764823895268
 31
0.0
  0
LINE
  5
3D27
  8
0
 10
526.2605904932237308
 20
4.7950877260895277
 30
0.0
 11
526.2533441080237253
 21
4.7973008462895272
 31
0.0
  0
LINE
  5
3D28
  8
0
 10
526.2533441080237253
 20
4.7973008462895272
 30
0.0
 11
526.2443476020235948
 21
4.8002649061895291
 31
0.0
  0
LINE
  5
3D29
  8
0
 10
526.2501546425237393
 20
4.8181371392895267
 30
0.0
 11
526.2492577187236975
 21
4.8180929939895272
 31
0.0
  0
LINE
  5
3D2A
  8
0
 10
526.0919964050236786
 20
4.8691902922895274
 30
0.0
 11
526.0912967263235487
 21
4.8697532051895278
 31
0.0
  0
LINE
  5
3D2B
  8
0
 10
526.0862074694235844
 20
4.851373780689527
 30
0.0
 11
526.0854896858236316
 21
4.8518809720895284
 31
0.0
  0
LINE
  5
3D2C
  8
0
 10
526.0854896858236316
 20
4.8518809720895284
 30
0.0
 11
526.0818754634235574
 21
4.8530289299895273
 31
0.0
  0
LINE
  5
3D2D
  8
0
 10
526.0800718018236921
 20
4.8536111100895267
 30
0.0
 11
526.069305840623656
 21
4.8572398772895289
 31
0.0
  0
LINE
  5
3D2E
  8
0
 10
526.0822615266237108
 20
4.8392294173895278
 30
0.0
 11
526.0815274655235498
 21
4.8396865119895258
 31
0.0
  0
LINE
  5
3D2F
  8
0
 10
526.080037402323569
 20
4.8323842666895258
 30
0.0
 11
526.0792882373236807
 21
4.832794876189527
 31
0.0
  0
LINE
  5
3D30
  8
0
 10
526.2378094506235584
 20
4.7828588476895284
 30
0.0
 11
526.2386283292237295
 21
4.7826627943895259
 31
0.0
  0
LINE
  5
3D31
  8
0
 10
526.2405586304237204
 20
4.7913199529895278
 30
0.0
 11
526.2413632581235561
 21
4.7910800402895291
 31
0.0
  0
LINE
  5
3D32
  8
0
 10
526.2514572372236898
 20
4.8248624158895277
 30
0.0
 11
526.2522312293236837
 21
4.8245282161895267
 31
0.0
  0
LINE
  5
3D33
  8
0
 10
526.245060370823694
 20
4.8051748853895271
 30
0.0
 11
526.2458502138237009
 21
4.8048894697895292
 31
0.0
  0
LINE
  5
3D34
  8
0
 10
526.0869922976237376
 20
4.8565055356895277
 30
0.0
 11
526.0877990571236751
 21
4.8562721836895282
 31
0.0
  0
LINE
  5
3D35
  8
0
 10
526.0825053419237065
 20
4.8426961060895284
 30
0.0
 11
526.083297316623657
 21
4.842417251289528
 31
0.0
  0
LINE
  5
3D36
  8
0
 10
526.0797704130236525
 20
4.834278860289527
 30
0.0
 11
526.0805481369236531
 21
4.8339561459895277
 31
0.0
  0
LINE
  5
3D37
  8
0
 10
526.0933733131237204
 20
4.8761442820895278
 30
0.0
 11
526.0941959235235572
 21
4.875959714189527
 31
0.0
  0
ARC
  5
3D38
  8
0
 10
526.2444711831983568
 20
7.544481890688246
 30
0.0
 40
2.7093755511698641
 50
255.2481502055399858
 51
256.3167250540540749
  0
ARC
  5
3D39
  8
0
 10
525.7432763838347682
 20
6.5372586298693447
 30
0.0
 40
1.631250065728296
 50
265.0864660259617835
 51
271.1011285376616797
  0
ARC
  5
3D3A
  8
0
 10
525.9541681218329359
 20
-3.0458317955858472
 30
0.0
 40
7.9541682117585264
 50
88.6954911955003666
 51
91.2934067494048804
  0
ARC
  5
3D3B
  8
0
 10
526.143346339231357
 20
3.389531168339647
 30
0.0
 40
1.516765287625212
 50
66.7548454742886435
 51
90.3057359148245951
  0
ARC
  5
3D3C
  8
0
 10
525.5625984756236448
 20
5.6716200789895259
 30
0.0
 40
0.0315103183000013
 50
91.4856829104083431
 51
180.309862057936698
  0
LINE
  5
3D3D
  8
0
 10
526.7127990714587895
 20
4.7953407299458499
 30
0.0
 11
526.7083271430290097
 21
4.7815775493777082
 31
0.0
  0
ARC
  5
3D3E
  8
0
 10
526.3388794466878835
 20
5.3673701486975212
 30
0.0
 40
0.5966366313881872
 50
257.0968174388628995
 51
277.7378669865555025
  0
ARC
  5
3D3F
  8
0
 10
526.3440561990431661
 20
5.3682602233408678
 30
0.0
 40
0.5991626435262899
 50
230.1401604929517077
 51
246.8285849665944909
  0
LINE
  5
3D40
  8
0
 10
526.080037402323569
 20
4.8323842666895258
 30
0.0
 11
526.0794824164353258
 21
4.8306761955331501
 31
0.0
  0
ENDSEC
  0
EOF
