  0
SECTION
  2
HEADER
  9
$ACADVER
  1
AC1009
  9
$INSBASE
 10
2287.1839930913888566
 20
282.2835022711519741
 30
0.0
  9
$EXTMIN
 10
2282.4452436758838303
 20
282.2663786995249779
 30
-0.0000000349181948
  9
$EXTMAX
 10
2288.20608209833199
 20
288.5631339066807186
 30
0.0000000814935746
  9
$LIMMIN
 10
0.0
 20
0.0
  9
$LIMMAX
 10
11.6929133858000007
 20
8.2677165353999982
  9
$ORTHOMODE
 70
     0
  9
$REGENMODE
 70
     1
  9
$FILLMODE
 70
     1
  9
$QTEXTMODE
 70
     0
  9
$MIRRTEXT
 70
     0
  9
$DRAGMODE
 70
     2
  9
$LTSCALE
 40
0.6431102362
  9
$OSMODE
 70
  4095
  9
$ATTMODE
 70
     1
  9
$TEXTSIZE
 40
0.2
  9
$TRACEWID
 40
0.05
  9
$TEXTSTYLE
  7
STANDARD
  9
$CLAYER
  8
0
  9
$CELTYPE
  6
BYLAYER
  9
$CECOLOR
 62
   256
  9
$DIMSCALE
 40
1.0
  9
$DIMASZ
 40
0.1875
  9
$DIMEXO
 40
0.0625
  9
$DIMDLI
 40
0.4443307087
  9
$DIMRND
 40
0.0
  9
$DIMDLE
 40
0.0
  9
$DIMEXE
 40
0.125
  9
$DIMTP
 40
0.01
  9
$DIMTM
 40
0.01
  9
$DIMTXT
 40
2.0
  9
$DIMCEN
 40
0.1052362205
  9
$DIMTSZ
 40
0.0
  9
$DIMTOL
 70
     1
  9
$DIMLIM
 70
     0
  9
$DIMTIH
 70
     1
  9
$DIMTOH
 70
     1
  9
$DIMSE1
 70
     0
  9
$DIMSE2
 70
     0
  9
$DIMTAD
 70
     0
  9
$DIMZIN
 70
     0
  9
$DIMBLK
  1

  9
$DIMASO
 70
     1
  9
$DIMSHO
 70
     1
  9
$DIMPOST
  1
\X
  9
$DIMAPOST
  1

  9
$DIMALT
 70
     1
  9
$DIMALTD
 70
     2
  9
$DIMALTF
 40
25.3999999999999986
  9
$DIMLFAC
 40
1.0
  9
$DIMTOFL
 70
     0
  9
$DIMTVP
 40
0.0
  9
$DIMTIX
 70
     0
  9
$DIMSOXD
 70
     0
  9
$DIMSAH
 70
     0
  9
$DIMBLK1
  1

  9
$DIMBLK2
  1

  9
$DIMSTYLE
  2
STANDARD
  9
$DIMCLRD
 70
     0
  9
$DIMCLRE
 70
     0
  9
$DIMCLRT
 70
     0
  9
$DIMTFAC
 40
1.0
  9
$DIMGAP
 40
0.09
  9
$LUNITS
 70
     2
  9
$LUPREC
 70
     4
  9
$SKETCHINC
 40
0.1
  9
$FILLETRAD
 40
0.0
  9
$AUNITS
 70
     0
  9
$AUPREC
 70
     0
  9
$MENU
  1
.
  9
$ELEVATION
 40
0.0
  9
$PELEVATION
 40
0.0
  9
$THICKNESS
 40
0.0
  9
$LIMCHECK
 70
     0
  9
$BLIPMODE
 70
     0
  9
$CHAMFERA
 40
0.0
  9
$CHAMFERB
 40
0.0
  9
$SKPOLY
 70
     0
  9
$TDCREATE
 40
2458060.468368056230247
  9
$TDUPDATE
 40
2460090.6517013888806105
  9
$TDINDWG
 40
0.280597338
  9
$TDUSRTIMER
 40
0.280597338
  9
$USRTIMER
 70
     1
  9
$ANGBASE
 50
0.0
  9
$ANGDIR
 70
     0
  9
$PDMODE
 70
     0
  9
$PDSIZE
 40
0.3125
  9
$PLINEWID
 40
0.0
  9
$COORDS
 70
     1
  9
$SPLFRAME
 70
     0
  9
$SPLINETYPE
 70
     6
  9
$SPLINESEGS
 70
     8
  9
$ATTDIA
 70
     1
  9
$ATTREQ
 70
     1
  9
$HANDLING
 70
     1
  9
$HANDSEED
  5
6674
  9
$SURFTAB1
 70
     6
  9
$SURFTAB2
 70
     6
  9
$SURFTYPE
 70
     6
  9
$SURFU
 70
     6
  9
$SURFV
 70
     6
  9
$UCSNAME
  2

  9
$UCSORG
 10
0.0
 20
0.0
 30
0.0
  9
$UCSXDIR
 10
1.0
 20
0.0
 30
0.0
  9
$UCSYDIR
 10
0.0
 20
1.0
 30
0.0
  9
$PUCSNAME
  2

  9
$PUCSORG
 10
0.0
 20
0.0
 30
0.0
  9
$PUCSXDIR
 10
1.0
 20
0.0
 30
0.0
  9
$PUCSYDIR
 10
0.0
 20
1.0
 30
0.0
  9
$USERI1
 70
     0
  9
$USERI2
 70
     0
  9
$USERI3
 70
     0
  9
$USERI4
 70
     0
  9
$USERI5
 70
     0
  9
$USERR1
 40
0.0
  9
$USERR2
 40
0.0
  9
$USERR3
 40
0.0
  9
$USERR4
 40
0.0
  9
$USERR5
 40
0.0
  9
$WORLDVIEW
 70
     1
  9
$SHADEDGE
 70
     3
  9
$SHADEDIF
 70
    70
  9
$TILEMODE
 70
     1
  9
$MAXACTVP
 70
    64
  9
$PLIMCHECK
 70
     0
  9
$PEXTMIN
 10
1.0000000000000000E+20
 20
1.0000000000000000E+20
 30
1.0000000000000000E+20
  9
$PEXTMAX
 10
-1.0000000000000000E+20
 20
-1.0000000000000000E+20
 30
-1.0000000000000000E+20
  9
$PLIMMIN
 10
0.0
 20
0.0
  9
$PLIMMAX
 10
12.0
 20
9.0
  9
$UNITMODE
 70
     0
  9
$VISRETAIN
 70
     1
  9
$PLINEGEN
 70
     0
  9
$PSLTSCALE
 70
     1
  0
ENDSEC
  0
SECTION
  2
TABLES
  0
TABLE
  2
VPORT
 70
     1
  0
VPORT
  2
*ACTIVE
 70
     0
 10
0.0
 20
0.0
 11
1.0
 21
1.0
 12
431.4205115199205807
 22
113.3032841570015989
 13
0.0
 23
0.0
 14
1.0
 24
1.0
 15
0.0
 25
0.0
 16
0.0
 26
0.0
 36
198.6867210225404961
 17
1853.9051513671870453
 27
172.1114721461011925
 37
0.0
 40
6.3489714366759014
 41
2.5251322751322749
 42
50.0
 43
0.0
 44
0.0
 50
0.0
 51
0.0
 71
     0
 72
   100
 73
     1
 74
     1
 75
     0
 76
     0
 77
     0
 78
     0
  0
ENDTAB
  0
TABLE
  2
LTYPE
 70
     2
  0
LTYPE
  2
CONTINUOUS
 70
     0
  3
Solid line
 72
    65
 73
     0
 40
0.0
  0
LTYPE
  2
PHANTOM2
 70
     0
  3
___ _ _ ___ _ _ ___ _ _ ___ _ _
 72
    65
 73
     6
 40
1.25
 49
0.625
 49
-0.125
 49
0.125
 49
-0.125
 49
0.125
 49
-0.125
  0
ENDTAB
  0
TABLE
  2
LAYER
 70
     2
  0
LAYER
  2
0
 70
     0
 62
   255
  6
CONTINUOUS
  0
LAYER
  2
DEFPOINTS
 70
     0
 62
     7
  6
CONTINUOUS
  0
ENDTAB
  0
TABLE
  2
STYLE
 70
     1
  0
STYLE
  2
STANDARD
 70
     0
 40
0.0
 41
0.8
 50
0.0
 71
     0
 42
0.2
  3
txt
  4

  0
ENDTAB
  0
TABLE
  2
VIEW
 70
     0
  0
ENDTAB
  0
TABLE
  2
UCS
 70
     0
  0
ENDTAB
  0
TABLE
  2
APPID
 70
     9
  0
APPID
  2
ACAD
 70
     0
  0
APPID
  2
ACAD_MLEADERVER
 70
     0
  0
APPID
  2
ACAD_EXEMPT_FROM_CAD_STANDARDS
 70
     0
  0
APPID
  2
ACAD_NAV_VCDISPLAY
 70
     0
  0
APPID
  2
ACAECLAYERSTANDARD
 70
     0
  0
APPID
  2
ACCMTRANSPARENCY
 70
     0
  0
APPID
  2
ACAD_DSTYLE_DIMJAG
 70
     0
  0
APPID
  2
ACAD_DSTYLE_DIMTALN
 70
     0
  0
APPID
  2
ACDBATTR
 70
     0
  0
ENDTAB
  0
TABLE
  2
DIMSTYLE
 70
     1
  0
DIMSTYLE
  2
STANDARD
 70
     0
  3

  4

  5

  6

  7

 40
1.0
 41
0.1875
 42
0.0625
 43
0.38
 44
0.125
 45
0.0
 46
0.0
 47
0.01
 48
0.01
140
0.15625
141
0.09
142
0.0
143
25.3999999999999986
144
1.0
145
0.0
146
1.0
147
0.09
 71
     1
 72
     0
 73
     1
 74
     1
 75
     0
 76
     0
 77
     0
 78
     4
170
     0
171
     2
172
     0
173
     0
174
     0
175
     0
176
     0
177
     0
178
     0
  0
ENDTAB
  0
ENDSEC
  0
SECTION
  2
BLOCKS
  0
BLOCK
  8
0
  2
$MODEL_SPACE
 70
     0
 10
0.0
 20
0.0
 30
0.0
  3
$MODEL_SPACE
  1

  0
ENDBLK
  5
21
  8
0
  0
BLOCK
 67
     1
  8
0
  2
$PAPER_SPACE
 70
     0
 10
0.0
 20
0.0
 30
0.0
  3
$PAPER_SPACE
  1

  0
ENDBLK
  5
1D
 67
     1
  8
0
  0
BLOCK
  8
0
  2
_FILLED
 70
     0
 10
0.0
 20
0.0
 30
0.0
  3
_FILLED
  1

  0
SOLID
  5
518D
  8
0
  6
BYBLOCK
 62
     0
 10
0.0
 20
0.0
 30
0.0
 11
-1.0
 21
0.1666666667
 31
0.0
 12
-1.0
 22
-0.1666666667
 32
0.0
 13
-1.0
 23
-0.1666666667
 33
0.0
  0
ENDBLK
  5
518E
  8
0
  6
BYBLOCK
 62
     0
  0
ENDSEC
  0
SECTION
  2
ENTITIES
  0
ATTDEF
  5
3930
  8
DEFPOINTS
 10
2287.1832083602112107
 20
282.2806720685225059
 30
0.0
 40
0.001
  1
K-74013X-4ACD
  3

  2
MODELNUMBER
 70
     0
1001
ACDBATTR
1070
     0
1070
     1
  0
ATTDEF
  5
3931
  8
DEFPOINTS
 10
2287.1832083602112107
 20
282.2790054018557839
 30
0.0
 40
0.001
  1
TAUT
  3

  2
TRADENAME
 70
     0
1001
ACDBATTR
1070
     0
1070
     1
  0
ATTDEF
  5
3932
  8
DEFPOINTS
 10
2287.1832083602112107
 20
282.2773387351891756
 30
0.0
 40
0.001
  1
BATHROOM SINK FAUCET
  3

  2
PRODUCT
 70
     0
1001
ACDBATTR
1070
     0
1070
     1
  0
LINE
  5
6416
  8
0
 10
2286.258796240988886
 20
282.2835022711519741
 30
0.0
 11
2288.1091899417888271
 21
282.2835022711519741
 31
0.0
  0
LINE
  5
6417
  8
0
 10
2283.7858778117370093
 20
288.5566346329520115
 30
0.0
 11
2287.9831624074881802
 21
288.5566346329520115
 31
0.0
  0
LINE
  5
6418
  8
0
 10
2286.3690214378889323
 20
287.5133275463520022
 30
0.0
 11
2287.0967119027709487
 21
287.5133275463520022
 31
0.0
  0
LINE
  5
6419
  8
0
 10
2286.3571801541888817
 20
287.4326188061519929
 30
0.0
 11
2288.0107624074889827
 21
287.4326188061519929
 31
0.0
  0
LINE
  5
641A
  8
0
 10
2286.3554275263850286
 20
282.6906614186530078
 30
0.0
 11
2288.0125577225931011
 21
282.6906614186530078
 31
0.0
  0
LINE
  5
641B
  8
0
 10
2286.2605947572119476
 20
282.387645070966812
 30
0.0
 11
2288.1073904917670916
 21
282.387645070966812
 31
0.0
  0
LINE
  5
641C
  8
0
 10
2288.0107624074889827
 20
287.9068834952827842
 30
0.0
 11
2288.0107624074889827
 21
288.0664923143096985
 31
0.0
  0
LINE
  5
641D
  8
0
 10
2288.0107624074889827
 20
288.3184304948941872
 30
0.0
 11
2288.0107624074889827
 21
288.5290346329520048
 31
0.0
  0
LINE
  5
641E
  8
0
 10
2288.0107624074889827
 20
287.4326188061519929
 30
0.0
 11
2288.0107624074889827
 21
282.7024125515519017
 31
0.0
  0
LINE
  5
641F
  8
0
 10
2288.0034873975869232
 20
287.8954640171664892
 30
0.0
 11
2287.2630967124368908
 21
287.5502141706048178
 31
0.0
  0
ARC
  5
6420
  8
0
 10
2287.9981624074889623
 20
287.9068834952827842
 30
0.0
 40
0.0126
 50
295.0000000031407126
 51
0.0000000000032569
  0
ARC
  5
6421
  8
0
 10
2287.0967119027709487
 20
287.9070275463520261
 30
0.0
 40
0.3937
 50
270.0
 51
295.0000000031670879
  0
LINE
  5
6422
  8
0
 10
2286.3572214378891658
 20
287.5251275463518823
 30
0.0
 11
2286.3572214378891658
 21
287.8641919662255191
 31
0.0
  0
ARC
  5
6423
  8
0
 10
2286.3690214378889323
 20
287.5251275463518823
 30
0.0
 40
0.0118
 50
180.0000000000032117
 51
270.0
  0
LINE
  5
6424
  8
0
 10
2286.2839670082371413
 20
287.9413860292132767
 30
0.0
 11
2283.7730356917791141
 21
288.0729783937912885
 31
0.0
  0
ARC
  5
6425
  8
0
 10
2286.2799214378887882
 20
287.8641919662255191
 30
0.0
 40
0.0773
 50
0.0
 51
86.9999993093432806
  0
LINE
  5
6426
  8
0
 10
2283.7468895925271681
 20
288.1012619135240129
 30
0.0
 11
2283.7580873080801211
 21
288.5295612046775204
 31
0.0
  0
ARC
  5
6427
  8
0
 10
2283.7744801645030748
 20
288.1005405689331837
 30
0.0
 40
0.0276
 50
178.5023656770376022
 51
266.9999993093433091
  0
LINE
  5
6428
  8
0
 10
2286.298321731498163
 20
287.99552566457902
 30
0.0
 11
2283.7730356917791141
 21
288.0729783937912885
 31
0.0
  0
LINE
  5
6429
  8
0
 10
2286.3906100838357816
 20
288.5286325277224933
 30
0.0
 11
2286.3943070486097895
 21
288.0201206748091067
 31
0.0
  0
ARC
  5
642A
  8
0
 10
2286.0662341161928452
 20
288.0177355306528284
 30
0.0
 40
0.3280816024977965
 50
335.3268029061807169
 51
0.4165423982027999
  0
ARC
  5
642B
  8
0
 10
2285.1992443883918895
 20
288.3338032720607202
 30
0.0
 40
1.2500924405971161
 50
337.8672051420921889
 51
339.2483583200478279
  0
ARC
  5
642C
  8
0
 10
2286.2959519873102181
 20
287.9182619970987957
 30
0.0
 40
0.0773
 50
339.2483583200507837
 51
88.243239107280246
  0
ARC
  5
642D
  8
0
 10
2286.4184093491771819
 20
288.5288346329518845
 30
0.0
 40
0.0278
 50
90.0
 51
180.4165423982026937
  0
ARC
  5
642E
  8
0
 10
2283.7858778117370093
 20
288.5288346329518845
 30
0.0
 40
0.0278
 50
90.0
 51
178.5023656770343905
  0
ARC
  5
642F
  8
0
 10
2287.0781171864891803
 20
287.3130175079519972
 30
0.0
 40
0.8661417323000005
 50
7.9370563895817563
 51
34.0872817512991517
  0
ARC
  5
6430
  8
0
 10
2287.2898689962889875
 20
287.3130175079519972
 30
0.0
 40
0.8661417323000005
 50
166.6283205826910034
 51
172.0629436104181877
  0
LINE
  5
6431
  8
0
 10
2282.6162639574890818
 20
286.6491215124752898
 30
0.0
 11
2282.6162639574890818
 21
285.9323695251134723
 31
0.0
  0
ARC
  5
6432
  8
0
 10
2281.6523612418941411
 20
325.6651754733430266
 30
0.0
 40
38.9972495731486006
 50
271.4614443447593999
 51
271.6587241375449935
  0
ARC
  5
6433
  8
0
 10
2280.9266371674998481
 20
350.7261898069073141
 30
0.0
 40
64.068769568140354
 50
271.6587241375449935
 51
272.0810996691678838
  0
ARC
  5
6434
  8
0
 10
2285.7174048260321797
 20
218.8872155033033096
 30
0.0
 40
67.8572195325079832
 50
91.6226091960667617
 51
92.0810996691679264
  0
ARC
  5
6435
  8
0
 10
2279.5941571508369634
 20
435.0467519673633774
 30
0.0
 40
148.3890275249823105
 50
271.6226091960667759
 51
271.9241860628981726
  0
ARC
  5
6436
  8
0
 10
2237.5374147896809518
 20
1688.5478345289700428
 30
0.0
 40
1402.5954432440889832
 50
271.9219039696325808
 51
271.9494533764026869
  0
ARC
  5
6437
  8
0
 10
2285.109562082229786
 20
290.9042686391701977
 30
0.0
 40
4.1424957118181576
 50
271.9517681696170257
 51
275.6158110656842268
  0
ARC
  5
6438
  8
0
 10
2285.3165213130450866
 20
288.7995158678439793
 30
0.0
 40
2.0275923212055331
 50
275.6158110656842268
 51
286.5968160050528013
  0
ARC
  5
6439
  8
0
 10
2285.7051326512391825
 20
287.4956804089244997
 30
0.0
 40
0.6670756266702936
 50
286.5968160050528013
 51
317.6087042242015741
  0
ARC
  5
643A
  8
0
 10
2285.6587220275901018
 20
287.5380462043881948
 30
0.0
 40
0.729915157324418
 50
317.6087042242015741
 51
328.8814919979656111
  0
ARC
  5
643B
  8
0
 10
2285.8416587864439862
 20
287.4276110833656048
 30
0.0
 40
0.516229000319455
 50
328.8814919979656111
 51
350.3268068512452942
  0
ARC
  5
643C
  8
0
 10
2285.8807975413387794
 20
287.4209398187672946
 30
0.0
 40
0.4765257522653807
 50
350.3268068512452942
 51
1.4043809630703821
  0
ARC
  5
643D
  8
0
 10
2282.6477639574891327
 20
286.6491215124752898
 30
0.0
 40
0.0315
 50
91.4614498272599832
 51
179.9999999999934914
  0
ARC
  5
643E
  8
0
 10
2282.8851333036850519
 20
286.8012226610400148
 30
0.0
 40
0.9321941646990456
 50
254.7197558277217126
 51
258.1012534025335867
  0
ARC
  5
643F
  8
0
 10
2282.910036213902913
 20
290.2847347851978839
 30
0.0
 40
4.401034914178072
 50
267.1724224016560925
 51
271.809800826232788
  0
ARC
  5
6440
  8
0
 10
2282.6477639574891327
 20
285.9323695251134723
 30
0.0
 40
0.0315
 50
180.0
 51
254.719755827746809
  0
ARC
  5
6441
  8
0
 10
2283.0783038493577806
 20
281.5891499091649735
 30
0.0
 40
4.2968450488736432
 50
89.2124279744331403
 51
90.3903715643509145
  0
ARC
  5
6442
  8
0
 10
2283.1255459479061756
 20
283.1986989671121933
 30
0.0
 40
2.6869160593860508
 50
83.4225278697681603
 51
89.7479646928830164
  0
ARC
  5
6443
  8
0
 10
2283.2984875346551235
 20
284.5963056075398754
 30
0.0
 40
1.278752406706974
 50
65.580202072545049
 51
83.9473133352867649
  0
ARC
  5
6444
  8
0
 10
2293.472253892918161
 20
512.4043834945114213
 30
0.0
 40
226.8488584720955998
 50
267.5631771238524834
 51
267.9539085311226927
  0
ARC
  5
6445
  8
0
 10
2285.3424608247291872
 20
284.2227094522277753
 30
0.0
 40
1.4777628063394721
 50
63.8322902047662026
 51
88.8170705867303383
  0
ARC
  5
6446
  8
0
 10
2285.619655337848144
 20
284.9071414537992268
 30
0.0
 40
0.7431334464464059
 50
352.9823138227225172
 51
352.9836934556719825
  0
ARC
  5
6447
  8
0
 10
2285.619655337848144
 20
284.9071414537992268
 30
0.0
 40
0.7431334464464059
 50
7.0163065443279953
 51
59.7385961608003413
  0
LINE
  5
6448
  8
0
 10
2286.3572237752891851
 20
282.7024222818670864
 30
0.0
 11
2286.3572237752891851
 21
284.9979165567610835
 31
0.0
  0
LINE
  5
6449
  8
0
 10
2286.2605946848589156
 20
282.3876448397796821
 30
0.0
 11
2286.3554253314191556
 21
282.6906544028490202
 31
0.0
  0
LINE
  5
644A
  8
0
 10
2286.258796240988886
 20
282.3758769607616159
 30
0.0
 11
2286.258796240988886
 21
282.2835022711519741
 31
0.0
  0
ARC
  5
644B
  8
0
 10
2286.2981962409890002
 20
282.3758769607616159
 30
0.0
 40
0.0394
 50
162.621834048066205
 51
180.0
  0
ARC
  5
644C
  8
0
 10
2286.3178237752890709
 20
282.7024222818670864
 30
0.0
 40
0.0394
 50
342.621834048066205
 51
0.0
  0
ARC
  5
644D
  8
0
 10
2287.9831624074881802
 20
288.5290346329520048
 30
0.0
 40
0.0276
 50
359.9999999999968168
 51
90.0
  0
ARC
  5
644E
  8
0
 10
2288.8279173245141465
 20
288.192461404601886
 30
0.0
 40
0.8268073355552745
 50
171.2354497100880906
 51
188.7645502899117957
  0
LINE
  5
644F
  8
0
 10
2282.6162629548789482
 20
285.944166660774215
 30
0.0
 11
2285.37261918628883
 21
285.86838089635188
 31
0.0
  0
ARC
  5
6450
  8
0
 10
2282.4309830384181623
 20
178.9113475640805859
 30
0.0
 40
106.997477551889304
 50
88.1148291998549951
 51
88.4245929975951839
  0
ARC
  5
6451
  8
0
 10
2285.842971166487132
 20
282.5740870754991079
 30
0.0
 40
3.2786016131371021
 50
81.2396194408132146
 51
88.1148291998549951
  0
ARC
  5
6452
  8
0
 10
2286.1043256841257971
 20
284.178388228204426
 30
0.0
 40
1.653270405839762
 50
72.9905785602289257
 51
81.7236500276979712
  0
ARC
  5
6453
  8
0
 10
2286.3993921427208988
 20
285.0930627403586755
 30
0.0
 40
0.692445059043249
 50
17.0531045821042397
 51
74.1979458706410213
  0
ARC
  5
6454
  8
0
 10
2285.4035947391557784
 20
284.7874001496689971
 30
0.0
 40
1.7340985871501631
 50
6.1715367011166888
 51
17.0596515453642787
  0
LINE
  5
6455
  8
0
 10
2286.3572237752891851
 20
284.816366350837427
 30
0.0
 11
2287.1276433458601787
 21
284.8161816388720808
 31
0.0
  0
LINE
  5
6456
  8
0
 10
2287.1276433458601787
 20
284.8161816388720808
 30
0.0
 11
2287.1276433458601787
 21
284.9738252329469219
 31
0.0
  0
LINE
  5
6457
  8
0
 10
2288.1073914979187975
 20
282.3876418560361117
 30
0.0
 11
2288.0125599175589741
 21
282.6906544028490202
 31
0.0
  0
ARC
  5
6458
  8
0
 10
2288.050121722212225
 20
282.702413079940186
 30
0.0
 40
0.0393593147260874
 50
180.0007691804719059
 51
197.3826654951635078
  0
LINE
  5
6459
  8
0
 10
2288.1091899417888271
 20
282.3758739770179886
 30
0.0
 11
2288.1091899417888271
 21
282.2835022711519741
 31
0.0
  0
ARC
  5
645A
  8
0
 10
2288.0697899417891676
 20
282.3758739770179886
 30
0.0
 40
0.0394
 50
0.0
 51
17.3781659519337701
  0
LINE
  5
645B
  8
0
 10
2283.4352811649928299
 20
285.8677202607344157
 30
0.0
 11
2283.7918692774887859
 21
285.7515462060346749
 31
0.0
  0
LINE
  5
645C
  8
0
 10
2283.7918692774887859
 20
285.7515462060346749
 30
0.0
 11
2283.8179371126479964
 21
285.7648003031126223
 31
0.0
  0
LINE
  5
645D
  8
0
 10
2283.6001080408291273
 20
285.731662326154094
 30
0.0
 11
2283.6181803232630045
 21
285.7872830928196208
 31
0.0
  0
LINE
  5
645F
  8
0
 10
2287.1276433458601787
 20
284.8161816388720808
 30
0.0
 11
2287.1276433458601787
 21
287.4326188061519929
 31
0.0
  0
ARC
  5
6460
  8
0
 10
2289.838074552380931
 20
-38.3485782579921874
 30
0.0
 40
325.1373509053431121
 50
90.6912754757079966
 51
90.879878717429122
  0
ARC
  5
6461
  8
0
 10
2285.8582578933610421
 20
291.4991329101123938
 30
0.0
 40
4.7343688638373962
 50
270.6912754757079824
 51
278.6153692407286258
  0
ARC
  5
6462
  8
0
 10
2286.4505603832431007
 20
287.5898079789428721
 30
0.0
 40
0.7804285940579915
 50
278.6153692407286258
 51
314.2885815524672921
  0
ARC
  5
6463
  8
0
 10
2286.6687355211461181
 20
287.3661464524935809
 30
0.0
 40
0.4679788073519155
 50
314.2885815524672921
 51
348.7005913110722872
  0
LINE
  5
6464
  8
0
 10
2283.6433034570468408
 20
285.7999479702712051
 30
0.0
 11
2283.6181803232630045
 21
285.7872830928196208
 31
0.0
  0
LINE
  5
6465
  8
0
 10
2283.6181803232630045
 20
285.7872830928196208
 30
0.0
 11
2283.342562707441175
 21
285.8768366850550251
 31
0.0
  0
LINE
  5
6466
  8
0
 10
2283.0120318103217869
 20
285.8848819224165254
 30
0.0
 11
2283.570260282388972
 21
285.7035024968346875
 31
0.0
  0
LINE
  5
6467
  8
0
 10
2283.570260282388972
 20
285.7035024968346875
 30
0.0
 11
2283.5805236396581677
 21
285.7087319385294109
 31
0.0
  0
ARC
  5
6468
  8
0
 10
2283.5626364140530313
 20
285.7438375956255072
 30
0.0
 40
0.0394
 50
296.9999998621246959
 51
342.0000001635324907
  0
ARC
  5
6469
  8
0
 10
2283.4167316042749007
 20
286.3139431533306833
 30
0.0
 40
0.5898096837953809
 50
226.6736336508340912
 51
277.3263663474094187
  0
LINE
  5
646A
  8
0
 10
2283.2401278605811967
 20
285.8022465739106792
 30
0.0
 11
2283.2588494454889769
 21
285.7961635622347103
 31
0.0
  0
LINE
  5
646B
  8
0
 10
2283.2588494454889769
 20
285.7961635622347103
 30
0.0
 11
2283.266049941806159
 21
285.7864733484789781
 31
0.0
  0
LINE
  5
646C
  8
0
 10
2283.266049941806159
 20
285.7864733484789781
 30
0.0
 11
2283.2545561364490823
 21
285.7829501156493848
 31
0.0
  0
LINE
  5
646D
  8
0
 10
2283.2545561364490823
 20
285.7829501156493848
 30
0.0
 11
2283.2358345513198401
 21
285.7890331273487163
 31
0.0
  0
LINE
  5
646E
  8
0
 10
2283.2358345513198401
 20
285.7890331273487163
 30
0.0
 11
2283.2286067718919185
 21
285.798639371853028
 31
0.0
  0
LINE
  5
646F
  8
0
 10
2283.2286067719901439
 20
285.7986393717227998
 30
0.0
 11
2283.2401278605811967
 21
285.8022465739106792
 31
0.0
  0
LINE
  5
6470
  8
0
 10
2283.2082955309788304
 20
285.8211119739157198
 30
0.0
 11
2283.2064385489070446
 21
285.8205010067542275
 31
0.0
  0
LINE
  5
6471
  8
0
 10
2283.2064385489070446
 20
285.8205010067542275
 30
0.0
 11
2283.2131797806478062
 21
285.8094130429055895
 31
0.0
  0
LINE
  5
6472
  8
0
 10
2283.2131797806478062
 20
285.8094130429055895
 30
0.0
 11
2283.2315920988339712
 21
285.8023624851717273
 31
0.0
  0
LINE
  5
6473
  8
0
 10
2283.2315920988339712
 20
285.8023624851717273
 30
0.0
 11
2283.2432470885350995
 21
285.806381792259117
 31
0.0
  0
LINE
  5
6474
  8
0
 10
2283.2432470885350995
 20
285.806381792259117
 30
0.0
 11
2283.2406219255531141
 21
285.8106084916100826
 31
0.0
  0
LINE
  5
6475
  8
0
 10
2283.2633637827370876
 20
285.803218031411518
 30
0.0
 11
2283.2587565572348467
 21
285.8013424603366275
 31
0.0
  0
LINE
  5
6476
  8
0
 10
2283.2587565572348467
 20
285.8013424603366275
 30
0.0
 11
2283.2658231525729207
 21
285.7912401415870249
 31
0.0
  0
LINE
  5
6477
  8
0
 10
2283.2658231525729207
 20
285.7912401415870249
 30
0.0
 11
2283.2848573980381843
 21
285.7861193996337192
 31
0.0
  0
LINE
  5
6478
  8
0
 10
2283.2848573980381843
 20
285.7861193996337192
 30
0.0
 11
2283.2968343574880237
 21
285.7911296280199736
 31
0.0
  0
LINE
  5
6479
  8
0
 10
2283.2968343574880237
 20
285.7911296280199736
 30
0.0
 11
2283.2956916353141423
 21
285.7927152582420263
 31
0.0
  0
LINE
  5
647A
  8
0
 10
2283.3134589902138032
 20
285.7869413785751931
 30
0.0
 11
2283.3202368174679577
 21
285.7785313622717922
 31
0.0
  0
LINE
  5
647B
  8
0
 10
2283.3202368174679577
 20
285.7785313622717922
 30
0.0
 11
2283.3399064591098977
 21
285.7753661688976763
 31
0.0
  0
LINE
  5
647C
  8
0
 10
2283.3399064591098977
 20
285.7753661688976763
 30
0.0
 11
2283.3436375981591482
 21
285.7771366705579794
 31
0.0
  0
LINE
  5
647D
  8
0
 10
2283.3471269253791434
 20
285.7760029194175786
 30
0.0
 11
2283.3367933732129131
 21
285.7712498541815762
 31
0.0
  0
LINE
  5
647E
  8
0
 10
2283.3367933732129131
 20
285.7712498541815762
 30
0.0
 11
2283.344613538124122
 21
285.7634667839939766
 31
0.0
  0
LINE
  5
647F
  8
0
 10
2283.344613538124122
 20
285.7634667839939766
 30
0.0
 11
2283.3645844939637755
 21
285.7612289407595085
 31
0.0
  0
LINE
  5
6480
  8
0
 10
2283.3645844939637755
 20
285.7612289407595085
 30
0.0
 11
2283.376151588051016
 21
285.7665722348385202
 31
0.0
  0
LINE
  5
6481
  8
0
 10
2283.390961942146987
 20
285.7617586489325276
 30
0.0
 11
2283.3736762998769336
 21
285.7628243577979106
 31
0.0
  0
LINE
  5
6482
  8
0
 10
2283.3736762998769336
 20
285.7628243577979106
 30
0.0
 11
2283.3616312459721485
 21
285.757604556376009
 31
0.0
  0
LINE
  5
6483
  8
0
 10
2283.3616312459721485
 20
285.757604556376009
 30
0.0
 11
2283.3698878186892216
 21
285.7511646116346924
 31
0.0
  0
LINE
  5
6484
  8
0
 10
2283.3698878186892216
 20
285.7511646116346924
 30
0.0
 11
2283.3901613840889695
 21
285.7498581046347113
 31
0.0
  0
LINE
  5
6485
  8
0
 10
2283.3901613840889695
 20
285.7498581046347113
 30
0.0
 11
2283.402213716715778
 21
285.7551003074827918
 31
0.0
  0
LINE
  5
6486
  8
0
 10
2283.402213716715778
 20
285.7551003074827918
 30
0.0
 11
2283.3956538059551349
 21
285.7602355801208205
 31
0.0
  0
LINE
  5
6487
  8
0
 10
2283.4198949343781351
 20
285.751280152999982
 30
0.0
 11
2283.3992762623820454
 21
285.7515245311154217
 31
0.0
  0
LINE
  5
6488
  8
0
 10
2283.3992762623820454
 20
285.7515245311154217
 30
0.0
 11
2283.3873584087500603
 21
285.7466962122198879
 31
0.0
  0
LINE
  5
6489
  8
0
 10
2283.3873584087500603
 20
285.7466962122198879
 30
0.0
 11
2283.3960405842822183
 21
285.7415661378137202
 31
0.0
  0
LINE
  5
648A
  8
0
 10
2283.3960405842822183
 20
285.7415661378137202
 30
0.0
 11
2283.4166226775892028
 21
285.7412091820347086
 31
0.0
  0
LINE
  5
648B
  8
0
 10
2283.4166226775892028
 20
285.7412091820347086
 30
0.0
 11
2283.4285588180619015
 21
285.7460937822033884
 31
0.0
  0
LINE
  5
648C
  8
0
 10
2283.4285588180619015
 20
285.7460937822033884
 30
0.0
 11
2283.4198949344058747
 21
285.7512801529996977
 31
0.0
  0
LINE
  5
648D
  8
0
 10
2283.446556054229859
 20
285.7436964370727992
 30
0.0
 11
2283.4257677318641981
 21
285.742968480511081
 31
0.0
  0
LINE
  5
648E
  8
0
 10
2283.4257677318641981
 20
285.742968480511081
 30
0.0
 11
2283.4139863717850858
 21
285.7384965855655992
 31
0.0
  0
LINE
  5
648F
  8
0
 10
2283.4139863717850858
 20
285.7384965855655992
 30
0.0
 11
2283.4230667933102268
 21
285.7346558465989119
 31
0.0
  0
LINE
  5
6490
  8
0
 10
2283.4230667933102268
 20
285.7346558465989119
 30
0.0
 11
2283.4439681356220717
 21
285.7352814381360986
 31
0.0
  0
LINE
  5
6491
  8
0
 10
2283.4439681356220717
 20
285.7352814381360986
 30
0.0
 11
2283.4558014051458485
 21
285.7398494342155004
 31
0.0
  0
LINE
  5
6492
  8
0
 10
2283.4558014051458485
 20
285.7398494342155004
 30
0.0
 11
2283.4475688069878743
 21
285.7433673737542108
 31
0.0
  0
LINE
  5
6493
  8
0
 10
2283.4641750464088545
 20
285.7379706467244773
 30
0.0
 11
2283.4531509529701907
 21
285.7371569594370158
 31
0.0
  0
LINE
  5
6494
  8
0
 10
2283.4531509529701907
 20
285.7371569594370158
 30
0.0
 11
2283.4414471121308452
 21
285.7329873039415133
 31
0.0
  0
LINE
  5
6495
  8
0
 10
2283.4414471121308452
 20
285.7329873039415133
 30
0.0
 11
2283.4509750370948495
 21
285.7304601792756102
 31
0.0
  0
LINE
  5
6496
  8
0
 10
2283.4509750370948495
 20
285.7304601792756102
 30
0.0
 11
2283.4722117131191226
 21
285.7321178217432021
 31
0.0
  0
LINE
  5
6497
  8
0
 10
2283.4722117131191226
 20
285.7321178217432021
 30
0.0
 11
2283.4770344348980871
 21
285.733793410884175
 31
0.0
  0
LINE
  5
6498
  8
0
 10
2283.4788452839770798
 20
285.7332049082530148
 30
0.0
 11
2283.4698266834288916
 21
285.7302422337438088
 31
0.0
  0
LINE
  5
6499
  8
0
 10
2283.4698266834288916
 20
285.7302422337438088
 30
0.0
 11
2283.4703118920328961
 21
285.7301672942958817
 31
0.0
  0
LINE
  5
649A
  8
0
 10
2283.4703118920328961
 20
285.7301672942958817
 30
0.0
 11
2283.4838388338421282
 21
285.7315825276460828
 31
0.0
  0
LINE
  5
649B
  8
0
 10
2283.0201478419839987
 20
285.8822448638380251
 30
0.0
 11
2283.0306961046730976
 21
285.872924407994276
 31
0.0
  0
LINE
  5
649C
  8
0
 10
2283.0306961046730976
 20
285.872924407994276
 30
0.0
 11
2283.0251416630881067
 21
285.8806217507025167
 31
0.0
  0
LINE
  5
649D
  8
0
 10
2283.0269533603459422
 20
285.880032766763577
 30
0.0
 11
2283.0298690181889469
 21
285.8758436757346999
 31
0.0
  0
LINE
  5
649E
  8
0
 10
2283.0298690181889469
 20
285.8758436757346999
 30
0.0
 11
2283.0460755121848706
 21
285.8620200098238229
 31
0.0
  0
LINE
  5
649F
  8
0
 10
2283.0460755121848706
 20
285.8620200098238229
 30
0.0
 11
2283.0552691721049996
 21
285.8584641229293197
 31
0.0
  0
LINE
  5
64A0
  8
0
 10
2283.0552691721049996
 20
285.8584641229293197
 30
0.0
 11
2283.048251427933792
 21
285.8687167900886834
 31
0.0
  0
LINE
  5
64A1
  8
0
 10
2283.048251427933792
 20
285.8687167900886834
 30
0.0
 11
2283.0398667959111663
 21
285.8758377873539871
 31
0.0
  0
LINE
  5
64A2
  8
0
 10
2283.0544262981838983
 20
285.8711071182976866
 30
0.0
 11
2283.0476897639910021
 21
285.8724529446348015
 31
0.0
  0
LINE
  5
64A3
  8
0
 10
2283.0476897639910021
 20
285.8724529446348015
 30
0.0
 11
2283.0545780794777784
 21
285.8618019367024203
 31
0.0
  0
LINE
  5
64A4
  8
0
 10
2283.0545780794777784
 20
285.8618019367024203
 30
0.0
 11
2283.0711199070688053
 21
285.8490103218744025
 31
0.0
  0
LINE
  5
64A5
  8
0
 10
2283.0711199070688053
 20
285.8490103218744025
 30
0.0
 11
2283.0807377257160624
 21
285.846759861071007
 31
0.0
  0
LINE
  5
64A6
  8
0
 10
2283.0807377257160624
 20
285.846759861071007
 30
0.0
 11
2283.0738208456400571
 21
285.8573229559369224
 31
0.0
  0
LINE
  5
64A7
  8
0
 10
2283.0738208456400571
 20
285.8573229559369224
 30
0.0
 11
2283.0581682206598089
 21
285.8698912939834145
 31
0.0
  0
LINE
  5
64A8
  8
0
 10
2283.0441289867890191
 20
285.8614939991347228
 30
0.0
 11
2283.0532091573641083
 21
285.8575888278838875
 31
0.0
  0
LINE
  5
64A9
  8
0
 10
2283.0532091573641083
 20
285.8575888278838875
 30
0.0
 11
2283.0697684858441789
 21
285.8448510750284868
 31
0.0
  0
LINE
  5
64AA
  8
0
 10
2283.0697684858441789
 20
285.8448510750284868
 30
0.0
 11
2283.077267727988783
 21
285.8360803062346918
 31
0.0
  0
LINE
  5
64AB
  8
0
 10
2283.077267727988783
 20
285.8360803062346918
 30
0.0
 11
2283.0441289867890191
 21
285.8614939991347228
 31
0.0
  0
LINE
  5
64AC
  8
0
 10
2283.0834575170410972
 20
285.8605952964576886
 30
0.0
 11
2283.0733998155951667
 21
285.8614919373382008
 31
0.0
  0
LINE
  5
64AD
  8
0
 10
2283.0733998155951667
 20
285.8614919373382008
 30
0.0
 11
2283.080185260188955
 21
285.8505243254347192
 31
0.0
  0
LINE
  5
64AE
  8
0
 10
2283.080185260188955
 20
285.8505243254347192
 30
0.0
 11
2283.0970463367889352
 21
285.838715257934723
 31
0.0
  0
LINE
  5
64AF
  8
0
 10
2283.0970463367889352
 20
285.838715257934723
 30
0.0
 11
2283.1070857462768799
 21
285.8377623205082045
 31
0.0
  0
LINE
  5
64B0
  8
0
 10
2283.1070857462768799
 20
285.8377623205082045
 30
0.0
 11
2283.1002820149519721
 21
285.848673651121203
 31
0.0
  0
LINE
  5
64B1
  8
0
 10
2283.1002820149519721
 20
285.848673651121203
 30
0.0
 11
2283.0834575169888012
 21
285.8605952965347115
 31
0.0
  0
LINE
  5
64B2
  8
0
 10
2283.0953641456890182
 20
285.833538006033109
 30
0.0
 11
2283.0784846069618652
 21
285.8452902531536779
 31
0.0
  0
LINE
  5
64B3
  8
0
 10
2283.0784846069618652
 20
285.8452902531536779
 30
0.0
 11
2283.068980618194928
 21
285.8478910459293161
 31
0.0
  0
LINE
  5
64B4
  8
0
 10
2283.068980618194928
 20
285.8478910459293161
 30
0.0
 11
2283.0763593606889117
 21
285.8387494176346877
 31
0.0
  0
LINE
  5
64B5
  8
0
 10
2283.0763593606889117
 20
285.8387494176346877
 30
0.0
 11
2283.09326146482681
 21
285.8270666196156071
 31
0.0
  0
LINE
  5
64B6
  8
0
 10
2283.09326146482681
 20
285.8270666196156071
 30
0.0
 11
2283.1027623130980828
 21
285.8244561611942913
 31
0.0
  0
LINE
  5
64B7
  8
0
 10
2283.1027623130980828
 20
285.8244561611942913
 30
0.0
 11
2283.0953641457917911
 21
285.8335380059613726
 31
0.0
  0
LINE
  5
64B8
  8
0
 10
2283.1046376843901271
 20
285.8356927391370732
 30
0.0
 11
2283.0947139841327953
 21
285.837001792961928
 31
0.0
  0
LINE
  5
64B9
  8
0
 10
2283.0947139841327953
 20
285.837001792961928
 30
0.0
 11
2283.10199019549691
 21
285.827544605791104
 31
0.0
  0
LINE
  5
64BA
  8
0
 10
2283.10199019549691
 20
285.827544605791104
 30
0.0
 11
2283.1192015920610174
 21
285.8168137123486758
 31
0.0
  0
LINE
  5
64BB
  8
0
 10
2283.1192015920610174
 20
285.8168137123486758
 30
0.0
 11
2283.1291136262389045
 21
285.8154687543141108
 31
0.0
  0
LINE
  5
64BC
  8
0
 10
2283.1291136262389045
 20
285.8154687543141108
 30
0.0
 11
2283.1218257509931391
 21
285.8248900434253983
 31
0.0
  0
LINE
  5
64BD
  8
0
 10
2283.1218257509931391
 20
285.8248900434253983
 30
0.0
 11
2283.1046376843901271
 21
285.8356927391370732
 31
0.0
  0
LINE
  5
64BE
  8
0
 10
2283.117887712321135
 20
285.8127700063957946
 30
0.0
 11
2283.1006649004889368
 21
285.8234657674346977
 31
0.0
  0
LINE
  5
64BF
  8
0
 10
2283.1006649004889368
 20
285.8234657674346977
 30
0.0
 11
2283.0912745849891508
 21
285.8264164107346801
 31
0.0
  0
LINE
  5
64C0
  8
0
 10
2283.0912745849891508
 20
285.8264164107346801
 30
0.0
 11
2283.1257334110891861
 21
285.8050655214346989
 31
0.0
  0
LINE
  5
64C1
  8
0
 10
2283.1257334110891861
 20
285.8050655214346989
 30
0.0
 11
2283.1178877123547863
 21
285.8127700063744214
 31
0.0
  0
LINE
  5
64C2
  8
0
 10
2283.1268259519888488
 20
285.8138927950346897
 30
0.0
 11
2283.1170257485719048
 21
285.8155819331460066
 31
0.0
  0
LINE
  5
64C3
  8
0
 10
2283.1170257485719048
 20
285.8155819331460066
 30
0.0
 11
2283.1247563125011766
 21
285.807523099514583
 31
0.0
  0
LINE
  5
64C4
  8
0
 10
2283.1247563125011766
 20
285.807523099514583
 30
0.0
 11
2283.1422939847889211
 21
285.7977963793347271
 31
0.0
  0
LINE
  5
64C5
  8
0
 10
2283.1422939847889211
 20
285.7977963793347271
 30
0.0
 11
2283.1520872003889053
 21
285.7960857350223023
 31
0.0
  0
LINE
  5
64C6
  8
0
 10
2283.1520872003889053
 20
285.7960857350223023
 30
0.0
 11
2283.1443496494021019
 21
285.8041230645753217
 31
0.0
  0
LINE
  5
64C7
  8
0
 10
2283.1443496494021019
 20
285.8041230645753217
 30
0.0
 11
2283.1268259519888488
 21
285.8138927950346897
 31
0.0
  0
LINE
  5
64C8
  8
0
 10
2283.1316633627720876
 20
285.8287808144830819
 30
0.0
 11
2283.1213175438460894
 21
285.8287907207243279
 31
0.0
  0
LINE
  5
64C9
  8
0
 10
2283.1213175438460894
 20
285.8287907207243279
 30
0.0
 11
2283.1284811337409337
 21
285.8189869207575953
 31
0.0
  0
LINE
  5
64CA
  8
0
 10
2283.1284811337409337
 20
285.8189869207575953
 30
0.0
 11
2283.1459934159879595
 21
285.809182057830526
 31
0.0
  0
LINE
  5
64CB
  8
0
 10
2283.1459934159879595
 20
285.809182057830526
 30
0.0
 11
2283.1563198077801644
 21
285.8091123609074771
 31
0.0
  0
LINE
  5
64CC
  8
0
 10
2283.1563198077801644
 20
285.8091123609074771
 30
0.0
 11
2283.1491530779189816
 21
285.8189064972293068
 31
0.0
  0
LINE
  5
64CD
  8
0
 10
2283.1491530779189816
 20
285.8189064972293068
 30
0.0
 11
2283.1316633627930059
 21
285.8287808145468034
 31
0.0
  0
LINE
  5
64CE
  8
0
 10
2283.1538380607621548
 20
285.8069391075520116
 30
0.0
 11
2283.1436262708130016
 21
285.8073615125379092
 31
0.0
  0
LINE
  5
64CF
  8
0
 10
2283.1436262708130016
 20
285.8073615125379092
 30
0.0
 11
2283.1518573196199213
 21
285.7986499042443143
 31
0.0
  0
LINE
  5
64D0
  8
0
 10
2283.1518573196199213
 20
285.7986499042443143
 30
0.0
 11
2283.1690797796932202
 21
285.7901461693480769
 31
0.0
  0
LINE
  5
64D1
  8
0
 10
2283.1690797796932202
 20
285.7901461693480769
 30
0.0
 11
2283.1792788759012183
 21
285.7896846972025173
 31
0.0
  0
LINE
  5
64D2
  8
0
 10
2283.1792788759012183
 20
285.7896846972025173
 30
0.0
 11
2283.1716577007628075
 21
285.7980801947547889
 31
0.0
  0
LINE
  5
64D3
  8
0
 10
2283.1716577007628075
 20
285.7980801947547889
 30
0.0
 11
2283.1538380607621548
 21
285.8069391075520116
 31
0.0
  0
LINE
  5
64D4
  8
0
 10
2283.1677885439607962
 20
285.7861721546428271
 30
0.0
 11
2283.1499492417538022
 21
285.794970553357075
 31
0.0
  0
LINE
  5
64D5
  8
0
 10
2283.1499492417538022
 20
285.794970553357075
 30
0.0
 11
2283.1402650036270643
 21
285.7970165952132788
 31
0.0
  0
LINE
  5
64D6
  8
0
 10
2283.1402650036270643
 20
285.7970165952132788
 30
0.0
 11
2283.1757103824388651
 21
285.779486132684724
 31
0.0
  0
LINE
  5
64D7
  8
0
 10
2283.1757103824388651
 20
285.779486132684724
 30
0.0
 11
2283.1677885440071805
 21
285.7861721545770024
 31
0.0
  0
LINE
  5
64D8
  8
0
 10
2283.1769511987231454
 20
285.7879856217841166
 30
0.0
 11
2283.1668632630680804
 21
285.7887892111936026
 31
0.0
  0
LINE
  5
64D9
  8
0
 10
2283.1668632630680804
 20
285.7887892111936026
 30
0.0
 11
2283.1749142458688766
 21
285.7817165255872851
 31
0.0
  0
LINE
  5
64DA
  8
0
 10
2283.1749142458688766
 20
285.7817165255872851
 30
0.0
 11
2283.1930521104418403
 21
285.773837007396196
 31
0.0
  0
LINE
  5
64DB
  8
0
 10
2283.1930521104418403
 20
285.773837007396196
 30
0.0
 11
2283.2031323484029599
 21
285.7730097268471923
 31
0.0
  0
LINE
  5
64DC
  8
0
 10
2283.2031323484029599
 20
285.7730097268471923
 30
0.0
 11
2283.1950823667630175
 21
285.7800854938740258
 31
0.0
  0
LINE
  5
64DD
  8
0
 10
2283.1950823667630175
 20
285.7800854938740258
 30
0.0
 11
2283.1769511987231454
 21
285.7879856217841166
 31
0.0
  0
LINE
  5
64DE
  8
0
 10
2283.2193802076581051
 20
285.7647781486726899
 30
0.0
 11
2283.2009500044691777
 21
285.7717579412607734
 31
0.0
  0
LINE
  5
64DF
  8
0
 10
2283.2009500044691777
 20
285.7717579412607734
 30
0.0
 11
2283.190978413988887
 21
285.7729196043974866
 31
0.0
  0
LINE
  5
64E0
  8
0
 10
2283.190978413988887
 20
285.7729196043974866
 30
0.0
 11
2283.2278412609889529
 21
285.7589675304346883
 31
0.0
  0
LINE
  5
64E1
  8
0
 10
2283.2278412609889529
 20
285.7589675304346883
 30
0.0
 11
2283.2193802076581051
 21
285.7647781486726899
 31
0.0
  0
LINE
  5
64E2
  8
0
 10
2283.1083458961961696
 20
285.8535875788899148
 30
0.0
 11
2283.1000073531540693
 21
285.8532931073631858
 31
0.0
  0
LINE
  5
64E3
  8
0
 10
2283.1000073531540693
 20
285.8532931073631858
 30
0.0
 11
2283.1066766054941581
 21
285.8419678928107146
 31
0.0
  0
LINE
  5
64E4
  8
0
 10
2283.1066766054941581
 20
285.8419678928107146
 30
0.0
 11
2283.1238462099549906
 21
285.8311083764618274
 31
0.0
  0
LINE
  5
64E5
  8
0
 10
2283.1238462099549906
 20
285.8311083764618274
 30
0.0
 11
2283.1343112221538831
 21
285.8314653094776077
 31
0.0
  0
LINE
  5
64E6
  8
0
 10
2283.1343112221538831
 20
285.8314653094776077
 30
0.0
 11
2283.1276346911890869
 21
285.842768122634709
 31
0.0
  0
LINE
  5
64E7
  8
0
 10
2283.1276346911890869
 20
285.842768122634709
 30
0.0
 11
2283.1135174130840824
 21
285.8519072511933814
 31
0.0
  0
LINE
  5
64E8
  8
0
 10
2283.1278319768530309
 20
285.8472561674815893
 30
0.0
 11
2283.1340523539920468
 21
285.8361333736428946
 31
0.0
  0
LINE
  5
64E9
  8
0
 10
2283.1340523539920468
 20
285.8361333736428946
 30
0.0
 11
2283.1515245680620865
 21
285.8262051934523242
 31
0.0
  0
LINE
  5
64EA
  8
0
 10
2283.1515245680620865
 20
285.8262051934523242
 30
0.0
 11
2283.1624259882260048
 21
285.8279052520384766
 31
0.0
  0
LINE
  5
64EB
  8
0
 10
2283.1624259882260048
 20
285.8279052520384766
 30
0.0
 11
2283.1569713733310891
 21
285.8377882036292021
 31
0.0
  0
LINE
  5
64EC
  8
0
 10
2283.15957020839096
 20
285.8245808440678957
 30
0.0
 11
2283.1487932591858225
 21
285.8232638676981878
 31
0.0
  0
LINE
  5
64ED
  8
0
 10
2283.1487932591858225
 20
285.8232638676981878
 30
0.0
 11
2283.1558323955841843
 21
285.8130770388982
 31
0.0
  0
LINE
  5
64EE
  8
0
 10
2283.1558323955841843
 20
285.8130770388982
 30
0.0
 11
2283.1736416090448074
 21
285.8041860365103162
 31
0.0
  0
LINE
  5
64EF
  8
0
 10
2283.1736416090448074
 20
285.8041860365103162
 30
0.0
 11
2283.1843917943920133
 21
285.8054206421857089
 31
0.0
  0
LINE
  5
64F0
  8
0
 10
2283.1843917943920133
 20
285.8054206421857089
 30
0.0
 11
2283.1773592185218149
 21
285.8156276620956078
 31
0.0
  0
LINE
  5
64F1
  8
0
 10
2283.1773592185218149
 20
285.8156276620956078
 30
0.0
 11
2283.15957020839096
 21
285.8245808440678957
 31
0.0
  0
LINE
  5
64F2
  8
0
 10
2283.1603502704101629
 20
285.8366894092583266
 30
0.0
 11
2283.1623269578408326
 21
285.8330652464891841
 31
0.0
  0
LINE
  5
64F3
  8
0
 10
2283.1623269578408326
 20
285.8330652464891841
 30
0.0
 11
2283.1801004861940783
 21
285.8240644164603168
 31
0.0
  0
LINE
  5
64F4
  8
0
 10
2283.1801004861940783
 20
285.8240644164603168
 30
0.0
 11
2283.1905430862220783
 21
285.8268800928738074
 31
0.0
  0
LINE
  5
64F5
  8
0
 10
2283.1883810637928036
 20
285.8231631295142847
 30
0.0
 11
2283.1771567498640252
 21
285.8204693060839077
 31
0.0
  0
LINE
  5
64F6
  8
0
 10
2283.1771567498640252
 20
285.8204693060839077
 30
0.0
 11
2283.184057274380848
 21
285.8098558739093846
 31
0.0
  0
LINE
  5
64F7
  8
0
 10
2283.184057274380848
 20
285.8098558739093846
 30
0.0
 11
2283.2021638303581312
 21
285.8018799977222102
 31
0.0
  0
LINE
  5
64F8
  8
0
 10
2283.2021638303581312
 20
285.8018799977222102
 30
0.0
 11
2283.2133541599409909
 21
285.8044692278273828
 31
0.0
  0
LINE
  5
64F9
  8
0
 10
2283.2133541599409909
 20
285.8044692278273828
 30
0.0
 11
2283.2064716159661657
 21
285.8151379984760752
 31
0.0
  0
LINE
  5
64FA
  8
0
 10
2283.2064716159661657
 20
285.8151379984760752
 30
0.0
 11
2283.1883810637928036
 21
285.8231631295142847
 31
0.0
  0
LINE
  5
64FB
  8
0
 10
2283.1998240823340893
 20
285.7946789938205825
 30
0.0
 11
2283.1817091701459503
 21
285.8026291521460962
 31
0.0
  0
LINE
  5
64FC
  8
0
 10
2283.1817091701459503
 20
285.8026291521460962
 30
0.0
 11
2283.1710779759728212
 21
285.8017607634698152
 31
0.0
  0
LINE
  5
64FD
  8
0
 10
2283.1710779759728212
 20
285.8017607634698152
 30
0.0
 11
2283.1785796885887976
 21
285.7929975981601842
 31
0.0
  0
LINE
  5
64FE
  8
0
 10
2283.1785796885887976
 20
285.7929975981601842
 30
0.0
 11
2283.1967053915559518
 21
285.7850806506324943
 31
0.0
  0
LINE
  5
64FF
  8
0
 10
2283.1967053915559518
 20
285.7850806506324943
 30
0.0
 11
2283.2073187311239053
 21
285.7858940881121725
 31
0.0
  0
LINE
  5
6500
  8
0
 10
2283.2073187311239053
 20
285.7858940881121725
 30
0.0
 11
2283.1998240823709239
 21
285.7946789937802805
 31
0.0
  0
LINE
  5
6501
  8
0
 10
2283.2288743547628656
 20
285.7939981293664005
 30
0.0
 11
2283.2104604299797757
 21
285.8010280213081842
 31
0.0
  0
LINE
  5
6502
  8
0
 10
2283.2104604299797757
 20
285.8010280213081842
 30
0.0
 11
2283.1993953743231032
 21
285.7988243444959835
 31
0.0
  0
LINE
  5
6503
  8
0
 10
2283.1993953743231032
 20
285.7988243444959835
 30
0.0
 11
2283.2067670098472263
 21
285.789660843161073
 31
0.0
  0
LINE
  5
6504
  8
0
 10
2283.2067670098472263
 20
285.789660843161073
 30
0.0
 11
2283.2251874677890555
 21
285.7826510576347232
 31
0.0
  0
LINE
  5
6505
  8
0
 10
2283.2251874677890555
 20
285.7826510576347232
 30
0.0
 11
2283.2362298616139924
 21
285.7847849885235973
 31
0.0
  0
LINE
  5
6506
  8
0
 10
2283.2362298616139924
 20
285.7847849885235973
 30
0.0
 11
2283.2288743547628656
 21
285.7939981293664005
 31
0.0
  0
LINE
  5
6507
  8
0
 10
2283.2232194253720081
 20
285.7765940458809837
 30
0.0
 11
2283.2047955925850147
 21
285.783593444520875
 31
0.0
  0
LINE
  5
6508
  8
0
 10
2283.2047955925850147
 20
285.783593444520875
 30
0.0
 11
2283.1942970902427987
 21
285.7831334393162024
 31
0.0
  0
LINE
  5
6509
  8
0
 10
2283.1942970902427987
 20
285.7831334393162024
 30
0.0
 11
2283.2022334880748531
 21
285.7757080978407771
 31
0.0
  0
LINE
  5
650A
  8
0
 10
2283.2022334880748531
 20
285.7757080978407771
 30
0.0
 11
2283.2206615956461064
 21
285.7687218554950732
 31
0.0
  0
LINE
  5
650B
  8
0
 10
2283.2206615956461064
 20
285.7687218554950732
 30
0.0
 11
2283.2311490763131587
 21
285.7691479392229894
 31
0.0
  0
LINE
  5
650C
  8
0
 10
2283.2311490763131587
 20
285.7691479392229894
 30
0.0
 11
2283.2232194253720081
 21
285.7765940458809837
 31
0.0
  0
LINE
  5
650D
  8
0
 10
2283.2335023652699419
 20
285.7818553963751924
 30
0.0
 11
2283.2225802047910292
 21
285.7800915057031261
 31
0.0
  0
LINE
  5
650E
  8
0
 10
2283.2225802047910292
 20
285.7800915057031261
 30
0.0
 11
2283.2303934425508487
 21
285.7722871162160914
 31
0.0
  0
LINE
  5
650F
  8
0
 10
2283.2303934425508487
 20
285.7722871162160914
 30
0.0
 11
2283.2491150275891414
 21
285.7662041046347099
 31
0.0
  0
LINE
  5
6510
  8
0
 10
2283.2491150275891414
 20
285.7662041046347099
 30
0.0
 11
2283.2600233747912171
 21
285.7679254823842143
 31
0.0
  0
LINE
  5
6511
  8
0
 10
2283.2600233747912171
 20
285.7679254823842143
 30
0.0
 11
2283.2522239502891352
 21
285.7757723846602858
 31
0.0
  0
LINE
  5
6512
  8
0
 10
2283.2522239502891352
 20
285.7757723846602858
 30
0.0
 11
2283.2335023652758537
 21
285.7818553963924728
 31
0.0
  0
LINE
  5
6513
  8
0
 10
2283.2474969511508789
 20
285.7612241773375104
 30
0.0
 11
2283.2287753660330054
 21
285.7673071888634126
 31
0.0
  0
LINE
  5
6514
  8
0
 10
2283.2287753660330054
 20
285.7673071888634126
 30
0.0
 11
2283.2183996183111958
 21
285.7672249833963178
 31
0.0
  0
LINE
  5
6515
  8
0
 10
2283.2183996183111958
 20
285.7672249833963178
 30
0.0
 11
2283.2267511743630166
 21
285.7610773672556093
 31
0.0
  0
LINE
  5
6516
  8
0
 10
2283.2267511743630166
 20
285.7610773672556093
 30
0.0
 11
2283.2454727593008101
 21
285.7549943556711014
 31
0.0
  0
LINE
  5
6517
  8
0
 10
2283.2454727593008101
 20
285.7549943556711014
 30
0.0
 11
2283.2558427882590877
 21
285.7550589599201203
 31
0.0
  0
LINE
  5
6518
  8
0
 10
2283.2558427882590877
 20
285.7550589599201203
 30
0.0
 11
2283.2474969511508789
 21
285.7612241773375104
 31
0.0
  0
LINE
  5
6519
  8
0
 10
2283.2536112613947807
 20
285.7536558051846214
 30
0.0
 11
2283.2433507297600954
 21
285.7539281985521029
 31
0.0
  0
LINE
  5
651A
  8
0
 10
2283.2433507297600954
 20
285.7539281985521029
 30
0.0
 11
2283.2813742226471732
 21
285.7435482256997261
 31
0.0
  0
LINE
  5
651B
  8
0
 10
2283.2813742226471732
 20
285.7435482256997261
 30
0.0
 11
2283.27262422810918
 21
285.7484695742925283
 31
0.0
  0
LINE
  5
651C
  8
0
 10
2283.27262422810918
 20
285.7484695742925283
 30
0.0
 11
2283.253611260580783
 21
285.7536558052061082
 31
0.0
  0
LINE
  5
651D
  8
0
 10
2283.2574504790982246
 20
285.7654717023145849
 30
0.0
 11
2283.246658545129776
 21
285.7641086073314227
 31
0.0
  0
LINE
  5
651E
  8
0
 10
2283.246658545129776
 20
285.7641086073314227
 30
0.0
 11
2283.2548926494259831
 21
285.757599511920489
 31
0.0
  0
LINE
  5
651F
  8
0
 10
2283.2548926494259831
 20
285.757599511920489
 30
0.0
 11
2283.273907711828997
 21
285.7524197308686098
 31
0.0
  0
LINE
  5
6520
  8
0
 10
2283.273907711828997
 20
285.7524197308686098
 30
0.0
 11
2283.284692898870162
 21
285.753762060731674
 31
0.0
  0
LINE
  5
6521
  8
0
 10
2283.284692898870162
 20
285.753762060731674
 30
0.0
 11
2283.2764698162891364
 21
285.7603050775347242
 31
0.0
  0
LINE
  5
6522
  8
0
 10
2283.2764698162891364
 20
285.7603050775347242
 30
0.0
 11
2283.2574504791750769
 21
285.7654717022921886
 31
0.0
  0
LINE
  5
6523
  8
0
 10
2283.278441233589092
 20
285.7663724761346771
 30
0.0
 11
2283.2594185215311882
 21
285.7715287141023737
 31
0.0
  0
LINE
  5
6524
  8
0
 10
2283.2594185215311882
 20
285.7715287141023737
 30
0.0
 11
2283.251739330374221
 21
285.7797456565949119
 31
0.0
  0
LINE
  5
6525
  8
0
 10
2283.251739330374221
 20
285.7797456565949119
 30
0.0
 11
2283.2631054086859876
 21
285.7828757857246273
 31
0.0
  0
LINE
  5
6526
  8
0
 10
2283.2631054086859876
 20
285.7828757857246273
 30
0.0
 11
2283.2821346536320561
 21
285.777739654378081
 31
0.0
  0
LINE
  5
6527
  8
0
 10
2283.2821346536320561
 20
285.777739654378081
 30
0.0
 11
2283.2897911829791155
 21
285.7694529658667761
 31
0.0
  0
LINE
  5
6528
  8
0
 10
2283.2897911829791155
 20
285.7694529658667761
 30
0.0
 11
2283.278441233589092
 21
285.7663724761346771
 31
0.0
  0
LINE
  5
6529
  8
0
 10
2283.2870077727338867
 20
285.7663512944056947
 30
0.0
 11
2283.2757808386832039
 21
285.7636494010113211
 31
0.0
  0
LINE
  5
652A
  8
0
 10
2283.2757808386832039
 20
285.7636494010113211
 30
0.0
 11
2283.2838890840721433
 21
285.7567529518237848
 31
0.0
  0
LINE
  5
652B
  8
0
 10
2283.2838890840721433
 20
285.7567529518237848
 30
0.0
 11
2283.3032065508459709
 21
285.752503875932689
 31
0.0
  0
LINE
  5
652C
  8
0
 10
2283.3032065508459709
 20
285.752503875932689
 30
0.0
 11
2283.3144264232719252
 21
285.7551840295184888
 31
0.0
  0
LINE
  5
652D
  8
0
 10
2283.3144264232719252
 20
285.7551840295184888
 30
0.0
 11
2283.3063360325718349
 21
285.7621354297825178
 31
0.0
  0
LINE
  5
652E
  8
0
 10
2283.3063360325718349
 20
285.7621354297825178
 30
0.0
 11
2283.2870077727338867
 21
285.7663512944056947
 31
0.0
  0
LINE
  5
652F
  8
0
 10
2283.3102117105067919
 20
285.7422124772741086
 30
0.0
 11
2283.3015780610980983
 21
285.7474918995026201
 31
0.0
  0
LINE
  5
6530
  8
0
 10
2283.3015780610980983
 20
285.7474918995026201
 30
0.0
 11
2283.282266059279209
 21
285.7517577949852807
 31
0.0
  0
LINE
  5
6531
  8
0
 10
2283.282266059279209
 20
285.7517577949852807
 30
0.0
 11
2283.2715944559267882
 21
285.7507650396233885
 31
0.0
  0
LINE
  5
6532
  8
0
 10
2283.2715944559267882
 20
285.7507650396233885
 30
0.0
 11
2283.2802358031049152
 21
285.7455093084731175
 31
0.0
  0
LINE
  5
6533
  8
0
 10
2283.2802358031049152
 20
285.7455093084731175
 30
0.0
 11
2283.2995411082888495
 21
285.7412228032346775
 31
0.0
  0
LINE
  5
6534
  8
0
 10
2283.2995411082888495
 20
285.7412228032346775
 30
0.0
 11
2283.3102117105067919
 21
285.7422124772741086
 31
0.0
  0
LINE
  5
6535
  8
0
 10
2283.3130079262068648
 20
285.7826694072309124
 30
0.0
 11
2283.2936553084878142
 21
285.7868102995320783
 31
0.0
  0
LINE
  5
6536
  8
0
 10
2283.2936553084878142
 20
285.7868102995320783
 30
0.0
 11
2283.2818162674338964
 21
285.7822245406047728
 31
0.0
  0
LINE
  5
6537
  8
0
 10
2283.2818162674338964
 20
285.7822245406047728
 30
0.0
 11
2283.289347522881144
 21
285.7735522988725165
 31
0.0
  0
LINE
  5
6538
  8
0
 10
2283.289347522881144
 20
285.7735522988725165
 30
0.0
 11
2283.308684136778993
 21
285.7693621516439748
 31
0.0
  0
LINE
  5
6539
  8
0
 10
2283.308684136778993
 20
285.7693621516439748
 30
0.0
 11
2283.3205051972718138
 21
285.7738925720610723
 31
0.0
  0
LINE
  5
653A
  8
0
 10
2283.3205051972718138
 20
285.7738925720610723
 30
0.0
 11
2283.3130079262891741
 21
285.7826694072347209
 31
0.0
  0
LINE
  5
653B
  8
0
 10
2283.3371497095640734
 20
285.7668817664915082
 30
0.0
 11
2283.317495549783871
 21
285.7700946079206119
 31
0.0
  0
LINE
  5
653C
  8
0
 10
2283.317495549783871
 20
285.7700946079206119
 30
0.0
 11
2283.3058065406748938
 21
285.7659705997785977
 31
0.0
  0
LINE
  5
653D
  8
0
 10
2283.3058065406748938
 20
285.7659705997785977
 30
0.0
 11
2283.3137779402791239
 21
285.758652982303488
 31
0.0
  0
LINE
  5
653E
  8
0
 10
2283.3137779402791239
 20
285.758652982303488
 30
0.0
 11
2283.3334118966731694
 21
285.7553779613012921
 31
0.0
  0
LINE
  5
653F
  8
0
 10
2283.3334118966731694
 20
285.7553779613012921
 30
0.0
 11
2283.3450943453808577
 21
285.759481778426391
 31
0.0
  0
LINE
  5
6540
  8
0
 10
2283.3450943453808577
 20
285.759481778426391
 30
0.0
 11
2283.3371497096318308
 21
285.766881766481788
 31
0.0
  0
LINE
  5
6541
  8
0
 10
2283.3314175618888839
 20
285.7492400300347981
 30
0.0
 11
2283.3117940320112211
 21
285.7525471405820099
 31
0.0
  0
LINE
  5
6542
  8
0
 10
2283.3117940320112211
 20
285.7525471405820099
 30
0.0
 11
2283.3006936222418517
 21
285.7502346548188825
 31
0.0
  0
LINE
  5
6543
  8
0
 10
2283.3006936222418517
 20
285.7502346548188825
 30
0.0
 11
2283.3092161108888831
 21
285.7446131152346993
 31
0.0
  0
LINE
  5
6544
  8
0
 10
2283.3092161108888831
 20
285.7446131152346993
 30
0.0
 11
2283.3288264440388957
 21
285.7412653893890138
 31
0.0
  0
LINE
  5
6545
  8
0
 10
2283.3288264440388957
 20
285.7412653893890138
 30
0.0
 11
2283.3399273570121295
 21
285.7435794232293915
 31
0.0
  0
LINE
  5
6546
  8
0
 10
2283.3399273570121295
 20
285.7435794232293915
 30
0.0
 11
2283.331417561957096
 21
285.7492400299859128
 31
0.0
  0
LINE
  5
6547
  8
0
 10
2283.3275287429760283
 20
285.7372714757518111
 30
0.0
 11
2283.307924875189201
 21
285.740639100516205
 31
0.0
  0
LINE
  5
6548
  8
0
 10
2283.307924875189201
 20
285.740639100516205
 30
0.0
 11
2283.2978061893859376
 21
285.7397797919879281
 31
0.0
  0
LINE
  5
6549
  8
0
 10
2283.2978061893859376
 20
285.7397797919879281
 30
0.0
 11
2283.3365660895801739
 21
285.7332345061145134
 31
0.0
  0
LINE
  5
654A
  8
0
 10
2283.3365660895801739
 20
285.7332345061145134
 30
0.0
 11
2283.3275287429760283
 21
285.7372714757518111
 31
0.0
  0
LINE
  5
654B
  8
0
 10
2283.3374386193690952
 20
285.7413846550737162
 30
0.0
 11
2283.3264545853758136
 21
285.7394303372215063
 31
0.0
  0
LINE
  5
654C
  8
0
 10
2283.3264545853758136
 20
285.7394303372215063
 30
0.0
 11
2283.335382954744091
 21
285.7350579699514128
 31
0.0
  0
LINE
  5
654D
  8
0
 10
2283.335382954744091
 20
285.7350579699514128
 30
0.0
 11
2283.3552884523251123
 21
285.7326186665778778
 31
0.0
  0
LINE
  5
654E
  8
0
 10
2283.3552884523251123
 20
285.7326186665778778
 30
0.0
 11
2283.3662794734518684
 21
285.7345944886146185
 31
0.0
  0
LINE
  5
654F
  8
0
 10
2283.3662794734518684
 20
285.7345944886146185
 30
0.0
 11
2283.3573580918691732
 21
285.7389883621158901
 31
0.0
  0
LINE
  5
6550
  8
0
 10
2283.3573580918691732
 20
285.7389883621158901
 30
0.0
 11
2283.3374386193690952
 21
285.7413846550737162
 31
0.0
  0
LINE
  5
6551
  8
0
 10
2283.362195502646955
 20
285.7538763816374967
 30
0.0
 11
2283.3422420477941159
 21
285.7561680876698915
 31
0.0
  0
LINE
  5
6552
  8
0
 10
2283.3422420477941159
 20
285.7561680876698915
 30
0.0
 11
2283.3306871927370594
 21
285.752456963112877
 31
0.0
  0
LINE
  5
6553
  8
0
 10
2283.3306871927370594
 20
285.752456963112877
 30
0.0
 11
2283.3390823859490411
 21
285.7464436483128907
 31
0.0
  0
LINE
  5
6554
  8
0
 10
2283.3390823859490411
 20
285.7464436483128907
 30
0.0
 11
2283.3590132736549094
 21
285.7440824878846115
 31
0.0
  0
LINE
  5
6555
  8
0
 10
2283.3590132736549094
 20
285.7440824878846115
 30
0.0
 11
2283.3705712686651168
 21
285.7478032761451914
 31
0.0
  0
LINE
  5
6556
  8
0
 10
2283.3705712686651168
 20
285.7478032761451914
 30
0.0
 11
2283.3621955027128934
 21
285.7538763816099276
 31
0.0
  0
LINE
  5
6557
  8
0
 10
2283.3881224630381439
 20
285.7435829509071255
 30
0.0
 11
2283.3678673597842135
 21
285.7449462786206027
 31
0.0
  0
LINE
  5
6558
  8
0
 10
2283.3678673597842135
 20
285.7449462786206027
 30
0.0
 11
2283.3564336500521676
 21
285.7416080012463908
 31
0.0
  0
LINE
  5
6559
  8
0
 10
2283.3564336500521676
 20
285.7416080012463908
 30
0.0
 11
2283.3652432008570941
 21
285.7368699476240863
 31
0.0
  0
LINE
  5
655A
  8
0
 10
2283.3652432008570941
 20
285.7368699476240863
 30
0.0
 11
2283.3854749740530679
 21
285.7354348176380086
 31
0.0
  0
LINE
  5
655B
  8
0
 10
2283.3854749740530679
 20
285.7354348176380086
 30
0.0
 11
2283.3969203477931842
 21
285.7388089931484956
 31
0.0
  0
LINE
  5
655C
  8
0
 10
2283.3969203477931842
 20
285.7388089931484956
 30
0.0
 11
2283.3881224631600162
 21
285.7435829508988263
 31
0.0
  0
LINE
  5
655D
  8
0
 10
2283.4149220244298704
 20
285.7359751097682192
 30
0.0
 11
2283.394358393208222
 21
285.7363888860451198
 31
0.0
  0
LINE
  5
655E
  8
0
 10
2283.394358393208222
 20
285.7363888860451198
 30
0.0
 11
2283.3830349755990028
 21
285.7333900528220738
 31
0.0
  0
LINE
  5
655F
  8
0
 10
2283.3830349755990028
 20
285.7333900528220738
 30
0.0
 11
2283.3922557121891259
 21
285.7299174995362137
 31
0.0
  0
LINE
  5
6560
  8
0
 10
2283.3922557121891259
 20
285.7299174995362137
 30
0.0
 11
2283.4127967780768813
 21
285.7294342742580966
 31
0.0
  0
LINE
  5
6561
  8
0
 10
2283.4127967780768813
 20
285.7294342742580966
 30
0.0
 11
2283.4235012665199065
 21
285.7323029490445947
 31
0.0
  0
LINE
  5
6562
  8
0
 10
2283.4235012665199065
 20
285.7323029490445947
 30
0.0
 11
2283.4149220244298704
 21
285.7359751097682192
 31
0.0
  0
LINE
  5
6563
  8
0
 10
2283.3934809485890582
 20
285.7282236109347195
 30
0.0
 11
2283.3841496791887948
 21
285.731355979334694
 31
0.0
  0
LINE
  5
6564
  8
0
 10
2283.3841496791887948
 20
285.731355979334694
 30
0.0
 11
2283.3639293210640062
 21
285.7328262415991276
 31
0.0
  0
LINE
  5
6565
  8
0
 10
2283.3639293210640062
 20
285.7328262415991276
 30
0.0
 11
2283.3530534347892171
 21
285.7312047683346918
 31
0.0
  0
LINE
  5
6566
  8
0
 10
2283.3530534347892171
 20
285.7312047683346918
 30
0.0
 11
2283.3934809485890582
 21
285.7282236109347195
 31
0.0
  0
LINE
  5
6567
  8
0
 10
2283.4425992134720218
 20
285.7310683291289024
 30
0.0
 11
2283.4217153720319402
 21
285.7304965996780197
 31
0.0
  0
LINE
  5
6568
  8
0
 10
2283.4217153720319402
 20
285.7304965996780197
 30
0.0
 11
2283.410493029187819
 21
285.7278088426276099
 31
0.0
  0
LINE
  5
6569
  8
0
 10
2283.410493029187819
 20
285.7278088426276099
 30
0.0
 11
2283.4522406278888411
 21
285.7288904886347041
 31
0.0
  0
LINE
  5
656A
  8
0
 10
2283.4522406278888411
 20
285.7288904886347041
 30
0.0
 11
2283.4425992135438719
 21
285.731068329086213
 31
0.0
  0
ENDSEC
  0
EOF
