  0
SECTION
  2
HEADER
  9
$ACADVER
  1
AC1009
  9
$INSBASE
 10
3611.8052636596908087
 20
296.6807583589476849
 30
0.0
  9
$EXTMIN
 10
3610.8800674765889198
 20
296.6807583589476849
 30
0.0
  9
$EXTMAX
 10
3612.8450737853831924
 20
307.2705378741035815
 30
0.0
  9
$LIMMIN
 10
0.0
 20
0.0
  9
$LIMMAX
 10
11.6929133858000007
 20
8.2677165353999982
  9
$ORTHOMODE
 70
     0
  9
$REGENMODE
 70
     1
  9
$FILLMODE
 70
     1
  9
$QTEXTMODE
 70
     0
  9
$MIRRTEXT
 70
     0
  9
$DRAGMODE
 70
     2
  9
$LTSCALE
 40
0.6431102362
  9
$OSMODE
 70
  4095
  9
$ATTMODE
 70
     1
  9
$TEXTSIZE
 40
0.2
  9
$TRACEWID
 40
0.05
  9
$TEXTSTYLE
  7
STANDARD
  9
$CLAYER
  8
0
  9
$CELTYPE
  6
BYLAYER
  9
$CECOLOR
 62
   256
  9
$DIMSCALE
 40
1.0
  9
$DIMASZ
 40
0.1875
  9
$DIMEXO
 40
0.0625
  9
$DIMDLI
 40
0.4443307087
  9
$DIMRND
 40
0.0
  9
$DIMDLE
 40
0.0
  9
$DIMEXE
 40
0.125
  9
$DIMTP
 40
0.01
  9
$DIMTM
 40
0.01
  9
$DIMTXT
 40
2.0
  9
$DIMCEN
 40
0.1052362205
  9
$DIMTSZ
 40
0.0
  9
$DIMTOL
 70
     1
  9
$DIMLIM
 70
     0
  9
$DIMTIH
 70
     1
  9
$DIMTOH
 70
     1
  9
$DIMSE1
 70
     0
  9
$DIMSE2
 70
     0
  9
$DIMTAD
 70
     0
  9
$DIMZIN
 70
     0
  9
$DIMBLK
  1

  9
$DIMASO
 70
     1
  9
$DIMSHO
 70
     1
  9
$DIMPOST
  1
\X
  9
$DIMAPOST
  1

  9
$DIMALT
 70
     1
  9
$DIMALTD
 70
     2
  9
$DIMALTF
 40
25.3999999999999986
  9
$DIMLFAC
 40
1.0
  9
$DIMTOFL
 70
     0
  9
$DIMTVP
 40
0.0
  9
$DIMTIX
 70
     0
  9
$DIMSOXD
 70
     0
  9
$DIMSAH
 70
     0
  9
$DIMBLK1
  1

  9
$DIMBLK2
  1

  9
$DIMSTYLE
  2
STANDARD
  9
$DIMCLRD
 70
     0
  9
$DIMCLRE
 70
     0
  9
$DIMCLRT
 70
     0
  9
$DIMTFAC
 40
1.0
  9
$DIMGAP
 40
0.09
  9
$LUNITS
 70
     2
  9
$LUPREC
 70
     4
  9
$SKETCHINC
 40
0.1
  9
$FILLETRAD
 40
0.0
  9
$AUNITS
 70
     0
  9
$AUPREC
 70
     0
  9
$MENU
  1
.
  9
$ELEVATION
 40
0.0
  9
$PELEVATION
 40
0.0
  9
$THICKNESS
 40
0.0
  9
$LIMCHECK
 70
     0
  9
$BLIPMODE
 70
     0
  9
$CHAMFERA
 40
0.0
  9
$CHAMFERB
 40
0.0
  9
$SKPOLY
 70
     0
  9
$TDCREATE
 40
2458059.843368056230247
  9
$TDUPDATE
 40
2459053.1056944448500872
  9
$TDINDWG
 40
0.4769777431
  9
$TDUSRTIMER
 40
0.4769777431
  9
$USRTIMER
 70
     1
  9
$ANGBASE
 50
0.0
  9
$ANGDIR
 70
     0
  9
$PDMODE
 70
     0
  9
$PDSIZE
 40
0.3125
  9
$PLINEWID
 40
0.0
  9
$COORDS
 70
     1
  9
$SPLFRAME
 70
     0
  9
$SPLINETYPE
 70
     6
  9
$SPLINESEGS
 70
     8
  9
$ATTDIA
 70
     1
  9
$ATTREQ
 70
     1
  9
$HANDLING
 70
     1
  9
$HANDSEED
  5
ABD0
  9
$SURFTAB1
 70
     6
  9
$SURFTAB2
 70
     6
  9
$SURFTYPE
 70
     6
  9
$SURFU
 70
     6
  9
$SURFV
 70
     6
  9
$UCSNAME
  2

  9
$UCSORG
 10
0.0
 20
0.0
 30
0.0
  9
$UCSXDIR
 10
1.0
 20
0.0
 30
0.0
  9
$UCSYDIR
 10
0.0
 20
1.0
 30
0.0
  9
$PUCSNAME
  2

  9
$PUCSORG
 10
0.0
 20
0.0
 30
0.0
  9
$PUCSXDIR
 10
1.0
 20
0.0
 30
0.0
  9
$PUCSYDIR
 10
0.0
 20
1.0
 30
0.0
  9
$USERI1
 70
     0
  9
$USERI2
 70
     0
  9
$USERI3
 70
     0
  9
$USERI4
 70
     0
  9
$USERI5
 70
     0
  9
$USERR1
 40
0.0
  9
$USERR2
 40
0.0
  9
$USERR3
 40
0.0
  9
$USERR4
 40
0.0
  9
$USERR5
 40
0.0
  9
$WORLDVIEW
 70
     1
  9
$SHADEDGE
 70
     3
  9
$SHADEDIF
 70
    70
  9
$TILEMODE
 70
     1
  9
$MAXACTVP
 70
    64
  9
$PLIMCHECK
 70
     0
  9
$PEXTMIN
 10
1.0000000000000000E+20
 20
1.0000000000000000E+20
 30
1.0000000000000000E+20
  9
$PEXTMAX
 10
-1.0000000000000000E+20
 20
-1.0000000000000000E+20
 30
-1.0000000000000000E+20
  9
$PLIMMIN
 10
0.0
 20
0.0
  9
$PLIMMAX
 10
12.0
 20
9.0
  9
$UNITMODE
 70
     0
  9
$VISRETAIN
 70
     1
  9
$PLINEGEN
 70
     0
  9
$PSLTSCALE
 70
     1
  0
ENDSEC
  0
SECTION
  2
TABLES
  0
TABLE
  2
VPORT
 70
     1
  0
VPORT
  2
*ACTIVE
 70
     0
 10
0.0
 20
0.0
 11
1.0
 21
1.0
 12
351.5462864512982719
 22
-2.234785843435275
 13
0.0
 23
0.0
 14
1.0
 24
1.0
 15
0.0
 25
0.0
 16
0.0
 26
0.0
 36
48.4519809769821421
 17
3260.3162841796870453
 27
304.2104339599608807
 37
0.0
 40
10.71485565116161
 41
2.6528599605522678
 42
50.0
 43
0.0
 44
0.0
 50
0.0
 51
0.0
 71
     0
 72
   100
 73
     1
 74
     1
 75
     0
 76
     0
 77
     0
 78
     0
  0
ENDTAB
  0
TABLE
  2
LTYPE
 70
     2
  0
LTYPE
  2
CONTINUOUS
 70
     0
  3
Solid line
 72
    65
 73
     0
 40
0.0
  0
LTYPE
  2
PHANTOM2
 70
     0
  3
___ _ _ ___ _ _ ___ _ _ ___ _ _
 72
    65
 73
     6
 40
1.25
 49
0.625
 49
-0.125
 49
0.125
 49
-0.125
 49
0.125
 49
-0.125
  0
ENDTAB
  0
TABLE
  2
LAYER
 70
     2
  0
LAYER
  2
0
 70
     0
 62
   255
  6
CONTINUOUS
  0
LAYER
  2
DEFPOINTS
 70
     0
 62
     7
  6
CONTINUOUS
  0
ENDTAB
  0
TABLE
  2
STYLE
 70
     1
  0
STYLE
  2
STANDARD
 70
     0
 40
0.0
 41
0.8
 50
0.0
 71
     0
 42
0.2
  3
txt
  4

  0
ENDTAB
  0
TABLE
  2
VIEW
 70
     0
  0
ENDTAB
  0
TABLE
  2
UCS
 70
     0
  0
ENDTAB
  0
TABLE
  2
APPID
 70
     9
  0
APPID
  2
ACAD
 70
     0
  0
APPID
  2
ACAD_MLEADERVER
 70
     0
  0
APPID
  2
ACAD_EXEMPT_FROM_CAD_STANDARDS
 70
     0
  0
APPID
  2
ACAD_NAV_VCDISPLAY
 70
     0
  0
APPID
  2
ACAECLAYERSTANDARD
 70
     0
  0
APPID
  2
ACCMTRANSPARENCY
 70
     0
  0
APPID
  2
ACAD_DSTYLE_DIMJAG
 70
     0
  0
APPID
  2
ACAD_DSTYLE_DIMTALN
 70
     0
  0
APPID
  2
ACDBATTR
 70
     0
  0
ENDTAB
  0
TABLE
  2
DIMSTYLE
 70
     1
  0
DIMSTYLE
  2
STANDARD
 70
     0
  3

  4

  5

  6

  7

 40
1.0
 41
0.1875
 42
0.0625
 43
0.38
 44
0.125
 45
0.0
 46
0.0
 47
0.01
 48
0.01
140
0.15625
141
0.09
142
0.0
143
25.3999999999999986
144
1.0
145
0.0
146
1.0
147
0.09
 71
     1
 72
     0
 73
     1
 74
     1
 75
     0
 76
     0
 77
     0
 78
     4
170
     0
171
     2
172
     0
173
     0
174
     0
175
     0
176
     0
177
     0
178
     0
  0
ENDTAB
  0
ENDSEC
  0
SECTION
  2
BLOCKS
  0
BLOCK
  8
0
  2
$MODEL_SPACE
 70
     0
 10
0.0
 20
0.0
 30
0.0
  3
$MODEL_SPACE
  1

  0
ENDBLK
  5
21
  8
0
  0
BLOCK
 67
     1
  8
0
  2
$PAPER_SPACE
 70
     0
 10
0.0
 20
0.0
 30
0.0
  3
$PAPER_SPACE
  1

  0
ENDBLK
  5
1D
 67
     1
  8
0
  0
ENDSEC
  0
SECTION
  2
ENTITIES
  0
ATTDEF
  5
A142
  8
DEFPOINTS
 10
3611.802645974797997
 20
296.6857450465550983
 30
0.0
 40
0.001
  1
K-74026IN-4
  3

  2
MODELNUMBER
 70
     0
1001
ACDBATTR
1070
     0
1070
     1
  0
ATTDEF
  5
A143
  8
DEFPOINTS
 10
3611.802645974797997
 20
296.6840783798883763
 30
0.0
 40
0.001
  1
TAUT
  3

  2
TRADENAME
 70
     0
1001
ACDBATTR
1070
     0
1070
     1
  0
ATTDEF
  5
A144
  8
DEFPOINTS
 10
3611.802645974797997
 20
296.6824117132217111
 30
0.0
 40
0.001
  1
BATHROOM SINK FAUCET
  3

  2
PRODUCT
 70
     0
1001
ACDBATTR
1070
     0
1070
     1
  0
LINE
  5
A6F1
  8
0
 10
3610.8800674765889198
 20
296.7135456683733992
 30
0.0
 11
3610.8818648683909487
 21
296.7253010340248807
 31
0.0
  0
LINE
  5
A6F2
  8
0
 10
3610.8818648683909487
 20
296.7253010340248807
 30
0.0
 11
3610.9767126327910773
 21
297.0283232159248996
 31
0.0
  0
LINE
  5
A6F3
  8
0
 10
3610.9767126327910773
 20
297.0283232159248996
 30
0.0
 11
3610.9784493165598178
 21
297.0400731072248846
 31
0.0
  0
LINE
  5
A6F4
  8
0
 10
3610.9784493165611821
 20
306.2131987947037146
 30
0.0
 11
3612.6320780028217996
 21
306.2131987947037146
 31
0.0
  0
ARC
  5
A6F5
  8
0
 10
3611.8048829597059921
 20
283.6484699847882212
 30
0.0
 40
23.6220678923830789
 50
89.9990766048751993
 51
91.9318974243824414
  0
ARC
  5
A6F6
  8
0
 10
3611.0096439232552257
 20
307.2255497398945749
 30
0.0
 40
0.0315805286725805
 50
91.9929256870053962
 51
171.0335413866872898
  0
ARC
  5
A6F7
  8
0
 10
3611.0067358303458604
 20
306.333251466131685
 30
0.0
 40
0.028130171861623
 50
187.9674063877467063
 51
248.6789907240521131
  0
ARC
  5
A6F8
  8
0
 10
3611.0045766742669002
 20
306.3309001882872167
 30
0.0
 40
0.0251813364730714
 50
251.3112670978673862
 51
270.1217372244199737
  0
LINE
  5
A6F9
  8
0
 10
3611.0046301774000312
 20
306.3057189086536027
 30
0.0
 11
3612.6058971420820853
 21
306.3057189086536027
 31
0.0
  0
ARC
  5
A6FA
  8
0
 10
3611.9107584739808772
 20
306.093597496503719
 30
0.0
 40
0.8661417322995262
 50
165.8238530165803866
 51
172.0629436104181877
  0
ARC
  5
A6FB
  8
0
 10
3612.4971011642419398
 20
180.5325988894032037
 30
0.0
 40
124.9305075424441043
 50
90.3172929695969628
 51
90.5832407828041966
  0
ARC
  5
A6FC
  8
0
 10
3611.2257165564351453
 20
305.4251840457225171
 30
0.0
 40
0.0314513176295362
 50
90.5830210708282237
 51
180.0000877804984896
  0
ARC
  5
A6FD
  8
0
 10
3611.2257997069818884
 20
304.7243735515341996
 30
0.0
 40
0.0315345303864619
 50
180.1138080889080015
 51
267.5117335226353248
  0
ARC
  5
A6FE
  8
0
 10
3611.2499025642418928
 20
304.2586055456275744
 30
0.0
 40
0.4350096010180169
 50
87.8573548851520485
 51
93.3568659624495751
  0
ARC
  5
A6FF
  8
0
 10
3611.9371478764419408
 20
324.672998668163018
 30
0.0
 40
19.9909513299984383
 50
268.0765485715560885
 51
269.6209135298300907
  0
ARC
  5
A700
  8
0
 10
3611.6726046086128008
 20
324.6737821529559938
 30
0.0
 40
19.9917348813612001
 50
270.3791078767301883
 51
271.9234122425218061
  0
ARC
  5
A701
  8
0
 10
3612.3839644834570208
 20
304.7243739628286221
 30
0.0
 40
0.0315354989803799
 50
272.5933650561548802
 51
359.8876935741437251
  0
LINE
  5
A702
  8
0
 10
3612.415499921855826
 20
304.7243121496035769
 30
0.0
 11
3612.415499921855826
 21
305.4250860100268028
 31
0.0
  0
ARC
  5
A703
  8
0
 10
3612.3839953638380393
 20
305.4251314399575108
 30
0.0
 40
0.031504590773205
 50
359.9173788920301149
 51
89.3165145624960246
  0
ARC
  5
A704
  8
0
 10
3604.7572549054289084
 20
-627.0035720248736197
 30
0.0
 40
932.4913985283460534
 50
89.5313560579824781
 51
89.5669397045424063
  0
ARC
  5
A705
  8
0
 10
3610.8700425960128086
 20
305.1901300267314809
 30
0.0
 40
0.6106214369605687
 50
291.1491617046104921
 51
305.4765927604192939
  0
ARC
  5
A706
  8
0
 10
3611.8044287224420259
 20
305.5683515843543887
 30
0.0
 40
1.0542808180648691
 50
265.1510329054794965
 51
270.0453753731953839
  0
ARC
  5
A707
  8
0
 10
3611.786395174342033
 20
305.3557488757833198
 30
0.0
 40
0.8409146526524578
 50
256.9926059489567933
 51
265.1508840415687018
  0
ARC
  5
A708
  8
0
 10
3611.6814773868832162
 20
304.9015674283415933
 30
0.0
 40
0.3747724754947114
 50
243.5467087147436018
 51
256.9926059489567933
  0
ARC
  5
A709
  8
0
 10
3611.5743779494141563
 20
304.6863199321596767
 30
0.0
 40
0.134352480238712
 50
219.8411282874415065
 51
243.5467087147436018
  0
ARC
  5
A70A
  8
0
 10
3611.5289637079840759
 20
304.6533157829632046
 30
0.0
 40
0.0784277549446992
 50
181.1707469864159918
 51
222.5845055675312096
  0
ARC
  5
A70B
  8
0
 10
3697.166236219602979
 20
304.661181269135227
 30
0.0
 40
85.7156844173217252
 50
179.9978904182158033
 51
180.0063287347562095
  0
ARC
  5
A70C
  8
0
 10
3612.06183901228178
 20
277.5010448358125927
 30
0.0
 40
27.1701697938040212
 50
90.5410677754721576
 51
91.2891759446361561
  0
ARC
  5
A70D
  8
0
 10
3611.4475960963791294
 20
310.8909292255344781
 30
0.0
 40
6.2265926795994249
 50
268.5238873935487049
 51
270.0271983117405057
  0
ARC
  5
A70E
  8
0
 10
3611.2786397254299118
 20
304.1941560190289238
 30
0.0
 40
0.4723243533059187
 50
88.9617757970704162
 51
92.6845933722851072
  0
ARC
  5
A70F
  8
0
 10
3611.2585037591838955
 20
304.6235921833090856
 30
0.0
 40
0.042416367420043
 50
92.6845933722851072
 51
104.1110416124911069
  0
ARC
  5
A710
  8
0
 10
3611.2546103458939797
 20
304.6365236145153972
 30
0.0
 40
0.0289326329197832
 50
102.8767690212036001
 51
111.8754296838736053
  0
ARC
  5
A711
  8
0
 10
3611.2444486233121097
 20
304.6621250617818077
 30
0.0
 40
0.0013926908257343
 50
116.3560887411372988
 51
163.4636074383926996
  0
ARC
  5
A712
  8
0
 10
3611.2449137509088359
 20
304.6619869632929749
 30
0.0
 40
0.001877886532489
 50
163.4636074383990092
 51
195.7875428567014922
  0
ARC
  5
A713
  8
0
 10
3611.2463110661879
 20
304.6623820355537191
 30
0.0
 40
0.0033299788431321
 50
195.7875428567014922
 51
227.8620511490510125
  0
ARC
  5
A714
  8
0
 10
3611.2580656879981689
 20
304.6736981883270801
 30
0.0
 40
0.0196398525969121
 50
224.580561818221895
 51
237.9438543783057014
  0
ARC
  5
A715
  8
0
 10
3611.349222523420849
 20
304.8362224123551982
 30
0.0
 40
0.2059620506520855
 50
240.448808425589192
 51
249.1719993119959042
  0
ARC
  5
A716
  8
0
 10
3611.7365419415959877
 20
305.8144772294310769
 30
0.0
 40
1.2580865273572679
 50
248.5263410695930872
 51
252.4960945292386896
  0
ARC
  5
A717
  8
0
 10
3611.6437913005202063
 20
305.2577329384567975
 30
0.0
 40
0.7036730392370134
 50
246.0503082747127053
 51
259.4147870670184943
  0
ARC
  5
A718
  8
0
 10
3611.461724339912962
 20
304.8411702439316855
 30
0.0
 40
0.249082922503534
 50
224.5445525034114098
 51
245.4279110825802093
  0
LINE
  5
A719
  8
0
 10
3612.7304598427931523
 20
296.7135456683733992
 30
0.0
 11
3612.7287552878879069
 21
296.7253010340248807
 31
0.0
  0
LINE
  5
A71A
  8
0
 10
3612.7287552878879069
 20
296.7253010340248807
 30
0.0
 11
3612.6339075234877782
 21
297.0283232159248996
 31
0.0
  0
LINE
  5
A71B
  8
0
 10
3612.6339075234877782
 20
297.0283232159248996
 30
0.0
 11
3612.6320780028217996
 21
297.0399720816913032
 31
0.0
  0
ARC
  5
A71C
  8
0
 10
3611.8049734332298613
 20
283.6484745139977122
 30
0.0
 40
23.6220633618887703
 50
88.063652886358085
 51
89.9992960500018313
  0
ARC
  5
A71D
  8
0
 10
3611.6990978044791518
 20
306.093597496503719
 30
0.0
 40
0.8661417322995262
 50
7.9370563895817563
 51
14.1761469831257294
  0
ARC
  5
A71E
  8
0
 10
3612.3599537142172267
 20
304.2586055456275744
 30
0.0
 40
0.4350096010180169
 50
86.6476537934554045
 51
92.1426451148479373
  0
ARC
  5
A71F
  8
0
 10
3612.7403289690478232
 20
305.1912487470075916
 30
0.0
 40
0.6118507237866284
 50
234.5420804908571881
 51
248.8436747288147899
  0
ARC
  5
A720
  8
0
 10
3612.5014131651141724
 20
304.5320135451033252
 30
0.0
 40
0.0904512415623906
 50
40.9899663732247674
 51
78.4629148538191856
  0
ARC
  5
A721
  8
0
 10
3612.419254594773065
 20
304.4901402194199136
 30
0.0
 40
0.1813069030038484
 50
7.5846591522769238
 51
33.9303445871655782
  0
ARC
  5
A722
  8
0
 10
3688.8818649751287921
 20
306.8082029088989202
 30
0.0
 40
76.3173788128919171
 50
181.7225942068587869
 51
182.4115990403637113
  0
ARC
  5
A723
  8
0
 10
3611.8054387982087974
 20
305.5681743780008901
 30
0.0
 40
1.054103295646831
 50
269.9904803466512817
 51
274.8491724042909254
  0
ARC
  5
A724
  8
0
 10
3611.823461104117996
 20
305.3557488757833198
 30
0.0
 40
0.8409146526524578
 50
274.8491159584314119
 51
283.007394051043093
  0
ARC
  5
A725
  8
0
 10
3611.9283788915768127
 20
304.9015674283415933
 30
0.0
 40
0.3747724754947114
 50
283.007394051043093
 51
296.4532912852563982
  0
ARC
  5
A726
  8
0
 10
3612.0354783290458727
 20
304.6863199321596767
 30
0.0
 40
0.134352480238712
 50
296.4532912852563982
 51
320.1588717125584935
  0
ARC
  5
A727
  8
0
 10
3612.0808925704759531
 20
304.6533157829632046
 30
0.0
 40
0.0784277549446992
 50
317.4154944324687904
 51
358.8292530135839797
  0
ARC
  5
A728
  8
0
 10
3526.44362005885705
 20
304.661181269135227
 30
0.0
 40
85.7156844173217252
 50
359.9936712652437905
 51
0.0021095817841485
  0
ARC
  5
A729
  8
0
 10
3611.5451234728070631
 20
277.3506498111117935
 30
0.0
 40
27.3205918604532805
 50
88.7118529170498675
 51
89.4544349515119137
  0
ARC
  5
A72A
  8
0
 10
3612.16226018207999
 20
310.8909292255344781
 30
0.0
 40
6.2265926795994249
 50
269.9728016882594943
 51
271.4761126064514087
  0
ARC
  5
A72B
  8
0
 10
3612.3312165530292077
 20
304.1941560190289238
 30
0.0
 40
0.4723243533059187
 50
87.3154066277148928
 51
91.0382242029295981
  0
ARC
  5
A72C
  8
0
 10
3612.3513525192761335
 20
304.6235921833090856
 30
0.0
 40
0.042416367420043
 50
75.8889583875088505
 51
87.3154066277148928
  0
ARC
  5
A72D
  8
0
 10
3612.3552459325660493
 20
304.6365236145153972
 30
0.0
 40
0.0289326329197832
 50
68.1245703161264089
 51
77.1232309787963715
  0
ARC
  5
A72E
  8
0
 10
3612.3654076551470098
 20
304.6621250617818077
 30
0.0
 40
0.0013926908257343
 50
16.53639256160724
 51
63.6439112588627083
  0
ARC
  5
A72F
  8
0
 10
3612.3649425275511931
 20
304.6619869632929749
 30
0.0
 40
0.001877886532489
 50
344.2124571432984794
 51
16.5363925616009908
  0
ARC
  5
A730
  8
0
 10
3612.363545212272129
 20
304.6623820355537191
 30
0.0
 40
0.0033299788431321
 50
312.1379488509489875
 51
344.2124571432984794
  0
ARC
  5
A731
  8
0
 10
3612.3517905904618601
 20
304.6736981883270801
 30
0.0
 40
0.0196398525969121
 50
302.056145621692508
 51
315.419438181778105
  0
ARC
  5
A732
  8
0
 10
3612.26063375503918
 20
304.8362224123551982
 30
0.0
 40
0.2059620506520855
 50
290.8280006880040105
 51
299.5511915744107796
  0
ARC
  5
A733
  8
0
 10
3611.8733143368640413
 20
305.8144772294310769
 30
0.0
 40
1.2580865273572679
 50
287.5039054707613104
 51
291.4736589304068843
  0
ARC
  5
A734
  8
0
 10
3611.9660649779398227
 20
305.2577329384567975
 30
0.0
 40
0.7036730392370134
 50
280.5852129329815057
 51
293.9496917252873232
  0
ARC
  5
A735
  8
0
 10
3612.1481319385479765
 20
304.8411702439316855
 30
0.0
 40
0.249082922503534
 50
294.5720889174198192
 51
315.4554474965884765
  0
CIRCLE
  5
A736
  8
0
 10
3611.8052636596908087
 20
306.7383204489036075
 30
0.0
 40
0.1431761147693004
  0
ARC
  5
A737
  8
0
 10
3616.0845452466178358
 20
313.8926928101208773
 30
0.0
 40
9.7782178358833889
 50
239.0514730148263993
 51
239.9920760840917922
  0
ARC
  5
A738
  8
0
 10
3611.0954463979937827
 20
305.5725160263567091
 30
0.0
 40
0.0768545793905659
 50
203.8058953988767996
 51
239.051478012913492
  0
ARC
  5
A739
  8
0
 10
3611.2315517783481482
 20
305.6325623811335959
 30
0.0
 40
0.2256169378126496
 50
189.7600081328232022
 51
203.8058953988767996
  0
ARC
  5
A73A
  8
0
 10
3613.7252545286778513
 20
306.0153534928272165
 30
0.0
 40
2.74849477765239
 50
182.0090925500400942
 51
188.8117560962101038
  0
ARC
  5
A73B
  8
0
 10
3606.7865880378431029
 20
315.1360435224169123
 30
0.0
 40
11.2244084389972496
 50
300.0985281082068923
 51
300.918192259309194
  0
ARC
  5
A73C
  8
0
 10
3612.5143187513681369
 20
305.5725160263567091
 30
0.0
 40
0.0768545793905659
 50
300.948521987086508
 51
336.194104601123172
  0
ARC
  5
A73D
  8
0
 10
3612.3782133710151356
 20
305.6325623811335959
 30
0.0
 40
0.2256169378126496
 50
336.194104601123172
 51
350.2399918671767978
  0
ARC
  5
A73E
  8
0
 10
3609.7748905035468852
 20
306.0290998658009016
 30
0.0
 40
2.8589286332884498
 50
351.2525440160937933
 51
358.0002573166780735
  0
ARC
  5
A73F
  8
0
 10
3611.1143083273627781
 20
304.5170247156963796
 30
0.0
 40
0.1063458815290292
 50
103.0180375955281988
 51
124.619614557089406
  0
ARC
  5
A740
  8
0
 10
3611.0935832561231109
 20
304.5470455386193862
 30
0.0
 40
0.0698660461826003
 50
124.619667940340193
 51
158.4339610321447083
  0
ARC
  5
A741
  8
0
 10
3611.6107022387000143
 20
304.3771812508630887
 30
0.0
 40
0.6140613742257529
 50
161.4310483142718056
 51
178.6500266867608104
  0
ARC
  5
A742
  8
0
 10
3614.9837175331290382
 20
304.1103510886616164
 30
0.0
 40
3.996817396771938
 50
175.9641720474220108
 51
177.7012565000551945
  0
ARC
  5
A743
  8
0
 10
3634.8265229192488732
 20
303.4793595967194051
 30
0.0
 40
23.8495373783887992
 50
178.0986354334472139
 51
179.3651996776256965
  0
ARC
  5
A744
  8
0
 10
3611.6223160735157762
 20
304.5011993760465998
 30
0.0
 40
0.1880184198690865
 50
118.7463631383740932
 51
123.3934861716403049
  0
ARC
  5
A745
  8
0
 10
3611.5723367750129
 20
304.5770157148447197
 30
0.0
 40
0.09721066960702
 50
123.3934861716403049
 51
129.5353642190916901
  0
ARC
  5
A746
  8
0
 10
3611.5580390022892061
 20
304.5943385047540914
 30
0.0
 40
0.0747494729537462
 50
129.5353642190916901
 51
149.2156099374863061
  0
ARC
  5
A747
  8
0
 10
3611.5190490124109601
 20
304.6175668083766936
 30
0.0
 40
0.0293647464495863
 50
149.2156099374863061
 51
205.9427573709158139
  0
ARC
  5
A748
  8
0
 10
3611.5612794803419092
 20
304.6418899113846805
 30
0.0
 40
0.0780543895276284
 50
208.4374151130450912
 51
243.0020643736675936
  0
ARC
  5
A749
  8
0
 10
3611.7065695451719876
 20
304.9270631192621863
 30
0.0
 40
0.3981058876174161
 50
243.0020643736675936
 51
253.7047023852965992
  0
ARC
  5
A74A
  8
0
 10
3611.7678999281911274
 20
305.1943648968626235
 30
0.0
 40
0.6720719817952578
 50
255.0803840346138998
 51
263.9271552154139044
  0
ARC
  5
A74B
  8
0
 10
3611.8037815332318132
 20
305.4911535805928224
 30
0.0
 40
0.9710006031419798
 50
263.6744783879727834
 51
270.087455788927798
  0
LINE
  5
A74C
  8
0
 10
3611.8048825690698322
 20
304.6619864934336874
 30
0.0
 11
3611.7878348249009832
 21
304.6664369266513859
 31
0.0
  0
LINE
  5
A74D
  8
0
 10
3611.7878348249009832
 20
304.6664369266513859
 30
0.0
 11
3611.7878348248809743
 21
304.6698329635415803
 31
0.0
  0
LINE
  5
A74E
  8
0
 10
3611.7662526139811234
 20
304.6696067282882723
 30
0.0
 11
3611.7662526139811234
 21
304.6664369266563881
 31
0.0
  0
LINE
  5
A74F
  8
0
 10
3611.7662526139811234
 20
304.6664369266563881
 30
0.0
 11
3611.7537014666809227
 21
304.6631799236448046
 31
0.0
  0
LINE
  5
A750
  8
0
 10
3611.7537014666809227
 20
304.6694672757911917
 30
0.0
 11
3611.7537014666809227
 21
304.5346359369154925
 31
0.0
  0
LINE
  5
A751
  8
0
 10
3611.7537014666809227
 20
304.5401143261177026
 30
0.0
 11
3611.759995975217862
 21
304.5396481093118268
 31
0.0
  0
LINE
  5
A752
  8
0
 10
3611.759995975217862
 20
304.5396481093118268
 30
0.0
 11
3611.7599959752678842
 21
304.5540758547999189
 31
0.0
  0
LINE
  5
A753
  8
0
 10
3611.7599959752678842
 20
304.5540758547999189
 30
0.0
 11
3611.7770437193807993
 21
304.5624959934801268
 31
0.0
  0
LINE
  5
A754
  8
0
 10
3611.7770437193807993
 20
304.5624959934801268
 30
0.0
 11
3611.7940914636587877
 21
304.5540758547680866
 31
0.0
  0
LINE
  5
A755
  8
0
 10
3611.7940914636587877
 20
304.5540758547680866
 30
0.0
 11
3611.7940914635810259
 21
304.5381873050037029
 31
0.0
  0
LINE
  5
A756
  8
0
 10
3611.7940914635810259
 20
304.5381873050037029
 30
0.0
 11
3611.8048825746809598
 21
304.5380978347890846
 31
0.0
  0
LINE
  5
A757
  8
0
 10
3611.7770437194430997
 20
304.5407660648490946
 30
0.0
 11
3611.7940914635828449
 21
304.5385021893613953
 31
0.0
  0
LINE
  5
A758
  8
0
 10
3611.7770437194430997
 20
304.5407660648490946
 30
0.0
 11
3611.7599959752810719
 21
304.5402085405866046
 31
0.0
  0
LINE
  5
A759
  8
0
 10
3611.8048825746809598
 20
304.5526008927691919
 30
0.0
 11
3611.7878348249228111
 21
304.5610724543049059
 31
0.0
  0
LINE
  5
A75A
  8
0
 10
3611.7878348249228111
 20
304.5610724543049059
 30
0.0
 11
3611.7878348248809743
 21
304.5771426724086837
 31
0.0
  0
LINE
  5
A75B
  8
0
 10
3611.7878348248809743
 20
304.5771426724086837
 30
0.0
 11
3611.8048825746809598
 21
304.5847627640638962
 31
0.0
  0
LINE
  5
A75C
  8
0
 10
3611.8048825746809598
 20
304.5847627640638962
 30
0.0
 11
3611.8219303132318601
 21
304.5771426723853779
 31
0.0
  0
LINE
  5
A75D
  8
0
 10
3611.8219303132318601
 20
304.5771426723853779
 30
0.0
 11
3611.8219303132809728
 21
304.5610724543254832
 31
0.0
  0
LINE
  5
A75E
  8
0
 10
3611.8219303132809728
 20
304.5610724543254832
 30
0.0
 11
3611.8048819369969351
 21
304.5526012096547106
 31
0.0
  0
LINE
  5
A75F
  8
0
 10
3611.8048825746809598
 20
304.5968107411260917
 30
0.0
 11
3611.7878348249168994
 21
304.6037467453562044
 31
0.0
  0
LINE
  5
A760
  8
0
 10
3611.7878348249168994
 20
304.6037467453562044
 30
0.0
 11
3611.7878348248809743
 21
304.6168930896035931
 31
0.0
  0
LINE
  5
A761
  8
0
 10
3611.7878348248809743
 20
304.6168930896035931
 30
0.0
 11
3611.8048825746809598
 21
304.6231154077299834
 31
0.0
  0
LINE
  5
A762
  8
0
 10
3611.8048825746809598
 20
304.6231154077299834
 30
0.0
 11
3611.8219303132809728
 21
304.6168930896204756
 31
0.0
  0
LINE
  5
A763
  8
0
 10
3611.8219303132809728
 20
304.6168930896204756
 30
0.0
 11
3611.8219303132809728
 21
304.6037467454036118
 31
0.0
  0
LINE
  5
A764
  8
0
 10
3611.8219303132809728
 20
304.6037467454036118
 30
0.0
 11
3611.8048825746809598
 21
304.5968107411260917
 31
0.0
  0
LINE
  5
A765
  8
0
 10
3611.8048825746809598
 20
304.6329278116235173
 30
0.0
 11
3611.7878348248809743
 21
304.6385573677035836
 31
0.0
  0
LINE
  5
A766
  8
0
 10
3611.7878348248809743
 20
304.6385573677035836
 30
0.0
 11
3611.7878348248809743
 21
304.6491733555037058
 31
0.0
  0
LINE
  5
A767
  8
0
 10
3611.7878348248809743
 20
304.6491733555037058
 30
0.0
 11
3611.8048825746259354
 21
304.6541663889203164
 31
0.0
  0
LINE
  5
A768
  8
0
 10
3611.8048825746259354
 20
304.6541663889203164
 30
0.0
 11
3611.8219303132809728
 21
304.6491733555037058
 31
0.0
  0
LINE
  5
A769
  8
0
 10
3611.8219303132809728
 20
304.6491733555037058
 30
0.0
 11
3611.8219303132809728
 21
304.6385573676797094
 31
0.0
  0
LINE
  5
A76A
  8
0
 10
3611.8219303132809728
 20
304.6385573676797094
 30
0.0
 11
3611.8048825746809598
 21
304.6329278116235173
 31
0.0
  0
LINE
  5
A76B
  8
0
 10
3611.8327214187038408
 20
304.6482957692358013
 30
0.0
 11
3611.8156736745809212
 21
304.6533244431035996
 31
0.0
  0
LINE
  5
A76C
  8
0
 10
3611.8156736745809212
 20
304.6533244431035996
 30
0.0
 11
3611.8156736745650051
 21
304.6627643893664867
 31
0.0
  0
LINE
  5
A76D
  8
0
 10
3611.8156736745650051
 20
304.6627643893664867
 30
0.0
 11
3611.8327214243349772
 21
304.6671803107083178
 31
0.0
  0
LINE
  5
A76E
  8
0
 10
3611.8327214243349772
 20
304.6671803107083178
 30
0.0
 11
3611.8497691628808752
 21
304.6627643893708068
 31
0.0
  0
LINE
  5
A76F
  8
0
 10
3611.8497691628808752
 20
304.6627643893708068
 30
0.0
 11
3611.8497691629149813
 21
304.6533244430623881
 31
0.0
  0
LINE
  5
A770
  8
0
 10
3611.8497691629149813
 20
304.6533244430623881
 30
0.0
 11
3611.8327214187038408
 21
304.6482957692358013
 31
0.0
  0
LINE
  5
A771
  8
0
 10
3611.7770437193330508
 20
304.6482957692284117
 30
0.0
 11
3611.7599959752810719
 21
304.6533244430236778
 31
0.0
  0
LINE
  5
A772
  8
0
 10
3611.7599959752810719
 20
304.6533244430236778
 30
0.0
 11
3611.7599959752810719
 21
304.6627643894036055
 31
0.0
  0
LINE
  5
A773
  8
0
 10
3611.7599959752810719
 20
304.6627643894036055
 30
0.0
 11
3611.7770431188441762
 21
304.6671804845685188
 31
0.0
  0
LINE
  5
A774
  8
0
 10
3611.7770431188441762
 20
304.6671804845685188
 30
0.0
 11
3611.7940908575001231
 21
304.6627645499439723
 31
0.0
  0
LINE
  5
A775
  8
0
 10
3611.7940908575001231
 20
304.6627645499439723
 30
0.0
 11
3611.7940914635810259
 21
304.6533244430526111
 31
0.0
  0
LINE
  5
A776
  8
0
 10
3611.7940914635810259
 20
304.6533244430526111
 30
0.0
 11
3611.7770437193330508
 21
304.6482957692284117
 31
0.0
  0
LINE
  5
A777
  8
0
 10
3611.7770437194571969
 20
304.6158023412427269
 30
0.0
 11
3611.7599959752810719
 21
304.6220640872036256
 31
0.0
  0
LINE
  5
A778
  8
0
 10
3611.7599959752810719
 20
304.6220640872036256
 30
0.0
 11
3611.7601756704821128
 21
304.6339692508731218
 31
0.0
  0
LINE
  5
A779
  8
0
 10
3611.7601756704821128
 20
304.6339692508731218
 30
0.0
 11
3611.7770431187909708
 21
304.6395016584078235
 31
0.0
  0
LINE
  5
A77A
  8
0
 10
3611.7770431187909708
 20
304.6395016584078235
 30
0.0
 11
3611.7940908866357859
 21
304.6339093633332027
 31
0.0
  0
LINE
  5
A77B
  8
0
 10
3611.7940908866357859
 20
304.6339093633332027
 30
0.0
 11
3611.7940914636169509
 21
304.6220640872371064
 31
0.0
  0
LINE
  5
A77C
  8
0
 10
3611.7940914636169509
 20
304.6220640872371064
 30
0.0
 11
3611.7770437194571969
 21
304.6158023412427269
 31
0.0
  0
LINE
  5
A77D
  8
0
 10
3611.7770437193807993
 20
304.5758080716036034
 30
0.0
 11
3611.7599959751901224
 21
304.5834743799056241
 31
0.0
  0
LINE
  5
A77E
  8
0
 10
3611.7599959751901224
 20
304.5834743799056241
 30
0.0
 11
3611.7599959752810719
 21
304.5980184016036105
 31
0.0
  0
LINE
  5
A77F
  8
0
 10
3611.7599959752810719
 20
304.5980184016036105
 30
0.0
 11
3611.7770431187909708
 21
304.6049122471026749
 31
0.0
  0
LINE
  5
A780
  8
0
 10
3611.7770431187909708
 20
304.6049122471026749
 30
0.0
 11
3611.7940908574460082
 21
304.5980186510963108
 31
0.0
  0
LINE
  5
A781
  8
0
 10
3611.7940908574460082
 20
304.5980186510963108
 30
0.0
 11
3611.7940914635810259
 21
304.5834743799093189
 31
0.0
  0
LINE
  5
A782
  8
0
 10
3611.7940914635810259
 20
304.5834743799093189
 30
0.0
 11
3611.7770437193807993
 21
304.5758080716036034
 31
0.0
  0
LINE
  5
A783
  8
0
 10
3611.8327214186811034
 20
304.5758080716036034
 30
0.0
 11
3611.8156736745809212
 21
304.5834743798650948
 31
0.0
  0
LINE
  5
A784
  8
0
 10
3611.8156736745809212
 20
304.5834743798650948
 30
0.0
 11
3611.8156736745809212
 21
304.5980184015944019
 31
0.0
  0
LINE
  5
A785
  8
0
 10
3611.8156736745809212
 20
304.5980184015944019
 30
0.0
 11
3611.8327208181458445
 21
304.6049122471201827
 31
0.0
  0
LINE
  5
A786
  8
0
 10
3611.8327208181458445
 20
304.6049122471201827
 30
0.0
 11
3611.8497691628808752
 21
304.5980184015944019
 31
0.0
  0
LINE
  5
A787
  8
0
 10
3611.8497691628808752
 20
304.5980184015944019
 30
0.0
 11
3611.8497691628808752
 21
304.5834743799093189
 31
0.0
  0
LINE
  5
A788
  8
0
 10
3611.8497691628808752
 20
304.5834743799093189
 30
0.0
 11
3611.8327214186811034
 21
304.5758080716036034
 31
0.0
  0
LINE
  5
A789
  8
0
 10
3611.8327214186811034
 20
304.6158023413036062
 30
0.0
 11
3611.8156730684081595
 21
304.6220643057974939
 31
0.0
  0
LINE
  5
A78A
  8
0
 10
3611.8156730684081595
 20
304.6220643057974939
 30
0.0
 11
3611.8158533698428982
 21
304.6339692508934718
 31
0.0
  0
LINE
  5
A78B
  8
0
 10
3611.8158533698428982
 20
304.6339692508934718
 30
0.0
 11
3611.8327208181531205
 21
304.6395016584252744
 31
0.0
  0
LINE
  5
A78C
  8
0
 10
3611.8327208181531205
 20
304.6395016584252744
 30
0.0
 11
3611.8497691629290784
 21
304.6339091703786721
 31
0.0
  0
LINE
  5
A78D
  8
0
 10
3611.8497691629290784
 20
304.6339091703786721
 30
0.0
 11
3611.8497691628808752
 21
304.6220640872036256
 31
0.0
  0
LINE
  5
A78E
  8
0
 10
3611.8497691628808752
 20
304.6220640872036256
 30
0.0
 11
3611.8327214186811034
 21
304.6158023413036062
 31
0.0
  0
LINE
  5
A78F
  8
0
 10
3611.8048825746809598
 20
304.6619864919686052
 30
0.0
 11
3611.8219303132809728
 21
304.666436926703625
 31
0.0
  0
LINE
  5
A790
  8
0
 10
3611.8219303132809728
 20
304.666436926703625
 30
0.0
 11
3611.821964788582136
 21
304.6698390101227005
 31
0.0
  0
LINE
  5
A791
  8
0
 10
3611.7537014666809227
 20
304.6528695263518784
 30
0.0
 11
3611.7662526138738031
 21
304.6491733555184283
 31
0.0
  0
LINE
  5
A792
  8
0
 10
3611.7662526138738031
 20
304.6491733555184283
 30
0.0
 11
3611.7662526139811234
 21
304.6385573677035836
 31
0.0
  0
LINE
  5
A793
  8
0
 10
3611.7662526139811234
 20
304.6385573677035836
 30
0.0
 11
3611.7537014667118456
 21
304.6344338290911082
 31
0.0
  0
LINE
  5
A794
  8
0
 10
3611.7537014666809227
 20
304.6214964087341741
 30
0.0
 11
3611.7662526139811234
 21
304.6168930896204756
 31
0.0
  0
LINE
  5
A795
  8
0
 10
3611.7662526139811234
 20
304.6168930896204756
 30
0.0
 11
3611.7662526139811234
 21
304.6037467453708132
 31
0.0
  0
LINE
  5
A796
  8
0
 10
3611.7662526139811234
 20
304.6037467453708132
 30
0.0
 11
3611.7537014666809227
 21
304.5986642829930133
 31
0.0
  0
LINE
  5
A797
  8
0
 10
3611.7537014666809227
 20
304.5827788588258045
 30
0.0
 11
3611.7662526139320107
 21
304.5771426723853779
 31
0.0
  0
LINE
  5
A798
  8
0
 10
3611.7662526139320107
 20
304.5771426723853779
 30
0.0
 11
3611.7662526139811234
 21
304.5610724543254832
 31
0.0
  0
LINE
  5
A799
  8
0
 10
3611.7662526139811234
 20
304.5610724543254832
 30
0.0
 11
3611.7537014666809227
 21
304.554864692465685
 31
0.0
  0
LINE
  5
A79A
  8
0
 10
3611.8048825746809598
 20
304.5380978347890846
 30
0.0
 11
3611.8156736745809212
 21
304.5380978347890846
 31
0.0
  0
LINE
  5
A79B
  8
0
 10
3611.8156736745809212
 20
304.5380978347890846
 30
0.0
 11
3611.8156736745809212
 21
304.5540758548069107
 31
0.0
  0
LINE
  5
A79C
  8
0
 10
3611.8156736745809212
 20
304.5540758548069107
 30
0.0
 11
3611.8327214187379468
 21
304.5624959935014999
 31
0.0
  0
LINE
  5
A79D
  8
0
 10
3611.8327214187379468
 20
304.5624959935014999
 30
0.0
 11
3611.8497691628808752
 21
304.5540758548069107
 31
0.0
  0
LINE
  5
A79E
  8
0
 10
3611.8497691629581823
 20
304.5540758547680866
 30
0.0
 11
3611.8497691628808752
 21
304.5396481094035721
 31
0.0
  0
LINE
  5
A79F
  8
0
 10
3611.8497691628808752
 20
304.5396481094035721
 30
0.0
 11
3611.8560636713850727
 21
304.5401143261178731
 31
0.0
  0
LINE
  5
A7A0
  8
0
 10
3611.8497691628781467
 20
304.5402085406601032
 30
0.0
 11
3611.8327214186401761
 21
304.5407660648093042
 31
0.0
  0
LINE
  5
A7A1
  8
0
 10
3611.8327214186388119
 20
304.5407660648093042
 30
0.0
 11
3611.8156736745449962
 21
304.5385021893658859
 31
0.0
  0
LINE
  5
A7A2
  8
0
 10
3611.7770437193807993
 20
304.6671803290095113
 30
0.0
 11
3611.7770437193807993
 21
304.6482957692144282
 31
0.0
  0
LINE
  5
A7A3
  8
0
 10
3611.7770437193807993
 20
304.6395014613921148
 30
0.0
 11
3611.7770437193807993
 21
304.6158023412706939
 31
0.0
  0
LINE
  5
A7A4
  8
0
 10
3611.7770437193807993
 20
304.6049120042418963
 30
0.0
 11
3611.7770437193807993
 21
304.5758080716037171
 31
0.0
  0
LINE
  5
A7A5
  8
0
 10
3611.7770437193807993
 20
304.5624959934801268
 30
0.0
 11
3611.7770437193807993
 21
304.5407660648573938
 31
0.0
  0
LINE
  5
A7A6
  8
0
 10
3611.8327214186811034
 20
304.6671803121728885
 30
0.0
 11
3611.8327214186811034
 21
304.6482957692426794
 31
0.0
  0
LINE
  5
A7A7
  8
0
 10
3611.8327214186811034
 20
304.6395014614296883
 30
0.0
 11
3611.8327214186811034
 21
304.6158023413036062
 31
0.0
  0
LINE
  5
A7A8
  8
0
 10
3611.8327214186811034
 20
304.6049120042816867
 30
0.0
 11
3611.8327214186811034
 21
304.5758080716036034
 31
0.0
  0
LINE
  5
A7A9
  8
0
 10
3611.8327214186811034
 20
304.562495993473874
 30
0.0
 11
3611.8327214186811034
 21
304.5407660648078831
 31
0.0
  0
LINE
  5
A7AA
  8
0
 10
3611.8435125219548354
 20
304.6696121556228718
 30
0.0
 11
3611.8435125228720608
 21
304.6664369378107722
 31
0.0
  0
LINE
  5
A7AB
  8
0
 10
3611.8435125228720608
 20
304.6664369378107722
 30
0.0
 11
3611.8560636711122243
 21
304.6631799384234114
 31
0.0
  0
LINE
  5
A7AC
  8
0
 10
3611.8560636740890004
 20
304.6528695411304852
 30
0.0
 11
3611.8435125279647764
 21
304.649173366672926
 31
0.0
  0
LINE
  5
A7AD
  8
0
 10
3611.8435125279647764
 20
304.649173366672926
 30
0.0
 11
3611.8435125309219984
 21
304.6385573788580814
 31
0.0
  0
LINE
  5
A7AE
  8
0
 10
3611.8435125309219984
 20
304.6385573788580814
 30
0.0
 11
3611.8560636793818048
 21
304.6344338438696013
 31
0.0
  0
LINE
  5
A7AF
  8
0
 10
3611.8560636831480224
 20
304.6214964235128946
 30
0.0
 11
3611.8435125371770482
 21
304.6168931007749734
 31
0.0
  0
LINE
  5
A7B0
  8
0
 10
3611.8435125371770482
 20
304.6168931007749734
 30
0.0
 11
3611.8435125409741886
 21
304.6037467565251973
 31
0.0
  0
LINE
  5
A7B1
  8
0
 10
3611.8435125409741886
 20
304.6037467565251973
 30
0.0
 11
3611.8560636897409495
 21
304.5986642977716201
 31
0.0
  0
LINE
  5
A7B2
  8
0
 10
3611.856063694327986
 20
304.5827788736044113
 30
0.0
 11
3611.8435125487048936
 21
304.5771426835398756
 31
0.0
  0
LINE
  5
A7B3
  8
0
 10
3611.8435125487048936
 20
304.5771426835398756
 30
0.0
 11
3611.8435125532960228
 21
304.561072465479981
 31
0.0
  0
LINE
  5
A7B4
  8
0
 10
3611.8435125532960228
 20
304.561072465479981
 30
0.0
 11
3611.8560637023888376
 21
304.5548647072442918
 31
0.0
  0
LINE
  5
A7B5
  8
0
 10
3611.856063682490003
 20
304.6694721830858725
 30
0.0
 11
3611.8560636831939519
 21
304.5346359369036122
 31
0.0
  0
LINE
  5
A7B6
  8
0
 10
3611.7222054036810732
 20
304.6690917960938805
 30
0.0
 11
3611.7222054036810732
 21
304.6468246935036177
 31
0.0
  0
LINE
  5
A7B7
  8
0
 10
3611.7222054036810732
 20
304.6468246935036177
 30
0.0
 11
3611.7213660201127823
 21
304.6466489063006975
 31
0.0
  0
LINE
  5
A7B8
  8
0
 10
3611.7213660201127823
 20
304.6466489063006975
 30
0.0
 11
3611.72136602008095
 21
304.6690812898098102
 31
0.0
  0
LINE
  5
A7B9
  8
0
 10
3611.72136602008095
 20
304.64664890629399
 30
0.0
 11
3611.7043182759621232
 21
304.6554196751039854
 31
0.0
  0
LINE
  5
A7BA
  8
0
 10
3611.7043182759621232
 20
304.6554196751039854
 30
0.0
 11
3611.7043182759812225
 21
304.6681574279036226
 31
0.0
  0
LINE
  5
A7BB
  8
0
 10
3611.7043182759812225
 20
304.6681574279036226
 30
0.0
 11
3611.7078389846979007
 21
304.6689083993064173
 31
0.0
  0
LINE
  5
A7BC
  8
0
 10
3611.6827360649808725
 20
304.6685697061332121
 30
0.0
 11
3611.6827360649808725
 21
304.6595789220036181
 31
0.0
  0
LINE
  5
A7BD
  8
0
 10
3611.6827360649808725
 20
304.6595789220036181
 30
0.0
 11
3611.665688320837944
 21
304.6573284611554868
 31
0.0
  0
LINE
  5
A7BE
  8
0
 10
3611.665688320837944
 20
304.6573284611554868
 30
0.0
 11
3611.6481410276937822
 21
304.6680649263872738
 31
0.0
  0
LINE
  5
A7BF
  8
0
 10
3611.6656883209138869
 20
304.6573284611640133
 30
0.0
 11
3611.6656883207811006
 21
304.6683264674696261
 31
0.0
  0
LINE
  5
A7C0
  8
0
 10
3611.6440077296319942
 20
304.668001670235185
 30
0.0
 11
3611.6548972153032082
 21
304.6610929255465976
 31
0.0
  0
LINE
  5
A7C1
  8
0
 10
3611.6548972153032082
 20
304.6610929255465976
 30
0.0
 11
3611.6548972152809256
 21
304.6492838580036278
 31
0.0
  0
LINE
  5
A7C2
  8
0
 10
3611.6548972152809256
 20
304.6492838580036278
 30
0.0
 11
3611.6378494711962048
 21
304.6483309205564183
 31
0.0
  0
LINE
  5
A7C3
  8
0
 10
3611.6378494711962048
 20
304.6483309205564183
 30
0.0
 11
3611.6208017269527772
 21
304.6592422512622989
 31
0.0
  0
LINE
  5
A7C4
  8
0
 10
3611.6208017269527772
 20
304.6592422512622989
 30
0.0
 11
3611.6208017269527772
 21
304.6676348451806007
 31
0.0
  0
LINE
  5
A7C5
  8
0
 10
3611.6378494729701742
 20
304.64833092065561
 30
0.0
 11
3611.6378494729701742
 21
304.6679062573073224
 31
0.0
  0
LINE
  5
A7C6
  8
0
 10
3611.5713806663388823
 20
304.6619407558624175
 30
0.0
 11
3611.5713806663388823
 21
304.666787550397828
 31
0.0
  0
LINE
  5
A7C7
  8
0
 10
3611.5713806663811738
 20
304.6619407559035722
 30
0.0
 11
3611.5543329223341971
 21
304.6641649584406082
 31
0.0
  0
LINE
  5
A7C8
  8
0
 10
3611.5543329223341971
 20
304.6641649584406082
 30
0.0
 11
3611.5543329223341971
 21
304.6664744144666201
 31
0.0
  0
LINE
  5
A7C9
  8
0
 10
3611.5929628773419608
 20
304.6643065724941266
 30
0.0
 11
3611.5929628772810247
 21
304.6533367227236795
 31
0.0
  0
LINE
  5
A7CA
  8
0
 10
3611.5929628772810247
 20
304.6533367227236795
 30
0.0
 11
3611.6100106214807965
 21
304.6420339095035956
 31
0.0
  0
LINE
  5
A7CB
  8
0
 10
3611.6100106214807965
 20
304.6420339095035956
 30
0.0
 11
3611.6270583656501003
 21
304.6416769765938852
 31
0.0
  0
LINE
  5
A7CC
  8
0
 10
3611.6270583656501003
 20
304.6416769765938852
 30
0.0
 11
3611.6270583656810231
 21
304.6525364928108957
 31
0.0
  0
LINE
  5
A7CD
  8
0
 10
3611.6270583656810231
 20
304.6525364928108957
 30
0.0
 11
3611.6100106214807965
 21
304.6638617073410273
 31
0.0
  0
LINE
  5
A7CE
  8
0
 10
3611.6100106214807965
 20
304.6638617073410273
 30
0.0
 11
3611.5929628773419608
 21
304.6643065724941266
 31
0.0
  0
LINE
  5
A7CF
  8
0
 10
3611.6100106215108099
 20
304.6638617074455055
 30
0.0
 11
3611.6100106271960613
 21
304.6420339093839971
 31
0.0
  0
LINE
  5
A7D0
  8
0
 10
3611.5104568991628184
 20
304.6519876779397009
 30
0.0
 11
3611.5264940771239708
 21
304.6399450867833139
 31
0.0
  0
LINE
  5
A7D1
  8
0
 10
3611.5264940771239708
 20
304.6399450867833139
 30
0.0
 11
3611.5435418166812269
 21
304.635361359203614
 31
0.0
  0
LINE
  5
A7D2
  8
0
 10
3611.5435418166812269
 20
304.635361359203614
 30
0.0
 11
3611.5435418166812269
 21
304.643424006203702
 31
0.0
  0
LINE
  5
A7D3
  8
0
 10
3611.5435418166812269
 20
304.643424006203702
 30
0.0
 11
3611.5264940728779948
 21
304.6561399735841746
 31
0.0
  0
LINE
  5
A7D4
  8
0
 10
3611.5264940728779948
 20
304.6561399735841746
 30
0.0
 11
3611.5188334004660646
 21
304.658177917855312
 31
0.0
  0
LINE
  5
A7D5
  8
0
 10
3611.5264940729080081
 20
304.6561399736887097
 30
0.0
 11
3611.5264940771239708
 21
304.6399450867833139
 31
0.0
  0
LINE
  5
A7D6
  8
0
 10
3611.5372851780680321
 20
304.6352163446528039
 30
0.0
 11
3611.5372851779789016
 21
304.6281417550288779
 31
0.0
  0
LINE
  5
A7D7
  8
0
 10
3611.5372851780321071
 20
304.6281417549927824
 30
0.0
 11
3611.5544091891060816
 21
304.6169306593478723
 31
0.0
  0
LINE
  5
A7D8
  8
0
 10
3611.5544091891060816
 20
304.6169306593478723
 30
0.0
 11
3611.5713806663811738
 21
304.6129310853359016
 31
0.0
  0
LINE
  5
A7D9
  8
0
 10
3611.5713806663811738
 20
304.6129310853359016
 30
0.0
 11
3611.5713806664011827
 21
304.6199763667942761
 31
0.0
  0
LINE
  5
A7DA
  8
0
 10
3611.5713806664011827
 20
304.6199763667942761
 30
0.0
 11
3611.5543329232659744
 21
304.631069606425001
 31
0.0
  0
LINE
  5
A7DB
  8
0
 10
3611.5543329232659744
 20
304.631069606425001
 30
0.0
 11
3611.5372851780680321
 21
304.6352163446528039
 31
0.0
  0
LINE
  5
A7DC
  8
0
 10
3611.5543329232959877
 20
304.6310696065294792
 30
0.0
 11
3611.5543329269730748
 21
304.6169503893306114
 31
0.0
  0
LINE
  5
A7DD
  8
0
 10
3611.5651240276811222
 20
304.6257065985037116
 30
0.0
 11
3611.5651240276811222
 21
304.6337317296035962
 31
0.0
  0
LINE
  5
A7DE
  8
0
 10
3611.5651240276811222
 20
304.6337317296035962
 30
0.0
 11
3611.5821717717531101
 21
304.6310379062015841
 31
0.0
  0
LINE
  5
A7DF
  8
0
 10
3611.5821717717531101
 20
304.6310379062015841
 30
0.0
 11
3611.5992195159810763
 21
304.6204244741035723
 31
0.0
  0
LINE
  5
A7E0
  8
0
 10
3611.5992195159810763
 20
304.6204244741035723
 30
0.0
 11
3611.5992195160620213
 21
304.6124485978518805
 31
0.0
  0
LINE
  5
A7E1
  8
0
 10
3611.5992195160620213
 20
304.6124485978518805
 30
0.0
 11
3611.5821717718808941
 21
304.6150378279036204
 31
0.0
  0
LINE
  5
A7E2
  8
0
 10
3611.5821717718808941
 20
304.6150378279036204
 30
0.0
 11
3611.5651240276811222
 21
304.6257065985037116
 31
0.0
  0
LINE
  5
A7E3
  8
0
 10
3611.582171771855883
 20
304.6310379061372942
 30
0.0
 11
3611.582171771855883
 21
304.6150378279194797
 31
0.0
  0
LINE
  5
A7E4
  8
0
 10
3611.6208017269809716
 20
304.6294750973036116
 30
0.0
 11
3611.6208017270091659
 21
304.6393494146860235
 31
0.0
  0
LINE
  5
A7E5
  8
0
 10
3611.6208017270091659
 20
304.6393494146860235
 30
0.0
 11
3611.6378283900799033
 21
304.6393588842273061
 31
0.0
  0
LINE
  5
A7E6
  8
0
 10
3611.6378283900799033
 20
304.6393588842273061
 30
0.0
 11
3611.6548972151817907
 21
304.6295555208699284
 31
0.0
  0
LINE
  5
A7E7
  8
0
 10
3611.6548972151817907
 20
304.6295555208699284
 30
0.0
 11
3611.6548972152809256
 21
304.6197506580036247
 31
0.0
  0
LINE
  5
A7E8
  8
0
 10
3611.6548972152809256
 20
304.6197506580036247
 30
0.0
 11
3611.637849471203026
 21
304.6196809610107721
 31
0.0
  0
LINE
  5
A7E9
  8
0
 10
3611.637849471203026
 20
304.6196809610107721
 30
0.0
 11
3611.6208017269809716
 21
304.6294750973036116
 31
0.0
  0
LINE
  5
A7EA
  8
0
 10
3611.637828390183131
 20
304.6393588841630731
 30
0.0
 11
3611.6378494711771054
 21
304.6196809610266882
 31
0.0
  0
LINE
  5
A7EB
  8
0
 10
3611.5929628772810247
 20
304.6259359508850935
 30
0.0
 11
3611.5929628773428703
 21
304.6351494442649255
 31
0.0
  0
LINE
  5
A7EC
  8
0
 10
3611.5929628773428703
 20
304.6351494442649255
 30
0.0
 11
3611.6100106214148582
 21
304.6338324678567915
 31
0.0
  0
LINE
  5
A7ED
  8
0
 10
3611.6100106214148582
 20
304.6338324678567915
 30
0.0
 11
3611.6270583656810231
 21
304.6236456390037119
 31
0.0
  0
LINE
  5
A7EE
  8
0
 10
3611.6270583656810231
 20
304.6236456390037119
 30
0.0
 11
3611.6270583656810231
 21
304.6147546366036067
 31
0.0
  0
LINE
  5
A7EF
  8
0
 10
3611.6270583656810231
 20
304.6147546366036067
 30
0.0
 11
3611.6100106215289998
 21
304.6159892423005999
 31
0.0
  0
LINE
  5
A7F0
  8
0
 10
3611.6100106215289998
 20
304.6159892423005999
 30
0.0
 11
3611.5929628772810247
 21
304.6259359508850935
 31
0.0
  0
LINE
  5
A7F1
  8
0
 10
3611.6100106215180858
 20
304.6338324677926153
 30
0.0
 11
3611.6100106215039887
 21
304.6159892423165729
 31
0.0
  0
LINE
  5
A7F2
  8
0
 10
3611.6486405766809185
 20
304.6354586435201099
 30
0.0
 11
3611.6486405766809185
 21
304.6462613391429954
 31
0.0
  0
LINE
  5
A7F3
  8
0
 10
3611.6486405766809185
 20
304.6462613391429954
 30
0.0
 11
3611.6656883207620012
 21
304.6475703930672125
 31
0.0
  0
LINE
  5
A7F4
  8
0
 10
3611.6656883207620012
 20
304.6475703930672125
 30
0.0
 11
3611.6827360649808725
 21
304.6381132059036076
 31
0.0
  0
LINE
  5
A7F5
  8
0
 10
3611.6827360649808725
 20
304.6381132059036076
 30
0.0
 11
3611.6827360649808725
 21
304.6273823125035847
 31
0.0
  0
LINE
  5
A7F6
  8
0
 10
3611.6827360649808725
 20
304.6273823125035847
 30
0.0
 11
3611.6659236979330672
 21
304.6260514243447233
 31
0.0
  0
LINE
  5
A7F7
  8
0
 10
3611.6659236979330672
 20
304.6260514243447233
 30
0.0
 11
3611.6486405766809185
 21
304.6354586435201099
 31
0.0
  0
LINE
  5
A7F8
  8
0
 10
3611.6656883208647741
 20
304.6475703930029226
 30
0.0
 11
3611.6659236979071466
 21
304.6260514243605826
 31
0.0
  0
LINE
  5
A7F9
  8
0
 10
3611.6764794262808209
 20
304.6441066062035929
 30
0.0
 11
3611.6764794261971474
 21
304.6558588533156922
 31
0.0
  0
LINE
  5
A7FA
  8
0
 10
3611.6764794261971474
 20
304.6558588533156922
 30
0.0
 11
3611.6935271703778199
 21
304.6584596460580201
 31
0.0
  0
LINE
  5
A7FB
  8
0
 10
3611.6935271703778199
 20
304.6584596460580201
 30
0.0
 11
3611.7105749145971458
 21
304.6493180177760109
 31
0.0
  0
LINE
  5
A7FC
  8
0
 10
3611.7105749145971458
 20
304.6493180177760109
 30
0.0
 11
3611.7105749145789559
 21
304.6376352197128767
 31
0.0
  0
LINE
  5
A7FD
  8
0
 10
3611.7105749145789559
 20
304.6376352197128767
 30
0.0
 11
3611.6935271704192019
 21
304.6350247613132751
 31
0.0
  0
LINE
  5
A7FE
  8
0
 10
3611.6935271704192019
 20
304.6350247613132751
 30
0.0
 11
3611.6764794262808209
 21
304.6441066062035929
 31
0.0
  0
LINE
  5
A7FF
  8
0
 10
3611.6935271704810475
 20
304.6584596459936733
 30
0.0
 11
3611.6935271703928265
 21
304.6350247613291913
 31
0.0
  0
LINE
  5
A800
  8
0
 10
3611.6764794262808209
 20
304.6146916647036278
 30
0.0
 11
3611.676479426232163
 21
304.6244613951407132
 31
0.0
  0
LINE
  5
A801
  8
0
 10
3611.676479426232163
 20
304.6244613951407132
 30
0.0
 11
3611.6935271704091974
 21
304.6261505332627166
 31
0.0
  0
LINE
  5
A802
  8
0
 10
3611.6935271704091974
 20
304.6261505332627166
 30
0.0
 11
3611.7105749145807749
 21
304.6180916995036227
 31
0.0
  0
LINE
  5
A803
  8
0
 10
3611.7105749145807749
 20
304.6180916995036227
 30
0.0
 11
3611.7105749146121525
 21
304.6083649794986741
 31
0.0
  0
LINE
  5
A804
  8
0
 10
3611.7105749146121525
 20
304.6083649794986741
 30
0.0
 11
3611.6935271704810475
 21
304.6066543351950031
 31
0.0
  0
LINE
  5
A805
  8
0
 10
3611.6935271704810475
 20
304.6066543351950031
 30
0.0
 11
3611.6764794262808209
 21
304.6146916647036278
 31
0.0
  0
LINE
  5
A806
  8
0
 10
3611.6935271705119703
 20
304.6261505331984267
 30
0.0
 11
3611.6935271704551269
 21
304.6066543352109193
 31
0.0
  0
LINE
  5
A807
  8
0
 10
3611.5094463283808182
 20
304.6337008814036267
 30
0.0
 11
3611.5094463283808182
 21
304.6397838931035835
 31
0.0
  0
LINE
  5
A808
  8
0
 10
3611.5094463283808182
 20
304.6397838931035835
 30
0.0
 11
3611.5264940724778171
 21
304.6340754531116204
 31
0.0
  0
LINE
  5
A809
  8
0
 10
3611.5264940724778171
 20
304.6340754531116204
 30
0.0
 11
3611.5435418166189265
 21
304.6224360157565911
 31
0.0
  0
LINE
  5
A80A
  8
0
 10
3611.5435418166189265
 20
304.6224360157565911
 30
0.0
 11
3611.5435418166812269
 21
304.6163530040037131
 31
0.0
  0
LINE
  5
A80B
  8
0
 10
3611.5435418166812269
 20
304.6163530040037131
 30
0.0
 11
3611.5264940726751774
 21
304.6219094295727245
 31
0.0
  0
LINE
  5
A80C
  8
0
 10
3611.5264940726751774
 20
304.6219094295727245
 30
0.0
 11
3611.5094463283808182
 21
304.6337008814036267
 31
0.0
  0
LINE
  5
A80D
  8
0
 10
3611.5264940725810447
 20
304.6340754530472736
 30
0.0
 11
3611.5264940726488021
 21
304.6219094295885839
 31
0.0
  0
LINE
  5
A80E
  8
0
 10
3611.5094463283639925
 20
304.6202781612739727
 30
0.0
 11
3611.5094463283808182
 21
304.6244461105035839
 31
0.0
  0
LINE
  5
A80F
  8
0
 10
3611.5094463283808182
 20
304.6244461105035839
 30
0.0
 11
3611.5264940720408049
 21
304.6177004032641094
 31
0.0
  0
LINE
  5
A810
  8
0
 10
3611.5264940720408049
 20
304.6177004032641094
 30
0.0
 11
3611.5435418166230193
 21
304.6070336604079216
 31
0.0
  0
LINE
  5
A811
  8
0
 10
3611.5435418166230193
 20
304.6070336604079216
 30
0.0
 11
3611.5435418166639465
 21
304.6029302838740023
 31
0.0
  0
LINE
  5
A812
  8
0
 10
3611.5435418166639465
 20
304.6029302838740023
 30
0.0
 11
3611.5268747479121885
 21
304.6094052438693893
 31
0.0
  0
LINE
  5
A813
  8
0
 10
3611.5268747479121885
 20
304.6094052438693893
 30
0.0
 11
3611.5094463283639925
 21
304.6202781612739727
 31
0.0
  0
LINE
  5
A814
  8
0
 10
3611.5264940721440325
 20
304.6177004031998194
 30
0.0
 11
3611.5268747478871774
 21
304.6094052438853055
 31
0.0
  0
LINE
  5
A815
  8
0
 10
3611.5372851779811754
 20
304.6119279777036013
 30
0.0
 11
3611.5372851780812198
 21
304.617077383070523
 31
0.0
  0
LINE
  5
A816
  8
0
 10
3611.5372851780812198
 20
304.617077383070523
 30
0.0
 11
3611.5543329223010005
 21
304.611911060411785
 31
0.0
  0
LINE
  5
A817
  8
0
 10
3611.5543329223010005
 20
304.611911060411785
 30
0.0
 11
3611.5713806663297873
 21
304.6018087417880906
 31
0.0
  0
LINE
  5
A818
  8
0
 10
3611.5713806663297873
 20
304.6018087417880906
 30
0.0
 11
3611.5713806663811738
 21
304.5966879998205172
 31
0.0
  0
LINE
  5
A819
  8
0
 10
3611.5713806663811738
 20
304.5966879998205172
 30
0.0
 11
3611.5543329223751243
 21
304.6016982281010996
 31
0.0
  0
LINE
  5
A81A
  8
0
 10
3611.5543329223751243
 20
304.6016982281010996
 30
0.0
 11
3611.5372851779811754
 21
304.6119279777036013
 31
0.0
  0
LINE
  5
A81B
  8
0
 10
3611.5543329224037734
 20
304.6119110603476088
 30
0.0
 11
3611.5543329223492037
 21
304.6016982281170158
 31
0.0
  0
LINE
  5
A81C
  8
0
 10
3611.5372851779811754
 20
304.6013742640503779
 30
0.0
 11
3611.5372851780398378
 21
304.6044124298417728
 31
0.0
  0
LINE
  5
A81D
  8
0
 10
3611.5372851780398378
 20
304.6044124298417728
 30
0.0
 11
3611.5544470171121247
 21
304.5982186802455089
 31
0.0
  0
LINE
  5
A81E
  8
0
 10
3611.5544470171121247
 20
304.5982186802455089
 30
0.0
 11
3611.5713806663497962
 21
304.5890999624933784
 31
0.0
  0
LINE
  5
A81F
  8
0
 10
3611.5713806663497962
 20
304.5890999624933784
 30
0.0
 11
3611.5713806663811738
 21
304.5859347690035861
 31
0.0
  0
LINE
  5
A820
  8
0
 10
3611.5713806663811738
 20
304.5859347690035861
 30
0.0
 11
3611.5543329222477951
 21
304.5920411749511914
 31
0.0
  0
LINE
  5
A821
  8
0
 10
3611.5543329222477951
 20
304.5920411749511914
 30
0.0
 11
3611.5372851779811754
 21
304.6013742640503779
 31
0.0
  0
LINE
  5
A822
  8
0
 10
3611.5544470172148976
 20
304.598218680181219
 30
0.0
 11
3611.5543329222218745
 21
304.5920411749672212
 31
0.0
  0
LINE
  5
A823
  8
0
 10
3611.5651240276588396
 20
304.5932380072961791
 30
0.0
 11
3611.565124027677939
 21
304.5973422928647096
 31
0.0
  0
LINE
  5
A824
  8
0
 10
3611.565124027677939
 20
304.5973422928647096
 30
0.0
 11
3611.5821717717249157
 21
304.592793140829599
 31
0.0
  0
LINE
  5
A825
  8
0
 10
3611.5821717717249157
 20
304.592793140829599
 30
0.0
 11
3611.599219515940149
 21
304.584034128337521
 31
0.0
  0
LINE
  5
A826
  8
0
 10
3611.599219515940149
 20
304.584034128337521
 30
0.0
 11
3611.5992195159810763
 21
304.5799307518036017
 31
0.0
  0
LINE
  5
A827
  8
0
 10
3611.5992195159810763
 20
304.5799307518036017
 30
0.0
 11
3611.5821717719090884
 21
304.5844611721810793
 31
0.0
  0
LINE
  5
A828
  8
0
 10
3611.5821717719090884
 20
304.5844611721810793
 30
0.0
 11
3611.5651240276588396
 21
304.5932380072961791
 31
0.0
  0
LINE
  5
A829
  8
0
 10
3611.5821717718281434
 20
304.5927931407654228
 30
0.0
 11
3611.5821717718849868
 21
304.5844611721969954
 31
0.0
  0
LINE
  5
A82A
  8
0
 10
3611.5651240276811222
 20
304.6067321623888233
 30
0.0
 11
3611.5651240277052239
 21
304.6128151740767862
 31
0.0
  0
LINE
  5
A82B
  8
0
 10
3611.5651240277052239
 20
304.6128151740767862
 30
0.0
 11
3611.5821717717781212
 21
304.6092079720045831
 31
0.0
  0
LINE
  5
A82C
  8
0
 10
3611.5821717717781212
 20
304.6092079720045831
 30
0.0
 11
3611.5992195159810763
 21
304.5996017275036252
 31
0.0
  0
LINE
  5
A82D
  8
0
 10
3611.5992195159810763
 20
304.5996017275036252
 30
0.0
 11
3611.5992195159810763
 21
304.5935187158054873
 31
0.0
  0
LINE
  5
A82E
  8
0
 10
3611.5992195159810763
 20
304.5935187158054873
 30
0.0
 11
3611.5821717718408763
 21
304.5970419485597063
 31
0.0
  0
LINE
  5
A82F
  8
0
 10
3611.5821717718408763
 20
304.5970419485597063
 30
0.0
 11
3611.5651240276811222
 21
304.6067321623888233
 31
0.0
  0
LINE
  5
A830
  8
0
 10
3611.5821717718808941
 20
304.6092079719404069
 30
0.0
 11
3611.5821717718167747
 21
304.5970419485756224
 31
0.0
  0
LINE
  5
A831
  8
0
 10
3611.5929628773601507
 20
304.5883082545390721
 30
0.0
 11
3611.592962877401078
 21
304.5933825786962075
 31
0.0
  0
LINE
  5
A832
  8
0
 10
3611.592962877401078
 20
304.5933825786962075
 30
0.0
 11
3611.6100106216731547
 21
304.5903142566601787
 31
0.0
  0
LINE
  5
A833
  8
0
 10
3611.6100106216731547
 20
304.5903142566601787
 30
0.0
 11
3611.6270583656810231
 21
304.5820973141131276
 31
0.0
  0
LINE
  5
A834
  8
0
 10
3611.6270583656810231
 20
304.5820973141131276
 30
0.0
 11
3611.6270583657242241
 21
304.5769410762237044
 31
0.0
  0
LINE
  5
A835
  8
0
 10
3611.6270583657242241
 20
304.5769410762237044
 30
0.0
 11
3611.6100106213229992
 21
304.5800215660001982
 31
0.0
  0
LINE
  5
A836
  8
0
 10
3611.6100106213229992
 20
304.5800215660001982
 30
0.0
 11
3611.5929628773601507
 21
304.5883082545390721
 31
0.0
  0
LINE
  5
A837
  8
0
 10
3611.6100106217768371
 20
304.5903142565958888
 30
0.0
 11
3611.6100106212970786
 21
304.580021566016228
 31
0.0
  0
LINE
  5
A838
  8
0
 10
3611.5929628772810247
 20
304.6045667294905002
 30
0.0
 11
3611.592962877402897
 21
304.6115966214485979
 31
0.0
  0
LINE
  5
A839
  8
0
 10
3611.592962877402897
 20
304.6115966214485979
 30
0.0
 11
3611.6100106216681525
 21
304.6093929445981985
 31
0.0
  0
LINE
  5
A83A
  8
0
 10
3611.6100106216681525
 20
304.6093929445981985
 30
0.0
 11
3611.6270583656810231
 21
304.6002294431838209
 31
0.0
  0
LINE
  5
A83B
  8
0
 10
3611.6270583656810231
 20
304.6002294431838209
 30
0.0
 11
3611.6270583656860254
 21
304.5932196576846991
 31
0.0
  0
LINE
  5
A83C
  8
0
 10
3611.6270583656860254
 20
304.5932196576846991
 30
0.0
 11
3611.6100106215239975
 21
304.5953535885888073
 31
0.0
  0
LINE
  5
A83D
  8
0
 10
3611.6100106215239975
 20
304.5953535885888073
 30
0.0
 11
3611.5929628772810247
 21
304.6045667294905002
 31
0.0
  0
LINE
  5
A83E
  8
0
 10
3611.6100106217709254
 20
304.6093929445340223
 30
0.0
 11
3611.6100106214980769
 21
304.5953535886047234
 31
0.0
  0
LINE
  5
A83F
  8
0
 10
3611.5651240276620229
 20
304.6502190080246919
 30
0.0
 11
3611.5653708044169434
 21
304.6602188973134844
 31
0.0
  0
LINE
  5
A840
  8
0
 10
3611.5653708044169434
 20
304.6602188973134844
 30
0.0
 11
3611.5821717711560268
 21
304.6584316811806161
 31
0.0
  0
LINE
  5
A841
  8
0
 10
3611.5821717711560268
 20
304.6584316811806161
 30
0.0
 11
3611.5992195159810763
 21
304.6467019736937232
 31
0.0
  0
LINE
  5
A842
  8
0
 10
3611.5992195159810763
 20
304.6467019736937232
 30
0.0
 11
3611.5992195159637959
 21
304.6367737935696027
 31
0.0
  0
LINE
  5
A843
  8
0
 10
3611.5992195159637959
 20
304.6367737935696027
 30
0.0
 11
3611.5821717718190484
 21
304.638473852018592
 31
0.0
  0
LINE
  5
A844
  8
0
 10
3611.5821717718190484
 20
304.638473852018592
 30
0.0
 11
3611.5651240276620229
 21
304.6502190080246919
 31
0.0
  0
LINE
  5
A845
  8
0
 10
3611.5821717712587997
 20
304.6584316811163831
 30
0.0
 11
3611.5821717717931278
 21
304.6384738520345081
 31
0.0
  0
LINE
  5
A846
  8
0
 10
3611.5372851781089594
 20
304.6499816315712792
 30
0.0
 11
3611.5372851779811754
 21
304.6590733416035732
 31
0.0
  0
LINE
  5
A847
  8
0
 10
3611.5372851779811754
 20
304.6590733416035732
 30
0.0
 11
3611.5543329222027751
 21
304.6558232641625068
 31
0.0
  0
LINE
  5
A848
  8
0
 10
3611.5543329222027751
 20
304.6558232641625068
 30
0.0
 11
3611.5713806663811738
 21
304.64363384644912
 31
0.0
  0
LINE
  5
A849
  8
0
 10
3611.5713806663811738
 20
304.64363384644912
 30
0.0
 11
3611.5713806663811738
 21
304.6346330166035727
 31
0.0
  0
LINE
  5
A84A
  8
0
 10
3611.5713806663811738
 20
304.6346330166035727
 30
0.0
 11
3611.5543329221950444
 21
304.6377327370692001
 31
0.0
  0
LINE
  5
A84B
  8
0
 10
3611.5543329221950444
 20
304.6377327370692001
 30
0.0
 11
3611.5372851781089594
 21
304.6499816315712792
 31
0.0
  0
LINE
  5
A84C
  8
0
 10
3611.5543329223060027
 20
304.6558232640982737
 30
0.0
 11
3611.5543329221700333
 21
304.6377327370851731
 31
0.0
  0
LINE
  5
A84D
  8
0
 10
3611.6208017269809716
 20
304.6052475939408737
 30
0.0
 11
3611.6208017270209893
 21
304.6131977522259717
 31
0.0
  0
LINE
  5
A84E
  8
0
 10
3611.6208017270209893
 20
304.6131977522259717
 30
0.0
 11
3611.6378494710779705
 21
304.612329363667925
 31
0.0
  0
LINE
  5
A84F
  8
0
 10
3611.6378494710779705
 20
304.612329363667925
 30
0.0
 11
3611.6548972152809256
 21
304.6035661983036107
 31
0.0
  0
LINE
  5
A850
  8
0
 10
3611.6548972152809256
 20
304.6035661983036107
 30
0.0
 11
3611.6548972153241266
 21
304.5956492507860958
 31
0.0
  0
LINE
  5
A851
  8
0
 10
3611.6548972153241266
 20
304.5956492507860958
 30
0.0
 11
3611.6378494711830172
 21
304.5964626883096003
 31
0.0
  0
LINE
  5
A852
  8
0
 10
3611.6378494711830172
 20
304.5964626883096003
 30
0.0
 11
3611.6208017269809716
 21
304.6052475939408737
 31
0.0
  0
LINE
  5
A853
  8
0
 10
3611.6378494711811982
 20
304.6123293636035783
 30
0.0
 11
3611.6378494711580061
 21
304.5964626883255164
 31
0.0
  0
LINE
  5
A854
  8
0
 10
3611.6208017269382253
 20
304.5863710478585062
 30
0.0
 11
3611.6208017269691481
 21
304.5924239965393099
 31
0.0
  0
LINE
  5
A855
  8
0
 10
3611.6208017269691481
 20
304.5924239965393099
 30
0.0
 11
3611.6378494711811982
 21
304.590660105803579
 31
0.0
  0
LINE
  5
A856
  8
0
 10
3611.6378494711811982
 20
304.590660105803579
 30
0.0
 11
3611.6548972153032082
 21
304.5828557163417258
 31
0.0
  0
LINE
  5
A857
  8
0
 10
3611.6548972153032082
 20
304.5828557163417258
 30
0.0
 11
3611.6548972152809256
 21
304.5767727047036146
 31
0.0
  0
LINE
  5
A858
  8
0
 10
3611.6548972152809256
 20
304.5767727047036146
 30
0.0
 11
3611.6379577643460834
 21
304.5784809625042726
 31
0.0
  0
LINE
  5
A859
  8
0
 10
3611.6379577643460834
 20
304.5784809625042726
 30
0.0
 11
3611.6208017269382253
 21
304.5863710478585062
 31
0.0
  0
LINE
  5
A85A
  8
0
 10
3611.6378494712839711
 20
304.5906601057394028
 30
0.0
 11
3611.6379577643210723
 21
304.5784809625201888
 31
0.0
  0
LINE
  5
A85B
  8
0
 10
3611.6486405766981989
 20
304.5871626460369725
 30
0.0
 11
3611.6486405766640928
 21
304.5941620446726006
 31
0.0
  0
LINE
  5
A85C
  8
0
 10
3611.6486405766640928
 20
304.5941620446726006
 30
0.0
 11
3611.6656983559610126
 21
304.5936974683381209
 31
0.0
  0
LINE
  5
A85D
  8
0
 10
3611.6656983559610126
 20
304.5936974683381209
 30
0.0
 11
3611.6827360650031551
 21
304.585373467241709
 31
0.0
  0
LINE
  5
A85E
  8
0
 10
3611.6827360650031551
 20
304.585373467241709
 30
0.0
 11
3611.6827360649808725
 21
304.5792904556037115
 31
0.0
  0
LINE
  5
A85F
  8
0
 10
3611.6827360649808725
 20
304.5792904556037115
 30
0.0
 11
3611.665324419380795
 21
304.5798684099589764
 31
0.0
  0
LINE
  5
A860
  8
0
 10
3611.665324419380795
 20
304.5798684099589764
 30
0.0
 11
3611.6486405766981989
 21
304.5871626460369725
 31
0.0
  0
LINE
  5
A861
  8
0
 10
3611.6656983560651497
 20
304.5936974682737741
 30
0.0
 11
3611.6653244193557839
 21
304.5798684099750062
 31
0.0
  0
LINE
  5
A862
  8
0
 10
3611.6764794262808209
 20
304.5717927774035729
 30
0.0
 11
3611.6764794263108342
 21
304.5778757891150121
 31
0.0
  0
LINE
  5
A863
  8
0
 10
3611.6764794263108342
 20
304.5778757891150121
 30
0.0
 11
3611.6935419520468713
 21
304.5777879698375727
 31
0.0
  0
LINE
  5
A864
  8
0
 10
3611.6935419520468713
 20
304.5777879698375727
 30
0.0
 11
3611.7105749146548987
 21
304.5716459673466829
 31
0.0
  0
LINE
  5
A865
  8
0
 10
3611.7105749146548987
 20
304.5716459673466829
 30
0.0
 11
3611.7105749146339804
 21
304.5655629557085717
 31
0.0
  0
LINE
  5
A866
  8
0
 10
3611.7105749146339804
 20
304.5655629557085717
 30
0.0
 11
3611.6935271703059698
 21
304.5656275601144216
 31
0.0
  0
LINE
  5
A867
  8
0
 10
3611.6935271703059698
 20
304.5656275601144216
 30
0.0
 11
3611.6764794262808209
 21
304.5717927774035729
 31
0.0
  0
LINE
  5
A868
  8
0
 10
3611.693541952150099
 20
304.5777879697732828
 30
0.0
 11
3611.6935271702800492
 21
304.5656275601303946
 31
0.0
  0
LINE
  5
A869
  8
0
 10
3611.6486405766809185
 20
304.5708736777036165
 30
0.0
 11
3611.6486405766809185
 21
304.5760403024036123
 31
0.0
  0
LINE
  5
A86A
  8
0
 10
3611.6486405766809185
 20
304.5760403024036123
 30
0.0
 11
3611.6657079394658467
 21
304.5746693344977984
 31
0.0
  0
LINE
  5
A86B
  8
0
 10
3611.6657079394658467
 20
304.5746693344977984
 30
0.0
 11
3611.6827360649808725
 21
304.5681681120036046
 31
0.0
  0
LINE
  5
A86C
  8
0
 10
3611.6827360649808725
 20
304.5681681120036046
 30
0.0
 11
3611.6827360649867842
 21
304.5629883308845933
 31
0.0
  0
LINE
  5
A86D
  8
0
 10
3611.6827360649867842
 20
304.5629883308845933
 30
0.0
 11
3611.6656662322398006
 21
304.564338707479294
 31
0.0
  0
LINE
  5
A86E
  8
0
 10
3611.6656662322398006
 20
304.564338707479294
 30
0.0
 11
3611.6486405766809185
 21
304.5708736777036165
 31
0.0
  0
LINE
  5
A86F
  8
0
 10
3611.6657079395690744
 20
304.5746693344336222
 30
0.0
 11
3611.6656662322147895
 21
304.5643387074952102
 31
0.0
  0
LINE
  5
A870
  8
0
 10
3611.6208017270550954
 20
304.5727040298647808
 30
0.0
 11
3611.6209398937990045
 21
304.5768950998614173
 31
0.0
  0
LINE
  5
A871
  8
0
 10
3611.6209398937990045
 20
304.5768950998614173
 30
0.0
 11
3611.6378668982169984
 21
304.5742106038227917
 31
0.0
  0
LINE
  5
A872
  8
0
 10
3611.6378668982169984
 20
304.5742106038227917
 30
0.0
 11
3611.6548972152809256
 21
304.567321552012686
 31
0.0
  0
LINE
  5
A873
  8
0
 10
3611.6548972152809256
 20
304.567321552012686
 30
0.0
 11
3611.6548972153618706
 21
304.5630724759292889
 31
0.0
  0
LINE
  5
A874
  8
0
 10
3611.6548972153618706
 20
304.5630724759292889
 30
0.0
 11
3611.6378494712071188
 21
304.5657526295876778
 31
0.0
  0
LINE
  5
A875
  8
0
 10
3611.6378494712071188
 20
304.5657526295876778
 30
0.0
 11
3611.6208017270550954
 21
304.5727040298647808
 31
0.0
  0
LINE
  5
A876
  8
0
 10
3611.637866898320226
 20
304.5742106037585017
 30
0.0
 11
3611.6378494711811982
 21
304.565752629603594
 31
0.0
  0
LINE
  5
A877
  8
0
 10
3611.6486405766859207
 20
304.6086001163001242
 30
0.0
 11
3611.6486405766809185
 21
304.6175077076982802
 31
0.0
  0
LINE
  5
A878
  8
0
 10
3611.6486405766809185
 20
304.6175077076982802
 30
0.0
 11
3611.665688320677873
 21
304.6179301126643963
 31
0.0
  0
LINE
  5
A879
  8
0
 10
3611.665688320677873
 20
304.6179301126643963
 30
0.0
 11
3611.6827360649808725
 21
304.6095330670036105
 31
0.0
  0
LINE
  5
A87A
  8
0
 10
3611.6827360649808725
 20
304.6095330670036105
 30
0.0
 11
3611.6827360649917864
 21
304.600714769481101
 31
0.0
  0
LINE
  5
A87B
  8
0
 10
3611.6827360649917864
 20
304.600714769481101
 30
0.0
 11
3611.6656883208070212
 21
304.6002532974309247
 31
0.0
  0
LINE
  5
A87C
  8
0
 10
3611.6656883208070212
 20
304.6002532974309247
 30
0.0
 11
3611.6486405766859207
 21
304.6086001163001242
 31
0.0
  0
LINE
  5
A87D
  8
0
 10
3611.6656883207811006
 20
304.6179301126001064
 30
0.0
 11
3611.6656883207811006
 21
304.6002532974468977
 31
0.0
  0
LINE
  5
A87E
  8
0
 10
3611.6764794262808209
 20
304.5906540940035825
 30
0.0
 11
3611.6764794263099247
 21
304.5985542218708133
 31
0.0
  0
LINE
  5
A87F
  8
0
 10
3611.6764794263099247
 20
304.5985542218708133
 30
0.0
 11
3611.6935467890880318
 21
304.5993492862912717
 31
0.0
  0
LINE
  5
A880
  8
0
 10
3611.6935467890880318
 20
304.5993492862912717
 30
0.0
 11
3611.7105749145807749
 21
304.5922851256036097
 31
0.0
  0
LINE
  5
A881
  8
0
 10
3611.7105749145807749
 20
304.5922851256036097
 30
0.0
 11
3611.7105749146098788
 21
304.5844056075030721
 31
0.0
  0
LINE
  5
A882
  8
0
 10
3611.7105749146098788
 20
304.5844056075030721
 30
0.0
 11
3611.6935697286398863
 21
304.5835795890619124
 31
0.0
  0
LINE
  5
A883
  8
0
 10
3611.6935697286398863
 20
304.5835795890619124
 30
0.0
 11
3611.6764794262808209
 21
304.5906540940035825
 31
0.0
  0
LINE
  5
A884
  8
0
 10
3611.6935467891921689
 20
304.5993492862269818
 30
0.0
 11
3611.6935697286148752
 21
304.5835795890778854
 31
0.0
  0
LINE
  5
A885
  8
0
 10
3611.6764794262808209
 20
304.5580604996114857
 30
0.0
 11
3611.6764794262749092
 21
304.562260062472717
 31
0.0
  0
LINE
  5
A886
  8
0
 10
3611.6764794262749092
 20
304.562260062472717
 30
0.0
 11
3611.6935271700040175
 21
304.5613336398287743
 31
0.0
  0
LINE
  5
A887
  8
0
 10
3611.6935271700040175
 20
304.5613336398287743
 30
0.0
 11
3611.7103359626448764
 21
304.5561471355281924
 31
0.0
  0
LINE
  5
A888
  8
0
 10
3611.7103359626448764
 20
304.5561471355281924
 30
0.0
 11
3611.7105749145807749
 21
304.5517914033036959
 31
0.0
  0
LINE
  5
A889
  8
0
 10
3611.7105749145807749
 20
304.5517914033036959
 30
0.0
 11
3611.6935271705069681
 21
304.5527810772877046
 31
0.0
  0
LINE
  5
A88A
  8
0
 10
3611.6935271705069681
 20
304.5527810772877046
 30
0.0
 11
3611.6764794262808209
 21
304.5580604996114857
 31
0.0
  0
LINE
  5
A88B
  8
0
 10
3611.6935271701067904
 20
304.561333639764598
 30
0.0
 11
3611.6935271704810475
 21
304.5527810773036208
 31
0.0
  0
LINE
  5
A88C
  8
0
 10
3611.6486405766700045
 20
304.5597193362937105
 30
0.0
 11
3611.6486405766809185
 21
304.5631157407036085
 31
0.0
  0
LINE
  5
A88D
  8
0
 10
3611.6486405766809185
 20
304.5631157407036085
 30
0.0
 11
3611.6656883207811006
 21
304.5608032549035897
 31
0.0
  0
LINE
  5
A88E
  8
0
 10
3611.6656883207811006
 20
304.5608032549035897
 30
0.0
 11
3611.6827360649808725
 21
304.5551817153036041
 31
0.0
  0
LINE
  5
A88F
  8
0
 10
3611.6827360649808725
 20
304.5551817153036041
 30
0.0
 11
3611.6827360649767797
 21
304.5518339894745736
 31
0.0
  0
LINE
  5
A890
  8
0
 10
3611.6827360649767797
 20
304.5518339894745736
 30
0.0
 11
3611.6658136250061943
 21
304.5541284412128107
 31
0.0
  0
LINE
  5
A891
  8
0
 10
3611.6658136250061943
 20
304.5541284412128107
 30
0.0
 11
3611.6486405766700045
 21
304.5597193362937105
 31
0.0
  0
LINE
  5
A892
  8
0
 10
3611.665688320884783
 20
304.5608032548394135
 30
0.0
 11
3611.6658136249811832
 21
304.5541284412287268
 31
0.0
  0
LINE
  5
A893
  8
0
 10
3611.5929628773751574
 20
304.5774503665314796
 30
0.0
 11
3611.5929628772810247
 21
304.5806632080036138
 31
0.0
  0
LINE
  5
A894
  8
0
 10
3611.5929628772810247
 20
304.5806632080036138
 30
0.0
 11
3611.6100258186620522
 21
304.5765323644641853
 31
0.0
  0
LINE
  5
A895
  8
0
 10
3611.6100258186620522
 20
304.5765323644641853
 30
0.0
 11
3611.6270583656810231
 21
304.5692215825035873
 31
0.0
  0
LINE
  5
A896
  8
0
 10
3611.6270583656810231
 20
304.5692215825035873
 30
0.0
 11
3611.6270583656810231
 21
304.5659465614036208
 31
0.0
  0
LINE
  5
A897
  8
0
 10
3611.6270583656810231
 20
304.5659465614036208
 30
0.0
 11
3611.6099996609218579
 21
304.5700532647530849
 31
0.0
  0
LINE
  5
A898
  8
0
 10
3611.6099996609218579
 20
304.5700532647530849
 30
0.0
 11
3611.5929628773751574
 21
304.5774503665314796
 31
0.0
  0
LINE
  5
A899
  8
0
 10
3611.6100258187648251
 20
304.5765323643998954
 30
0.0
 11
3611.6099996608968468
 21
304.5700532647690011
 31
0.0
  0
LINE
  5
A89A
  8
0
 10
3611.6208017270050732
 20
304.5646365613324065
 30
0.0
 11
3611.6208017269809716
 21
304.5667366878037114
 31
0.0
  0
LINE
  5
A89B
  8
0
 10
3611.6208017269809716
 20
304.5667366878037114
 30
0.0
 11
3611.6378557312091289
 21
304.5630232308826066
 31
0.0
  0
LINE
  5
A89C
  8
0
 10
3611.6378557312091289
 20
304.5630232308826066
 30
0.0
 11
3611.6548972153318573
 21
304.5572409786016124
 31
0.0
  0
LINE
  5
A89D
  8
0
 10
3611.6548972153318573
 20
304.5572409786016124
 30
0.0
 11
3611.6548972153350405
 21
304.5546510880420215
 31
0.0
  0
LINE
  5
A89E
  8
0
 10
3611.6548972153350405
 20
304.5546510880420215
 30
0.0
 11
3611.6378494712071188
 21
304.5583718761877208
 31
0.0
  0
LINE
  5
A89F
  8
0
 10
3611.6378494712071188
 20
304.5583718761877208
 30
0.0
 11
3611.6208017270050732
 21
304.5646365613324065
 31
0.0
  0
LINE
  5
A8A0
  8
0
 10
3611.6378557313119018
 20
304.5630232308183167
 30
0.0
 11
3611.6378494711811982
 21
304.5583718762035801
 31
0.0
  0
LINE
  5
A8A1
  8
0
 10
3611.5651240277338729
 20
304.5853461083229945
 30
0.0
 11
3611.5651240277338729
 21
304.5874805985158105
 31
0.0
  0
LINE
  5
A8A2
  8
0
 10
3611.5651240277338729
 20
304.5874805985158105
 30
0.0
 11
3611.582171771818139
 21
304.581818454325628
 31
0.0
  0
LINE
  5
A8A3
  8
0
 10
3611.582171771818139
 20
304.581818454325628
 30
0.0
 11
3611.599219516032008
 21
304.5740353841890737
 31
0.0
  0
LINE
  5
A8A4
  8
0
 10
3611.599219516032008
 20
304.5740353841890737
 30
0.0
 11
3611.5992195160401934
 21
304.5717975408330744
 31
0.0
  0
LINE
  5
A8A5
  8
0
 10
3611.5992195160401934
 20
304.5717975408330744
 30
0.0
 11
3611.5821670370642096
 21
304.5774463282377837
 31
0.0
  0
LINE
  5
A8A6
  8
0
 10
3611.5821670370642096
 20
304.5774463282377837
 30
0.0
 11
3611.5651240277338729
 21
304.5853461083229945
 31
0.0
  0
LINE
  5
A8A7
  8
0
 10
3611.5821717719209119
 20
304.5818184542613949
 30
0.0
 11
3611.5821670370391985
 21
304.5774463282536999
 31
0.0
  0
LINE
  5
A8A8
  8
0
 10
3611.6486405766809185
 20
304.5541515510035993
 30
0.0
 11
3611.6486405766809185
 21
304.5555148787036046
 31
0.0
  0
LINE
  5
A8A9
  8
0
 10
3611.6486405766809185
 20
304.5555148787036046
 30
0.0
 11
3611.6656914508971568
 21
304.5520498832373733
 31
0.0
  0
LINE
  5
A8AA
  8
0
 10
3611.6656914508971568
 20
304.5520498832373733
 30
0.0
 11
3611.6827360649831462
 21
304.5474385476849761
 31
0.0
  0
LINE
  5
A8AB
  8
0
 10
3611.6827360649831462
 20
304.5474385476849761
 30
0.0
 11
3611.6827360649849652
 21
304.5460034177684179
 31
0.0
  0
LINE
  5
A8AC
  8
0
 10
3611.6827360649849652
 20
304.5460034177684179
 30
0.0
 11
3611.6656883208570434
 21
304.5497242059141172
 31
0.0
  0
LINE
  5
A8AD
  8
0
 10
3611.6656883208570434
 20
304.5497242059141172
 30
0.0
 11
3611.6486405766809185
 21
304.5541515510035993
 31
0.0
  0
LINE
  5
A8AE
  8
0
 10
3611.6656914509999297
 20
304.5520498831730833
 30
0.0
 11
3611.6656883208320323
 21
304.5497242059299765
 31
0.0
  0
LINE
  5
A8AF
  8
0
 10
3611.6764794263299336
 20
304.5495569622476069
 30
0.0
 11
3611.6764794263090153
 21
304.5519532552082751
 31
0.0
  0
LINE
  5
A8B0
  8
0
 10
3611.6764794263090153
 20
304.5519532552082751
 30
0.0
 11
3611.6935313288590805
 21
304.5499977918415766
 31
0.0
  0
LINE
  5
A8B1
  8
0
 10
3611.6935313288590805
 20
304.5499977918415766
 30
0.0
 11
3611.7105410414787912
 21
304.5456346184126915
 31
0.0
  0
LINE
  5
A8B2
  8
0
 10
3611.7105410414787912
 20
304.5456346184126915
 30
0.0
 11
3611.7105749146189737
 21
304.5431872666047752
 31
0.0
  0
LINE
  5
A8B3
  8
0
 10
3611.7105749146189737
 20
304.5431872666047752
 30
0.0
 11
3611.693524822685049
 21
304.545163648666005
 31
0.0
  0
LINE
  5
A8B4
  8
0
 10
3611.693524822685049
 20
304.545163648666005
 30
0.0
 11
3611.6764794263299336
 21
304.5495569622476069
 31
0.0
  0
LINE
  5
A8B5
  8
0
 10
3611.6935313289618534
 20
304.5499977917772867
 30
0.0
 11
3611.6935248226591284
 21
304.545163648681978
 31
0.0
  0
ARC
  5
A8B6
  8
0
 10
3611.5755536550791476
 20
304.6868642532380136
 30
0.0
 40
0.0981078444809693
 50
213.5833536158588117
 51
246.9976659026019092
  0
ARC
  5
A8B7
  8
0
 10
3611.8403962016409423
 20
305.2061777465647197
 30
0.0
 40
0.6808490969917307
 50
243.5576620246935136
 51
250.218540570141414
  0
ARC
  5
A8B8
  8
0
 10
3611.8031368166680295
 20
305.1173941202843025
 30
0.0
 40
0.5847162339089628
 50
250.7098021815326092
 51
259.3836136459601107
  0
ARC
  5
A8B9
  8
0
 10
3611.8032491713079253
 20
305.1084022469988213
 30
0.0
 40
0.5759016874609556
 50
259.2078140027909967
 51
265.0644556632888111
  0
LINE
  5
A8BA
  8
0
 10
3611.7043182759539377
 20
304.6340343675706208
 30
0.0
 11
3611.7043182759812225
 21
304.6233386065035802
 31
0.0
  0
LINE
  5
A8BB
  8
0
 10
3611.7043182759812225
 20
304.6233386065035802
 30
0.0
 11
3611.7213660201368839
 21
304.6156341214556278
 31
0.0
  0
LINE
  5
A8BC
  8
0
 10
3611.7213660201368839
 20
304.6156341214556278
 30
0.0
 11
3611.7222054036810732
 21
304.6157644057036009
 31
0.0
  0
LINE
  5
A8BD
  8
0
 10
3611.7222054036810732
 20
304.6157644057036009
 30
0.0
 11
3611.7222054036810732
 21
304.6365874479035938
 31
0.0
  0
LINE
  5
A8BE
  8
0
 10
3611.7222054036810732
 20
304.6365874479035938
 30
0.0
 11
3611.7213660201418861
 21
304.6369850108745254
 31
0.0
  0
LINE
  5
A8BF
  8
0
 10
3611.7213660201418861
 20
304.6369850108745254
 30
0.0
 11
3611.7043182759812225
 21
304.6340343675747135
 31
0.0
  0
LINE
  5
A8C0
  8
0
 10
3611.72136602008095
 20
304.6369850108625883
 30
0.0
 11
3611.7213660201368839
 21
304.6156341214556278
 31
0.0
  0
LINE
  5
A8C1
  8
0
 10
3611.7043182759830415
 20
304.605539153462189
 30
0.0
 11
3611.7043182759812225
 21
304.5967407547530001
 31
0.0
  0
LINE
  5
A8C2
  8
0
 10
3611.7043182759812225
 20
304.5967407547530001
 30
0.0
 11
3611.7213660201368839
 21
304.5899676609554945
 31
0.0
  0
LINE
  5
A8C3
  8
0
 10
3611.7213660201368839
 20
304.5899676609554945
 30
0.0
 11
3611.7222054036810732
 21
304.5900979452035813
 31
0.0
  0
LINE
  5
A8C4
  8
0
 10
3611.7222054036810732
 20
304.5900979452035813
 30
0.0
 11
3611.7222054036810732
 21
304.6072377294036073
 31
0.0
  0
LINE
  5
A8C5
  8
0
 10
3611.7222054036810732
 20
304.6072377294036073
 30
0.0
 11
3611.7213660201500716
 21
304.6075851954876157
 31
0.0
  0
LINE
  5
A8C6
  8
0
 10
3611.7213660201500716
 20
304.6075851954876157
 30
0.0
 11
3611.7043182760098716
 21
304.6055391534661112
 31
0.0
  0
LINE
  5
A8C7
  8
0
 10
3611.7213660200891354
 20
304.6075851954757923
 30
0.0
 11
3611.7213660201368839
 21
304.5899676609554945
 31
0.0
  0
LINE
  5
A8C8
  8
0
 10
3611.7043182759139199
 20
304.5823265413403078
 30
0.0
 11
3611.7043182759812225
 21
304.5753467488036108
 31
0.0
  0
LINE
  5
A8C9
  8
0
 10
3611.7043182759812225
 20
304.5753467488036108
 30
0.0
 11
3611.7213660201368839
 21
304.5694487508554857
 31
0.0
  0
LINE
  5
A8CA
  8
0
 10
3611.7213660201368839
 20
304.5694487508554857
 30
0.0
 11
3611.7222054036810732
 21
304.5695790351035726
 31
0.0
  0
LINE
  5
A8CB
  8
0
 10
3611.7222054036810732
 20
304.5695790351035726
 30
0.0
 11
3611.7222054036810732
 21
304.5904020773036223
 31
0.0
  0
LINE
  5
A8CC
  8
0
 10
3611.7222054036810732
 20
304.5831872234036268
 30
0.0
 11
3611.7213660201609855
 21
304.5834882044085816
 31
0.0
  0
LINE
  5
A8CD
  8
0
 10
3611.7213660201609855
 20
304.5834882044085816
 30
0.0
 11
3611.7043182759398405
 21
304.5823265413444005
 31
0.0
  0
LINE
  5
A8CE
  8
0
 10
3611.7213660201009588
 20
304.583488204396815
 30
0.0
 11
3611.7213660201368839
 21
304.5694487508554857
 31
0.0
  0
LINE
  5
A8CF
  8
0
 10
3611.7043182759621232
 20
304.5642244052476144
 30
0.0
 11
3611.7043182759812225
 21
304.5590381744036108
 31
0.0
  0
LINE
  5
A8D0
  8
0
 10
3611.7043182759812225
 20
304.5590381744036108
 30
0.0
 11
3611.7213660201359744
 21
304.5541168256775109
 31
0.0
  0
LINE
  5
A8D1
  8
0
 10
3611.7213660201359744
 20
304.5541168256775109
 30
0.0
 11
3611.7222054036810732
 21
304.5541153553036224
 31
0.0
  0
LINE
  5
A8D2
  8
0
 10
3611.7222054036810732
 20
304.5541153553036224
 30
0.0
 11
3611.7222054036810732
 21
304.5645268764037041
 31
0.0
  0
LINE
  5
A8D3
  8
0
 10
3611.7222054036810732
 20
304.5645268764037041
 30
0.0
 11
3611.7213660201700804
 21
304.5647263930819122
 31
0.0
  0
LINE
  5
A8D4
  8
0
 10
3611.7213660201700804
 20
304.5647263930819122
 30
0.0
 11
3611.7043182759880438
 21
304.5642244052515935
 31
0.0
  0
LINE
  5
A8D5
  8
0
 10
3611.7213660201091443
 20
304.5647263930699751
 30
0.0
 11
3611.7213660201359744
 21
304.5541168256775109
 31
0.0
  0
LINE
  5
A8D6
  8
0
 10
3611.7043182759248339
 20
304.5512077005378728
 30
0.0
 11
3611.7043182759148294
 21
304.5478400758057091
 31
0.0
  0
LINE
  5
A8D7
  8
0
 10
3611.7043182759148294
 20
304.5478400758057091
 30
0.0
 11
3611.7213660201368839
 21
304.543624866455616
 31
0.0
  0
LINE
  5
A8D8
  8
0
 10
3611.7213660201368839
 20
304.543624866455616
 30
0.0
 11
3611.7222054036810732
 21
304.5437551507037028
 31
0.0
  0
LINE
  5
A8D9
  8
0
 10
3611.7222054036810732
 20
304.5437551507037028
 30
0.0
 11
3611.7222054036810732
 21
304.550348392103615
 31
0.0
  0
LINE
  5
A8DA
  8
0
 10
3611.7222054036810732
 20
304.550348392103615
 30
0.0
 11
3611.7213660203001382
 21
304.5505614778755898
 31
0.0
  0
LINE
  5
A8DB
  8
0
 10
3611.7213660203001382
 20
304.5505614778755898
 30
0.0
 11
3611.7043182759512092
 21
304.5512077005420224
 31
0.0
  0
LINE
  5
A8DC
  8
0
 10
3611.7213660202378378
 20
304.5505614778637096
 30
0.0
 11
3611.7213660201368839
 21
304.543624866455616
 31
0.0
  0
LINE
  5
A8DD
  8
0
 10
3611.7222054036810732
 20
304.5416041420036208
 30
0.0
 11
3611.7213660200927734
 21
304.5417733684305972
 31
0.0
  0
LINE
  5
A8DE
  8
0
 10
3611.7213660200927734
 20
304.5417733684305972
 30
0.0
 11
3611.7043182759812225
 21
304.5433948417036163
 31
0.0
  0
LINE
  5
A8DF
  8
0
 10
3611.7043182759812225
 20
304.5433948417036163
 30
0.0
 11
3611.7043182759812225
 21
304.5419245794035987
 31
0.0
  0
LINE
  5
A8E0
  8
0
 10
3611.7043182759812225
 20
304.5419245794035987
 30
0.0
 11
3611.7213660185439039
 21
304.538792211257487
 31
0.0
  0
LINE
  5
A8E1
  8
0
 10
3611.7213660185439039
 20
304.538792211257487
 30
0.0
 11
3611.7222054036810732
 21
304.53869415872839
 31
0.0
  0
LINE
  5
A8E2
  8
0
 10
3611.7222054036810732
 20
304.53869415872839
 30
0.0
 11
3611.7222054036810732
 21
304.5416041420036208
 31
0.0
  0
LINE
  5
A8E3
  8
0
 10
3611.7213660200959566
 20
304.5387922110746217
 30
0.0
 11
3611.7213097079388717
 21
304.5417787244854253
 31
0.0
  0
ARC
  5
A8E4
  8
0
 10
3611.5376650044618145
 20
304.8725207471616159
 30
0.0
 40
0.2802657217189744
 50
227.7343151319880121
 51
256.2855903163296034
  0
ARC
  5
A8E5
  8
0
 10
3611.8233693435649911
 20
305.3557488900606245
 30
0.0
 40
0.8409146526524578
 50
274.8491602068384054
 51
283.0074382994579878
  0
ARC
  5
A8E6
  8
0
 10
3611.9874491043428861
 20
304.501199517039197
 30
0.0
 40
0.1880184198690865
 50
56.6065580767513623
 51
61.2541923626240177
  0
ARC
  5
A8E7
  8
0
 10
3612.0374283442938577
 20
304.577015894435192
 30
0.0
 40
0.09721066960702
 50
50.4646800293297417
 51
56.6065580767513623
  0
ARC
  5
A8E8
  8
0
 10
3612.0500641341891424
 20
304.5926448264298756
 30
0.0
 40
0.0771140409467317
 50
31.2650467324507915
 51
50.3134599853342905
  0
ARC
  5
A8E9
  8
0
 10
3612.0484855888648781
 20
304.6418900995146259
 30
0.0
 40
0.0780543895276284
 50
296.9979798747543782
 51
331.5626291353846113
  0
ARC
  5
A8EA
  8
0
 10
3611.903195303800203
 20
304.9270631951873156
 30
0.0
 40
0.3981058876174161
 50
286.2953418631287832
 51
296.9979798747543782
  0
ARC
  5
A8EB
  8
0
 10
3611.8418647143489579
 20
305.1943649254233719
 30
0.0
 40
0.6720719817952578
 50
276.0728890330150875
 51
284.9196602138060825
  0
LINE
  5
A8EC
  8
0
 10
3611.8875596445150222
 20
304.6690955405777004
 30
0.0
 11
3611.8875596617140218
 21
304.6468247573536132
 31
0.0
  0
LINE
  5
A8ED
  8
0
 10
3611.8875596617140218
 20
304.6468247573536132
 30
0.0
 11
3611.8883990454178274
 21
304.6466489707988785
 31
0.0
  0
LINE
  5
A8EE
  8
0
 10
3611.8883990454178274
 20
304.6466489707988785
 30
0.0
 11
3611.8883990281228762
 21
304.6690850060235221
 31
0.0
  0
LINE
  5
A8EF
  8
0
 10
3611.8883990454501145
 20
304.6466489707921141
 30
0.0
 11
3611.9054467827941153
 21
304.6554197527677843
 31
0.0
  0
LINE
  5
A8F0
  8
0
 10
3611.9054467827941153
 20
304.6554197527677843
 30
0.0
 11
3611.9054467729388307
 21
304.6681575055674216
 31
0.0
  0
LINE
  5
A8F1
  8
0
 10
3611.9054467729388307
 20
304.6681575055674216
 30
0.0
 11
3611.9019100559630715
 21
304.668911888695618
 31
0.0
  0
LINE
  5
A8F2
  8
0
 10
3611.9270289836190386
 20
304.6685722757919734
 30
0.0
 11
3611.9270289905639402
 21
304.6595790163349875
 31
0.0
  0
LINE
  5
A8F3
  8
0
 10
3611.9270289905639402
 20
304.6595790163349875
 30
0.0
 11
3611.944076736444913
 21
304.6573285686524741
 31
0.0
  0
LINE
  5
A8F4
  8
0
 10
3611.944076736444913
 20
304.6573285686524741
 30
0.0
 11
3611.9616266978828207
 21
304.6680666851314072
 31
0.0
  0
LINE
  5
A8F5
  8
0
 10
3611.9440767363689702
 20
304.657328568660887
 30
0.0
 11
3611.9440767280070759
 21
304.6683286273222961
 31
0.0
  0
LINE
  5
A8F6
  8
0
 10
3611.965759780818189
 20
304.6680033560995184
 30
0.0
 11
3611.9548678390719942
 21
304.6610930413772849
 31
0.0
  0
LINE
  5
A8F7
  8
0
 10
3611.9548678390719942
 20
304.6610930413772849
 30
0.0
 11
3611.9548678482151445
 21
304.6492839738343719
 31
0.0
  0
LINE
  5
A8F8
  8
0
 10
3611.9548678482151445
 20
304.6492839738343719
 30
0.0
 11
3611.9719155930361012
 21
304.6483310495527803
 31
0.0
  0
LINE
  5
A8F9
  8
0
 10
3611.9719155930361012
 20
304.6483310495527803
 30
0.0
 11
3611.9889633288507866
 21
304.659242393424222
 31
0.0
  0
LINE
  5
A8FA
  8
0
 10
3611.9889633288507866
 20
304.659242393424222
 30
0.0
 11
3611.9889633223688179
 21
304.6676362077370754
 31
0.0
  0
LINE
  5
A8FB
  8
0
 10
3611.9719155912621318
 20
304.6483310496519152
 30
0.0
 11
3611.9719155761440561
 21
304.6679078745777929
 31
0.0
  0
LINE
  5
A8FC
  8
0
 10
3612.0383843873819387
 20
304.6619409361912858
 30
0.0
 11
3612.0383843836380038
 21
304.6667885074817264
 31
0.0
  0
LINE
  5
A8FD
  8
0
 10
3612.038384387340102
 20
304.661940936232611
 30
0.0
 11
3612.0554321296699527
 21
304.6641651519350944
 31
0.0
  0
LINE
  5
A8FE
  8
0
 10
3612.0554321296699527
 20
304.6641651519350944
 30
0.0
 11
3612.0554321278850693
 21
304.66647534654129
 31
0.0
  0
LINE
  5
A8FF
  8
0
 10
3612.0168021745521401
 20
304.6643067361554813
 30
0.0
 11
3612.0168021830850194
 21
304.6533368863852047
 31
0.0
  0
LINE
  5
A900
  8
0
 10
3612.0168021830850194
 20
304.6533368863852047
 30
0.0
 11
3611.9997544476141229
 21
304.6420340599993892
 31
0.0
  0
LINE
  5
A901
  8
0
 10
3611.9997544476141229
 20
304.6420340599993892
 30
0.0
 11
3611.9827067037199413
 21
304.6416771139241177
 31
0.0
  0
LINE
  5
A902
  8
0
 10
3611.9827067037199413
 20
304.6416771139241177
 30
0.0
 11
3611.9827066953030226
 21
304.6525366301411282
 31
0.0
  0
LINE
  5
A903
  8
0
 10
3611.9827066953030226
 20
304.6525366301411282
 30
0.0
 11
3611.9997544307570934
 21
304.6638618578368209
 31
0.0
  0
LINE
  5
A904
  8
0
 10
3611.9997544307570934
 20
304.6638618578368209
 30
0.0
 11
3612.0168021745521401
 21
304.6643067361554813
 31
0.0
  0
LINE
  5
A905
  8
0
 10
3611.99975443072708
 20
304.6638618579412991
 30
0.0
 11
3611.9997544418988582
 21
304.6420340598797907
 31
0.0
  0
LINE
  5
A906
  8
0
 10
3612.0993081622450518
 20
304.6519879053188902
 30
0.0
 11
3612.083270993584847
 21
304.6399453017772885
 31
0.0
  0
LINE
  5
A907
  8
0
 10
3612.083270993584847
 20
304.6399453017772885
 30
0.0
 11
3612.0662232575668895
 21
304.6353615610320276
 31
0.0
  0
LINE
  5
A908
  8
0
 10
3612.0662232575668895
 20
304.6353615610320276
 30
0.0
 11
3612.066223251340034
 21
304.6434242080320018
 31
0.0
  0
LINE
  5
A909
  8
0
 10
3612.066223251340034
 20
304.6434242080320018
 30
0.0
 11
3612.0832709853229971
 21
304.6561401885782061
 31
0.0
  0
LINE
  5
A90A
  8
0
 10
3612.0832709853229971
 20
304.6561401885782061
 30
0.0
 11
3612.0909316561619562
 21
304.6581781387654928
 31
0.0
  0
LINE
  5
A90B
  8
0
 10
3612.0832709852929838
 20
304.6561401886826843
 30
0.0
 11
3612.083270993584847
 21
304.6399453017772885
 31
0.0
  0
LINE
  5
A90C
  8
0
 10
3612.0724798962919522
 20
304.6352165513130217
 30
0.0
 11
3612.0724799018448721
 21
304.6281419616890958
 31
0.0
  0
LINE
  5
A90D
  8
0
 10
3612.0724799017921214
 20
304.6281419616530002
 30
0.0
 11
3612.0553558993751722
 21
304.6169308527835824
 31
0.0
  0
LINE
  5
A90E
  8
0
 10
3612.0553558993751722
 20
304.6169308527835824
 30
0.0
 11
3612.0383844251891787
 21
304.6129312656648267
 31
0.0
  0
LINE
  5
A90F
  8
0
 10
3612.0383844251891787
 20
304.6129312656648267
 30
0.0
 11
3612.0383844197290273
 21
304.6199765471232013
 31
0.0
  0
LINE
  5
A910
  8
0
 10
3612.0383844197290273
 20
304.6199765471232013
 30
0.0
 11
3612.055432154295886
 21
304.6310697999196009
 31
0.0
  0
LINE
  5
A911
  8
0
 10
3612.055432154295886
 20
304.6310697999196009
 30
0.0
 11
3612.0724798962919522
 21
304.6352165513130217
 31
0.0
  0
LINE
  5
A912
  8
0
 10
3612.0554321542658727
 20
304.6310698000240791
 30
0.0
 11
3612.0554321614931723
 21
304.6169505828252113
 31
0.0
  0
LINE
  5
A913
  8
0
 10
3612.0446410540230318
 20
304.6257067836643841
 30
0.0
 11
3612.0446410478248254
 21
304.6337319147644962
 31
0.0
  0
LINE
  5
A914
  8
0
 10
3612.0446410478248254
 20
304.6337319147644962
 30
0.0
 11
3612.0275933058342162
 21
304.6310380781968092
 31
0.0
  0
LINE
  5
A915
  8
0
 10
3612.0275933058342162
 20
304.6310380781968092
 30
0.0
 11
3612.0105455698021615
 21
304.6204246329331795
 31
0.0
  0
LINE
  5
A916
  8
0
 10
3612.0105455698021615
 20
304.6204246329331795
 30
0.0
 11
3612.0105455758812241
 21
304.6124487566814878
 31
0.0
  0
LINE
  5
A917
  8
0
 10
3612.0105455758812241
 20
304.6124487566814878
 30
0.0
 11
3612.0275933180628272
 21
304.6150379998989024
 31
0.0
  0
LINE
  5
A918
  8
0
 10
3612.0275933180628272
 20
304.6150379998989024
 30
0.0
 11
3612.0446410540230318
 21
304.6257067836643841
 31
0.0
  0
LINE
  5
A919
  8
0
 10
3612.0275933057309885
 20
304.6310380781325762
 30
0.0
 11
3612.0275933180878383
 21
304.6150379999148186
 31
0.0
  0
LINE
  5
A91A
  8
0
 10
3611.9889633518127994
 20
304.6294752394655916
 30
0.0
 11
3611.9889633441589467
 21
304.6393495568480034
 31
0.0
  0
LINE
  5
A91B
  8
0
 10
3611.9889633441589467
 20
304.6393495568480034
 30
0.0
 11
3611.9719366810809333
 21
304.6393590132399822
 31
0.0
  0
LINE
  5
A91C
  8
0
 10
3611.9719366810809333
 20
304.6393590132399822
 30
0.0
 11
3611.9548678635501346
 21
304.6295556367006725
 31
0.0
  0
LINE
  5
A91D
  8
0
 10
3611.9548678635501346
 20
304.6295556367006725
 30
0.0
 11
3611.9548678710220884
 21
304.6197507738344257
 31
0.0
  0
LINE
  5
A91E
  8
0
 10
3611.9548678710220884
 20
304.6197507738344257
 30
0.0
 11
3611.9719156151559218
 21
304.619681090007191
 31
0.0
  0
LINE
  5
A91F
  8
0
 10
3611.9719156151559218
 20
304.619681090007191
 30
0.0
 11
3611.9889633518127994
 21
304.6294752394655916
 31
0.0
  0
LINE
  5
A920
  8
0
 10
3611.9719366809781604
 20
304.6393590131756923
 30
0.0
 11
3611.9719156151809329
 21
304.6196810900231071
 31
0.0
  0
LINE
  5
A921
  8
0
 10
3612.0168022042457778
 20
304.6259361145466187
 30
0.0
 11
3612.0168021970680456
 21
304.6351496079262802
 31
0.0
  0
LINE
  5
A922
  8
0
 10
3612.0168021970680456
 20
304.6351496079262802
 30
0.0
 11
3611.9997544540128729
 21
304.6338326183525851
 31
0.0
  0
LINE
  5
A923
  8
0
 10
3611.9997544540128729
 20
304.6338326183525851
 30
0.0
 11
3611.9827067176152013
 21
304.6236457763337739
 31
0.0
  0
LINE
  5
A924
  8
0
 10
3611.9827067176152013
 20
304.6236457763337739
 30
0.0
 11
3611.9827067244809768
 21
304.6147547739337824
 31
0.0
  0
LINE
  5
A925
  8
0
 10
3611.9827067244809768
 20
304.6147547739337824
 30
0.0
 11
3611.9997544676789403
 21
304.6159893927963935
 31
0.0
  0
LINE
  5
A926
  8
0
 10
3611.9997544676789403
 20
304.6159893927963935
 30
0.0
 11
3612.0168022042457778
 21
304.6259361145466187
 31
0.0
  0
LINE
  5
A927
  8
0
 10
3611.9997544539101
 20
304.6338326182884089
 30
0.0
 11
3611.9997544677048609
 21
304.6159893928124234
 31
0.0
  0
LINE
  5
A928
  8
0
 10
3611.9611244974908004
 20
304.6354587641827152
 30
0.0
 11
3611.961124489148915
 21
304.6462614598056007
 31
0.0
  0
LINE
  5
A929
  8
0
 10
3611.961124489148915
 20
304.6462614598056007
 30
0.0
 11
3611.9440767440569289
 21
304.6475705005640862
 31
0.0
  0
LINE
  5
A92A
  8
0
 10
3611.9440767440569289
 20
304.6475705005640862
 30
0.0
 11
3611.9270290071408454
 21
304.638113300234977
 31
0.0
  0
LINE
  5
A92B
  8
0
 10
3611.9270290071408454
 20
304.638113300234977
 30
0.0
 11
3611.9270290154290706
 21
304.6273824068350109
 31
0.0
  0
LINE
  5
A92C
  8
0
 10
3611.9270290154290706
 20
304.6273824068350109
 30
0.0
 11
3611.9438413835050596
 21
304.6260515316599253
 31
0.0
  0
LINE
  5
A92D
  8
0
 10
3611.9438413835050596
 20
304.6260515316599253
 30
0.0
 11
3611.9611244974908004
 21
304.6354587641827152
 31
0.0
  0
LINE
  5
A92E
  8
0
 10
3611.944076743954156
 20
304.6475705004997963
 30
0.0
 11
3611.9438413835300707
 21
304.6260515316757846
 31
0.0
  0
LINE
  5
A92F
  8
0
 10
3611.9332856412129331
 20
304.6441067053668235
 30
0.0
 11
3611.9332856322212137
 21
304.6558589524789227
 31
0.0
  0
LINE
  5
A930
  8
0
 10
3611.9332856322212137
 20
304.6558589524789227
 30
0.0
 11
3611.9162378860319222
 21
304.658459732055519
 31
0.0
  0
LINE
  5
A931
  8
0
 10
3611.9162378860319222
 20
304.658459732055519
 30
0.0
 11
3611.8991901488720941
 21
304.6493180906078919
 31
0.0
  0
LINE
  5
A932
  8
0
 10
3611.8991901488720941
 20
304.6493180906078919
 30
0.0
 11
3611.8991901579138357
 21
304.6376352925449282
 31
0.0
  0
LINE
  5
A933
  8
0
 10
3611.8991901579138357
 20
304.6376352925449282
 30
0.0
 11
3611.9162379040890301
 21
304.6350248473108877
 31
0.0
  0
LINE
  5
A934
  8
0
 10
3611.9162379040890301
 20
304.6350248473108877
 30
0.0
 11
3611.9332856412129331
 21
304.6441067053668235
 31
0.0
  0
LINE
  5
A935
  8
0
 10
3611.9162378859291493
 20
304.6584597319912859
 30
0.0
 11
3611.9162379041140412
 21
304.6350248473268039
 31
0.0
  0
LINE
  5
A936
  8
0
 10
3611.933285663929837
 20
304.6146917638669152
 30
0.0
 11
3611.9332856564337817
 21
304.6244614943038869
 31
0.0
  0
LINE
  5
A937
  8
0
 10
3611.9332856564337817
 20
304.6244614943038869
 30
0.0
 11
3611.9162379109529866
 21
304.6261506192602155
 31
0.0
  0
LINE
  5
A938
  8
0
 10
3611.9162379109529866
 20
304.6261506192602155
 30
0.0
 11
3611.8991901730041718
 21
304.6180917723356174
 31
0.0
  0
LINE
  5
A939
  8
0
 10
3611.8991901730041718
 20
304.6180917723356174
 30
0.0
 11
3611.8991901804838562
 21
304.6083650523307256
 31
0.0
  0
LINE
  5
A93A
  8
0
 10
3611.8991901804838562
 20
304.6083650523307256
 30
0.0
 11
3611.9162379259369118
 21
304.606654421192502
 31
0.0
  0
LINE
  5
A93B
  8
0
 10
3611.9162379259369118
 20
304.606654421192502
 30
0.0
 11
3611.933285663929837
 21
304.6146917638669152
 31
0.0
  0
LINE
  5
A93C
  8
0
 10
3611.9162379108502137
 20
304.6261506191959825
 30
0.0
 11
3611.9162379259619229
 21
304.606654421208475
 31
0.0
  0
LINE
  5
A93D
  8
0
 10
3612.1003187471487763
 20
304.6337011095632761
 30
0.0
 11
3612.1003187424507814
 21
304.6397841212632898
 31
0.0
  0
LINE
  5
A93E
  8
0
 10
3612.1003187424507814
 20
304.6397841212632898
 30
0.0
 11
3612.0832710027630128
 21
304.6340756681054813
 31
0.0
  0
LINE
  5
A93F
  8
0
 10
3612.0832710027630128
 20
304.6340756681054813
 30
0.0
 11
3612.0662232676108943
 21
304.622436217584891
 31
0.0
  0
LINE
  5
A940
  8
0
 10
3612.0662232676108943
 20
304.622436217584891
 30
0.0
 11
3612.066223272246134
 21
304.6163532058320129
 31
0.0
  0
LINE
  5
A941
  8
0
 10
3612.066223272246134
 20
304.6163532058320129
 30
0.0
 11
3612.0832710119611875
 21
304.6219096445668129
 31
0.0
  0
LINE
  5
A942
  8
0
 10
3612.0832710119611875
 20
304.6219096445668129
 30
0.0
 11
3612.1003187471487763
 21
304.6337011095632761
 31
0.0
  0
LINE
  5
A943
  8
0
 10
3612.0832710026597852
 20
304.6340756680413051
 30
0.0
 11
3612.0832710119871081
 21
304.6219096445826722
 31
0.0
  0
LINE
  5
A944
  8
0
 10
3612.1003187575320226
 20
304.6202783894336221
 30
0.0
 11
3612.1003187542960404
 21
304.6244463386632901
 31
0.0
  0
LINE
  5
A945
  8
0
 10
3612.1003187542960404
 20
304.6244463386632901
 30
0.0
 11
3612.0832710158460941
 21
304.6177006182580271
 31
0.0
  0
LINE
  5
A946
  8
0
 10
3612.0832710158460941
 20
304.6177006182580271
 30
0.0
 11
3612.0662232795020827
 21
304.6070338622362215
 31
0.0
  0
LINE
  5
A947
  8
0
 10
3612.0662232795020827
 20
304.6070338622362215
 30
0.0
 11
3612.066223282629835
 21
304.6029304857023021
 31
0.0
  0
LINE
  5
A948
  8
0
 10
3612.066223282629835
 20
304.6029304857023021
 30
0.0
 11
3612.0828903463811912
 21
304.6094054585694266
 31
0.0
  0
LINE
  5
A949
  8
0
 10
3612.0828903463811912
 20
304.6094054585694266
 30
0.0
 11
3612.1003187575320226
 21
304.6202783894336221
 31
0.0
  0
LINE
  5
A94A
  8
0
 10
3612.0832710157419569
 20
304.6177006181937941
 30
0.0
 11
3612.0828903464071118
 21
304.6094054585852859
 31
0.0
  0
LINE
  5
A94B
  8
0
 10
3612.0724799143640666
 20
304.611928184363876
 30
0.0
 11
3612.0724799102868019
 21
304.6170775897306839
 31
0.0
  0
LINE
  5
A94C
  8
0
 10
3612.0724799102868019
 20
304.6170775897306839
 30
0.0
 11
3612.0554321700578839
 21
304.6119112539063849
 31
0.0
  0
LINE
  5
A94D
  8
0
 10
3612.0554321700578839
 20
304.6119112539063849
 30
0.0
 11
3612.0383844338311974
 21
304.6018089221170158
 31
0.0
  0
LINE
  5
A94E
  8
0
 10
3612.0383844338311974
 20
304.6018089221170158
 30
0.0
 11
3612.0383844377338391
 21
304.5966881801494992
 31
0.0
  0
LINE
  5
A94F
  8
0
 10
3612.0383844377338391
 20
304.5966881801494992
 30
0.0
 11
3612.0554321778708982
 21
304.6016984215956995
 31
0.0
  0
LINE
  5
A950
  8
0
 10
3612.0554321778708982
 20
304.6016984215956995
 30
0.0
 11
3612.0724799143640666
 21
304.611928184363876
 31
0.0
  0
LINE
  5
A951
  8
0
 10
3612.0554321699542015
 20
304.6119112538422087
 30
0.0
 11
3612.0554321778959093
 21
304.601698421611502
 31
0.0
  0
LINE
  5
A952
  8
0
 10
3612.0724799225149582
 20
304.6013744707105957
 30
0.0
 11
3612.0724799201088899
 21
304.6044126365019906
 31
0.0
  0
LINE
  5
A953
  8
0
 10
3612.0724799201088899
 20
304.6044126365019906
 30
0.0
 11
3612.0553180858209998
 21
304.5982188736520015
 31
0.0
  0
LINE
  5
A954
  8
0
 10
3612.0553180858209998
 20
304.5982188736520015
 30
0.0
 11
3612.0383844436250911
 21
304.5891001428224172
 31
0.0
  0
LINE
  5
A955
  8
0
 10
3612.0383844436250911
 20
304.5891001428224172
 30
0.0
 11
3612.0383844460379805
 21
304.5859349493326249
 31
0.0
  0
LINE
  5
A956
  8
0
 10
3612.0383844460379805
 20
304.5859349493326249
 30
0.0
 11
3612.055432185456084
 21
304.5920413684457912
 31
0.0
  0
LINE
  5
A957
  8
0
 10
3612.055432185456084
 20
304.5920413684457912
 30
0.0
 11
3612.0724799225149582
 21
304.6013744707105957
 31
0.0
  0
LINE
  5
A958
  8
0
 10
3612.0553180857182269
 20
304.5982188735877116
 30
0.0
 11
3612.0554321854810951
 21
304.5920413684618211
 31
0.0
  0
LINE
  5
A959
  8
0
 10
3612.0446410791200833
 20
304.5932381924570223
 30
0.0
 11
3612.0446410759309401
 21
304.5973424780254959
 31
0.0
  0
LINE
  5
A95A
  8
0
 10
3612.0446410759309401
 20
304.5973424780254959
 30
0.0
 11
3612.0275933353977962
 21
304.5927933128248242
 31
0.0
  0
LINE
  5
A95B
  8
0
 10
3612.0275933353977962
 20
304.5927933128248242
 30
0.0
 11
3612.0105455979469298
 21
304.5840342871671282
 31
0.0
  0
LINE
  5
A95C
  8
0
 10
3612.0105455979469298
 20
304.5840342871671282
 30
0.0
 11
3612.0105456010751368
 21
304.5799309106332089
 31
0.0
  0
LINE
  5
A95D
  8
0
 10
3612.0105456010751368
 20
304.5799309106332089
 30
0.0
 11
3612.0275933416469343
 21
304.5844613441761908
 31
0.0
  0
LINE
  5
A95E
  8
0
 10
3612.0275933416469343
 20
304.5844613441761908
 30
0.0
 11
3612.0446410791200833
 21
304.5932381924570223
 31
0.0
  0
LINE
  5
A95F
  8
0
 10
3612.0275933352950233
 20
304.5927933127605911
 30
0.0
 11
3612.0275933416728549
 21
304.5844613441922206
 31
0.0
  0
LINE
  5
A960
  8
0
 10
3612.0446410686768104
 20
304.6067323475497233
 30
0.0
 11
3612.0446410639551686
 21
304.6128153592375725
 31
0.0
  0
LINE
  5
A961
  8
0
 10
3612.0446410639551686
 20
304.6128153592375725
 30
0.0
 11
3612.0275933226680536
 21
304.6092081439998083
 31
0.0
  0
LINE
  5
A962
  8
0
 10
3612.0275933226680536
 20
304.6092081439998083
 30
0.0
 11
3612.0105455858829373
 21
304.5996018863331756
 31
0.0
  0
LINE
  5
A963
  8
0
 10
3612.0105455858829373
 20
304.5996018863331756
 30
0.0
 11
3612.0105455905809322
 21
304.5935188746350946
 31
0.0
  0
LINE
  5
A964
  8
0
 10
3612.0105455905809322
 20
304.5935188746350946
 30
0.0
 11
3612.027593331999924
 21
304.5970421205548746
 31
0.0
  0
LINE
  5
A965
  8
0
 10
3612.027593331999924
 20
304.5970421205548746
 30
0.0
 11
3612.0446410686768104
 21
304.6067323475497233
 31
0.0
  0
LINE
  5
A966
  8
0
 10
3612.0275933225639164
 20
304.6092081439355752
 30
0.0
 11
3612.0275933320249351
 21
304.5970421205707908
 31
0.0
  0
LINE
  5
A967
  8
0
 10
3612.016802233225917
 20
304.5883084182004836
 30
0.0
 11
3612.0168022292668866
 21
304.5933827423576759
 31
0.0
  0
LINE
  5
A968
  8
0
 10
3612.0168022292668866
 20
304.5933827423576759
 30
0.0
 11
3611.9997544873640436
 21
304.5903144071559723
 31
0.0
  0
LINE
  5
A969
  8
0
 10
3611.9997544873640436
 20
304.5903144071559723
 30
0.0
 11
3611.9827067497021744
 21
304.5820974514433033
 31
0.0
  0
LINE
  5
A96A
  8
0
 10
3611.9827067497021744
 20
304.5820974514433033
 30
0.0
 11
3611.982706753641196
 21
304.5769412135538801
 31
0.0
  0
LINE
  5
A96B
  8
0
 10
3611.982706753641196
 20
304.5769412135538801
 30
0.0
 11
3611.9997544956640922
 21
304.5800217164959918
 31
0.0
  0
LINE
  5
A96C
  8
0
 10
3611.9997544956640922
 20
304.5800217164959918
 30
0.0
 11
3612.016802233225917
 21
304.5883084182004836
 31
0.0
  0
LINE
  5
A96D
  8
0
 10
3611.9997544872608159
 20
304.5903144070916824
 30
0.0
 11
3611.9997544956900128
 21
304.5800217165119079
 31
0.0
  0
LINE
  5
A96E
  8
0
 10
3612.0168022207490139
 20
304.6045668931519117
 30
0.0
 11
3612.0168022151970035
 21
304.6115967851100095
 31
0.0
  0
LINE
  5
A96F
  8
0
 10
3612.0168022151970035
 20
304.6115967851100095
 30
0.0
 11
3611.9997544726338674
 21
304.6093930950939921
 31
0.0
  0
LINE
  5
A970
  8
0
 10
3611.9997544726338674
 20
304.6093930950939921
 30
0.0
 11
3611.9827067356991392
 21
304.6002295805139966
 31
0.0
  0
LINE
  5
A971
  8
0
 10
3611.9827067356991392
 20
304.6002295805139966
 30
0.0
 11
3611.9827067411060852
 21
304.5932197950148748
 31
0.0
  0
LINE
  5
A972
  8
0
 10
3611.9827067411060852
 20
304.5932197950148748
 30
0.0
 11
3611.9997544836219276
 21
304.5953537390846009
 31
0.0
  0
LINE
  5
A973
  8
0
 10
3611.9997544836219276
 20
304.5953537390846009
 30
0.0
 11
3612.0168022207490139
 21
304.6045668931519117
 31
0.0
  0
LINE
  5
A974
  8
0
 10
3611.9997544725310945
 20
304.6093930950298159
 30
0.0
 11
3611.9997544836469388
 21
304.5953537391005739
 31
0.0
  0
LINE
  5
A975
  8
0
 10
3612.0446410351119084
 20
304.6502191931855918
 30
0.0
 11
3612.0443942506349231
 21
304.6602190822837883
 31
0.0
  0
LINE
  5
A976
  8
0
 10
3612.0443942506349231
 20
304.6602190822837883
 30
0.0
 11
3612.0275932852750884
 21
304.6584318531757845
 31
0.0
  0
LINE
  5
A977
  8
0
 10
3612.0275932852750884
 20
304.6584318531757845
 30
0.0
 11
3612.0105455495090609
 21
304.6467021325232167
 31
0.0
  0
LINE
  5
A978
  8
0
 10
3612.0105455495090609
 20
304.6467021325232167
 30
0.0
 11
3612.0105455571929269
 21
304.6367739523990963
 31
0.0
  0
LINE
  5
A979
  8
0
 10
3612.0105455571929269
 20
304.6367739523990963
 30
0.0
 11
3612.0275933000248187
 21
304.6384740240138171
 31
0.0
  0
LINE
  5
A97A
  8
0
 10
3612.0275933000248187
 20
304.6384740240138171
 30
0.0
 11
3612.0446410351119084
 21
304.6502191931855918
 31
0.0
  0
LINE
  5
A97B
  8
0
 10
3612.0275932851709513
 20
304.6584318531116082
 30
0.0
 11
3612.0275933000511941
 21
304.6384740240296765
 31
0.0
  0
LINE
  5
A97C
  8
0
 10
3612.0724798848468708
 20
304.649981838231497
 30
0.0
 11
3612.0724798779538105
 21
304.6590735482637911
 31
0.0
  0
LINE
  5
A97D
  8
0
 10
3612.0724798779538105
 20
304.6590735482637911
 30
0.0
 11
3612.0554321362428709
 21
304.6558234576571067
 31
0.0
  0
LINE
  5
A97E
  8
0
 10
3612.0554321362428709
 20
304.6558234576571067
 30
0.0
 11
3612.0383844014781971
 21
304.6436340267779883
 31
0.0
  0
LINE
  5
A97F
  8
0
 10
3612.0383844014781971
 20
304.6436340267779883
 30
0.0
 11
3612.0383844084299199
 21
304.6346331969326116
 31
0.0
  0
LINE
  5
A980
  8
0
 10
3612.0383844084299199
 20
304.6346331969326116
 30
0.0
 11
3612.055432150220895
 21
304.6377329305638
 31
0.0
  0
LINE
  5
A981
  8
0
 10
3612.055432150220895
 20
304.6377329305638
 30
0.0
 11
3612.0724798848468708
 21
304.649981838231497
 31
0.0
  0
LINE
  5
A982
  8
0
 10
3612.0554321361391885
 20
304.6558234575928168
 30
0.0
 11
3612.0554321502468156
 21
304.637732930579773
 31
0.0
  0
LINE
  5
A983
  8
0
 10
3611.9889633705229244
 20
304.6052477361030242
 30
0.0
 11
3611.9889633643429079
 21
304.6131978943880085
 31
0.0
  0
LINE
  5
A984
  8
0
 10
3611.9889633643429079
 20
304.6131978943880085
 30
0.0
 11
3611.9719156209571338
 21
304.6123294926641734
 31
0.0
  0
LINE
  5
A985
  8
0
 10
3611.9719156209571338
 20
304.6123294926641734
 30
0.0
 11
3611.9548678835221835
 21
304.6035663141344116
 31
0.0
  0
LINE
  5
A986
  8
0
 10
3611.9548678835221835
 20
304.6035663141344116
 30
0.0
 11
3611.9548678895921512
 21
304.595649366616783
 31
0.0
  0
LINE
  5
A987
  8
0
 10
3611.9548678895921512
 20
304.595649366616783
 30
0.0
 11
3611.9719156331047998
 21
304.5964628173060191
 31
0.0
  0
LINE
  5
A988
  8
0
 10
3611.9719156331047998
 20
304.5964628173060191
 30
0.0
 11
3611.9889633705229244
 21
304.6052477361030242
 31
0.0
  0
LINE
  5
A989
  8
0
 10
3611.9719156208539061
 20
304.6123294925999971
 30
0.0
 11
3611.9719156331311751
 21
304.5964628173218784
 31
0.0
  0
LINE
  5
A98A
  8
0
 10
3611.9889633851439612
 20
304.5863711900205999
 30
0.0
 11
3611.9889633804391451
 21
304.5924241387012898
 31
0.0
  0
LINE
  5
A98B
  8
0
 10
3611.9889633804391451
 20
304.5924241387012898
 30
0.0
 11
3611.9719156375890634
 21
304.5906602348001115
 31
0.0
  0
LINE
  5
A98C
  8
0
 10
3611.9719156375890634
 20
304.5906602348001115
 30
0.0
 11
3611.95486789949382
 21
304.5828558321725268
 31
0.0
  0
LINE
  5
A98D
  8
0
 10
3611.95486789949382
 20
304.5828558321725268
 30
0.0
 11
3611.9548679042140975
 21
304.5767728205344156
 31
0.0
  0
LINE
  5
A98E
  8
0
 10
3611.9548679042140975
 20
304.5767728205344156
 30
0.0
 11
3611.9718073538288081
 21
304.578481091417018
 31
0.0
  0
LINE
  5
A98F
  8
0
 10
3611.9718073538288081
 20
304.578481091417018
 30
0.0
 11
3611.9889633851439612
 21
304.5863711900205999
 31
0.0
  0
LINE
  5
A990
  8
0
 10
3611.9719156374858358
 20
304.5906602347358216
 30
0.0
 11
3611.9718073538538192
 21
304.578481091432991
 31
0.0
  0
LINE
  5
A991
  8
0
 10
3611.9611245347718977
 20
304.5871627666996915
 30
0.0
 11
3611.9611245294017863
 21
304.5941621653352058
 31
0.0
  0
LINE
  5
A992
  8
0
 10
3611.9611245294017863
 20
304.5941621653352058
 30
0.0
 11
3611.9440667504632074
 21
304.5936975758273206
 31
0.0
  0
LINE
  5
A993
  8
0
 10
3611.9440667504632074
 20
304.5936975758273206
 30
0.0
 11
3611.9270290478498282
 21
304.5853735615730784
 31
0.0
  0
LINE
  5
A994
  8
0
 10
3611.9270290478498282
 20
304.5853735615730784
 30
0.0
 11
3611.9270290525691962
 21
304.579290549935024
 31
0.0
  0
LINE
  5
A995
  8
0
 10
3611.9270290525691962
 20
304.579290549935024
 30
0.0
 11
3611.9444406977231665
 21
304.5798685177369975
 31
0.0
  0
LINE
  5
A996
  8
0
 10
3611.9444406977231665
 20
304.5798685177369975
 30
0.0
 11
3611.9611245347718977
 21
304.5871627666996915
 31
0.0
  0
LINE
  5
A997
  8
0
 10
3611.9440667503599798
 20
304.5936975757630876
 30
0.0
 11
3611.9444406977490871
 21
304.5798685177530274
 31
0.0
  0
LINE
  5
A998
  8
0
 10
3611.933285697059091
 20
304.5717928765669171
 30
0.0
 11
3611.9332856923319923
 21
304.5778758882781858
 31
0.0
  0
LINE
  5
A999
  8
0
 10
3611.9332856923319923
 20
304.5778758882781858
 30
0.0
 11
3611.9162231666628031
 21
304.5777880558238166
 31
0.0
  0
LINE
  5
A99A
  8
0
 10
3611.9162231666628031
 20
304.5777880558238166
 30
0.0
 11
3611.8991902087991548
 21
304.5716460401786208
 31
0.0
  0
LINE
  5
A99B
  8
0
 10
3611.8991902087991548
 20
304.5716460401786208
 30
0.0
 11
3611.8991902135189775
 21
304.5655630285405095
 31
0.0
  0
LINE
  5
A99C
  8
0
 10
3611.8991902135189775
 20
304.5655630285405095
 30
0.0
 11
3611.9162379577960564
 21
304.5656276461119774
 31
0.0
  0
LINE
  5
A99D
  8
0
 10
3611.9162379577960564
 20
304.5656276461119774
 30
0.0
 11
3611.933285697059091
 21
304.5717928765669171
 31
0.0
  0
LINE
  5
A99E
  8
0
 10
3611.9162231665600302
 20
304.5777880557595267
 30
0.0
 11
3611.9162379578210675
 21
304.5656276461280072
 31
0.0
  0
LINE
  5
A99F
  8
0
 10
3611.9611245473688541
 20
304.5708737983662786
 30
0.0
 11
3611.9611245433789009
 21
304.5760404230662743
 31
0.0
  0
LINE
  5
A9A0
  8
0
 10
3611.9611245433789009
 20
304.5760404230662743
 30
0.0
 11
3611.9440571816530792
 21
304.5746694419796086
 31
0.0
  0
LINE
  5
A9A1
  8
0
 10
3611.9440571816530792
 20
304.5746694419796086
 30
0.0
 11
3611.9270290611589189
 21
304.568168206334974
 31
0.0
  0
LINE
  5
A9A2
  8
0
 10
3611.9270290611589189
 20
304.568168206334974
 30
0.0
 11
3611.9270290651529649
 21
304.5629884252160196
 31
0.0
  0
LINE
  5
A9A3
  8
0
 10
3611.9270290651529649
 20
304.5629884252160196
 30
0.0
 11
3611.9440988968572128
 21
304.5643388149933912
 31
0.0
  0
LINE
  5
A9A4
  8
0
 10
3611.9440988968572128
 20
304.5643388149933912
 30
0.0
 11
3611.9611245473688541
 21
304.5708737983662786
 31
0.0
  0
LINE
  5
A9A5
  8
0
 10
3611.944057181548942
 20
304.5746694419153755
 30
0.0
 11
3611.9440988968831334
 21
304.5643388150093074
 31
0.0
  0
LINE
  5
A9A6
  8
0
 10
3611.9889633955817771
 20
304.5727041720268176
 30
0.0
 11
3611.9888252256000669
 21
304.5768952419168158
 31
0.0
  0
LINE
  5
A9A7
  8
0
 10
3611.9888252256000669
 20
304.5768952419168158
 30
0.0
 11
3611.9718982232561757
 21
304.5742107328056818
 31
0.0
  0
LINE
  5
A9A8
  8
0
 10
3611.9718982232561757
 20
304.5742107328056818
 30
0.0
 11
3611.9548679115127925
 21
304.5673216678434869
 31
0.0
  0
LINE
  5
A9A9
  8
0
 10
3611.9548679115127925
 20
304.5673216678434869
 30
0.0
 11
3611.9548679147142138
 21
304.5630725917600898
 31
0.0
  0
LINE
  5
A9AA
  8
0
 10
3611.9548679147142138
 20
304.5630725917600898
 30
0.0
 11
3611.9719156567989558
 21
304.5657527585840967
 31
0.0
  0
LINE
  5
A9AB
  8
0
 10
3611.9719156567989558
 20
304.5657527585840967
 30
0.0
 11
3611.9889633955817771
 21
304.5727041720268176
 31
0.0
  0
LINE
  5
A9AC
  8
0
 10
3611.971898223152948
 20
304.5742107327415056
 30
0.0
 11
3611.9719156568239669
 21
304.5657527586000128
 31
0.0
  0
LINE
  5
A9AD
  8
0
 10
3611.9611245182290986
 20
304.6086002369626726
 30
0.0
 11
3611.9611245113551377
 21
304.6175078283609992
 31
0.0
  0
LINE
  5
A9AE
  8
0
 10
3611.9611245113551377
 20
304.6175078283609992
 30
0.0
 11
3611.9440767670321293
 21
304.6179302201613268
 31
0.0
  0
LINE
  5
A9AF
  8
0
 10
3611.9440767670321293
 20
304.6179302201613268
 30
0.0
 11
3611.927029029213827
 21
304.6095331613349799
 31
0.0
  0
LINE
  5
A9B0
  8
0
 10
3611.927029029213827
 20
304.6095331613349799
 30
0.0
 11
3611.9270290360132094
 21
304.6007148638124136
 31
0.0
  0
LINE
  5
A9B1
  8
0
 10
3611.9270290360132094
 20
304.6007148638124136
 30
0.0
 11
3611.9440767805549513
 21
304.600253404927912
 31
0.0
  0
LINE
  5
A9B2
  8
0
 10
3611.9440767805549513
 20
304.600253404927912
 30
0.0
 11
3611.9611245182290986
 21
304.6086002369626726
 31
0.0
  0
LINE
  5
A9B3
  8
0
 10
3611.9440767669279921
 20
304.6179302200970938
 30
0.0
 11
3611.9440767805799624
 21
304.6002534049438282
 31
0.0
  0
LINE
  5
A9B4
  8
0
 10
3611.9332856824930786
 20
304.5906541931669267
 30
0.0
 11
3611.9332856763630843
 21
304.598554321033987
 31
0.0
  0
LINE
  5
A9B5
  8
0
 10
3611.9332856763630843
 20
304.598554321033987
 30
0.0
 11
3611.9162183129710684
 21
304.5993493722737071
 31
0.0
  0
LINE
  5
A9B6
  8
0
 10
3611.9162183129710684
 20
304.5993493722737071
 30
0.0
 11
3611.8991901929339292
 21
304.5922851984356043
 31
0.0
  0
LINE
  5
A9B7
  8
0
 10
3611.8991901929339292
 20
304.5922851984356043
 30
0.0
 11
3611.8991901989897997
 21
304.5844056803351236
 31
0.0
  0
LINE
  5
A9B8
  8
0
 10
3611.8991901989897997
 20
304.5844056803351236
 30
0.0
 11
3611.9161953855978027
 21
304.5835796750267264
 31
0.0
  0
LINE
  5
A9B9
  8
0
 10
3611.9161953855978027
 20
304.5835796750267264
 30
0.0
 11
3611.9332856824930786
 21
304.5906541931669267
 31
0.0
  0
LINE
  5
A9BA
  8
0
 10
3611.9162183128669312
 20
304.599349372209474
 30
0.0
 11
3611.916195385624178
 21
304.5835796750425857
 31
0.0
  0
LINE
  5
A9BB
  8
0
 10
3611.9332857076651635
 20
304.5580605987747731
 30
0.0
 11
3611.9332857044278171
 21
304.5622601616358907
 31
0.0
  0
LINE
  5
A9BC
  8
0
 10
3611.9332857044278171
 20
304.5622601616358907
 30
0.0
 11
3611.9162379614140264
 21
304.5613337258263869
 31
0.0
  0
LINE
  5
A9BD
  8
0
 10
3611.9162379614140264
 20
304.5613337258263869
 30
0.0
 11
3611.8994291727781274
 21
304.5561472085448145
 31
0.0
  0
LINE
  5
A9BE
  8
0
 10
3611.8994291727781274
 20
304.5561472085448145
 30
0.0
 11
3611.899190224205995
 21
304.5517914761355769
 31
0.0
  0
LINE
  5
A9BF
  8
0
 10
3611.899190224205995
 20
304.5517914761355769
 30
0.0
 11
3611.9162379675171906
 21
304.5527811632853172
 31
0.0
  0
LINE
  5
A9C0
  8
0
 10
3611.9162379675171906
 20
304.5527811632853172
 30
0.0
 11
3611.9332857076651635
 21
304.5580605987747731
 31
0.0
  0
LINE
  5
A9C1
  8
0
 10
3611.9162379613098892
 20
304.5613337257622106
 30
0.0
 11
3611.9162379675422017
 21
304.5527811633011765
 31
0.0
  0
LINE
  5
A9C2
  8
0
 10
3611.9611245559949566
 20
304.5597194569563158
 30
0.0
 11
3611.9611245533601505
 21
304.5631158613663274
 31
0.0
  0
LINE
  5
A9C3
  8
0
 10
3611.9611245533601505
 20
304.5631158613663274
 30
0.0
 11
3611.9440768110471254
 21
304.560803362400577
 31
0.0
  0
LINE
  5
A9C4
  8
0
 10
3611.9440768110471254
 20
304.560803362400577
 30
0.0
 11
3611.927029071187917
 21
304.5551818096349734
 31
0.0
  0
LINE
  5
A9C5
  8
0
 10
3611.927029071187917
 20
304.5551818096349734
 30
0.0
 11
3611.9270290737781579
 21
304.5518340838059999
 31
0.0
  0
LINE
  5
A9C6
  8
0
 10
3611.9270290737781579
 20
304.5518340838059999
 30
0.0
 11
3611.9439515119770476
 21
304.5541285486129937
 31
0.0
  0
LINE
  5
A9C7
  8
0
 10
3611.9439515119770476
 20
304.5541285486129937
 30
0.0
 11
3611.9611245559949566
 21
304.5597194569563158
 31
0.0
  0
LINE
  5
A9C8
  8
0
 10
3611.9440768109429882
 20
304.5608033623364008
 30
0.0
 11
3611.9439515120020587
 21
304.5541285486289098
 31
0.0
  0
LINE
  5
A9C9
  8
0
 10
3612.0168022415969062
 20
304.5774505301930049
 30
0.0
 11
3612.0168022392090279
 21
304.5806633716650822
 31
0.0
  0
LINE
  5
A9CA
  8
0
 10
3612.0168022392090279
 20
304.5806633716650822
 30
0.0
 11
3611.9997393010189626
 21
304.576532514948326
 31
0.0
  0
LINE
  5
A9CB
  8
0
 10
3611.9997393010189626
 20
304.576532514948326
 30
0.0
 11
3611.9827067596461347
 21
304.5692217198338199
 31
0.0
  0
LINE
  5
A9CC
  8
0
 10
3611.9827067596461347
 20
304.5692217198338199
 30
0.0
 11
3611.9827067621740753
 21
304.5659466987337964
 31
0.0
  0
LINE
  5
A9CD
  8
0
 10
3611.9827067621740753
 20
304.5659466987337964
 30
0.0
 11
3611.9997654637631967
 21
304.5700534152572914
 31
0.0
  0
LINE
  5
A9CE
  8
0
 10
3611.9997654637631967
 20
304.5700534152572914
 30
0.0
 11
3612.0168022415969062
 21
304.5774505301930049
 31
0.0
  0
LINE
  5
A9CF
  8
0
 10
3611.9997393009148254
 20
304.576532514884093
 30
0.0
 11
3611.9997654637868436
 21
304.5700534152733212
 31
0.0
  0
LINE
  5
A9D0
  8
0
 10
3611.9889634018632023
 20
304.5646367034943864
 30
0.0
 11
3611.9889634002652201
 21
304.5667368299656914
 31
0.0
  0
LINE
  5
A9D1
  8
0
 10
3611.9889634002652201
 20
304.5667368299656914
 30
0.0
 11
3611.9719093989037901
 21
304.5630233598740801
 31
0.0
  0
LINE
  5
A9D2
  8
0
 10
3611.9719093989037901
 20
304.5630233598740801
 30
0.0
 11
3611.9548679192471354
 21
304.5572410944322996
 31
0.0
  0
LINE
  5
A9D3
  8
0
 10
3611.9548679192471354
 20
304.5572410944322996
 30
0.0
 11
3611.9548679212439311
 21
304.5546512038728224
 31
0.0
  0
LINE
  5
A9D4
  8
0
 10
3611.9548679212439311
 20
304.5546512038728224
 30
0.0
 11
3611.9719156624992138
 21
304.5583720051840828
 31
0.0
  0
LINE
  5
A9D5
  8
0
 10
3611.9719156624992138
 20
304.5583720051840828
 30
0.0
 11
3611.9889634018632023
 21
304.5646367034943864
 31
0.0
  0
LINE
  5
A9D6
  8
0
 10
3611.9719093988010172
 20
304.5630233598099039
 30
0.0
 11
3611.9719156625242249
 21
304.5583720052001127
 31
0.0
  0
LINE
  5
A9D7
  8
0
 10
3612.0446410851400287
 20
304.5853462934838944
 30
0.0
 11
3612.0446410834920243
 21
304.5874807836767104
 31
0.0
  0
LINE
  5
A9D8
  8
0
 10
3612.0446410834920243
 20
304.5874807836767104
 30
0.0
 11
3612.0275933437801541
 21
304.5818186263207963
 31
0.0
  0
LINE
  5
A9D9
  8
0
 10
3612.0275933437801541
 20
304.5818186263207963
 30
0.0
 11
3612.0105456055762261
 21
304.574035543018681
 31
0.0
  0
LINE
  5
A9DA
  8
0
 10
3612.0105456055762261
 20
304.574035543018681
 30
0.0
 11
3612.0105456072969901
 21
304.5717976996626817
 31
0.0
  0
LINE
  5
A9DB
  8
0
 10
3612.0105456072969901
 20
304.5717976996626817
 30
0.0
 11
3612.0275980819101278
 21
304.5774465002367037
 31
0.0
  0
LINE
  5
A9DC
  8
0
 10
3612.0275980819101278
 20
304.5774465002367037
 30
0.0
 11
3612.0446410851400287
 21
304.5853462934838944
 31
0.0
  0
LINE
  5
A9DD
  8
0
 10
3612.0275933436769265
 20
304.5818186262566201
 30
0.0
 11
3612.0275980819351389
 21
304.5774465002526199
 31
0.0
  0
LINE
  5
A9DE
  8
0
 10
3611.9611245602832241
 20
304.5541516716663182
 30
0.0
 11
3611.9611245592300293
 21
304.5555149993663235
 31
0.0
  0
LINE
  5
A9DF
  8
0
 10
3611.9611245592300293
 20
304.5555149993663235
 30
0.0
 11
3611.9440736876899791
 21
304.5520499907319731
 31
0.0
  0
LINE
  5
A9E0
  8
0
 10
3611.9440736876899791
 20
304.5520499907319731
 30
0.0
 11
3611.9270290771660257
 21
304.5474386420164024
 31
0.0
  0
LINE
  5
A9E1
  8
0
 10
3611.9270290771660257
 20
304.5474386420164024
 30
0.0
 11
3611.9270290782719712
 21
304.5460035120997873
 31
0.0
  0
LINE
  5
A9E2
  8
0
 10
3611.9270290782719712
 20
304.5460035120997873
 30
0.0
 11
3611.9440768195258897
 21
304.5497243134111045
 31
0.0
  0
LINE
  5
A9E3
  8
0
 10
3611.9440768195258897
 20
304.5497243134111045
 30
0.0
 11
3611.9611245602832241
 21
304.5541516716663182
 31
0.0
  0
LINE
  5
A9E4
  8
0
 10
3611.9440736875872062
 20
304.5520499906677969
 30
0.0
 11
3611.9440768195518103
 21
304.5497243134270207
 31
0.0
  0
LINE
  5
A9E5
  8
0
 10
3611.9332857141830573
 20
304.5495570614108942
 30
0.0
 11
3611.9332857123531539
 21
304.5519533543715056
 31
0.0
  0
LINE
  5
A9E6
  8
0
 10
3611.9332857123531539
 20
304.5519533543715056
 30
0.0
 11
3611.9162338113142141
 21
304.549997877836006
 31
0.0
  0
LINE
  5
A9E7
  8
0
 10
3611.9162338113142141
 20
304.549997877836006
 30
0.0
 11
3611.8992241020641814
 21
304.5456346912707772
 31
0.0
  0
LINE
  5
A9E8
  8
0
 10
3611.8992241020641814
 20
304.5456346912707772
 30
0.0
 11
3611.8991902308130193
 21
304.5431873394368267
 31
0.0
  0
LINE
  5
A9E9
  8
0
 10
3611.8991902308130193
 20
304.5431873394368267
 30
0.0
 11
3611.9162403212208119
 21
304.5451637346653797
 31
0.0
  0
LINE
  5
A9EA
  8
0
 10
3611.9162403212208119
 20
304.5451637346653797
 30
0.0
 11
3611.9332857141830573
 21
304.5495570614108942
 31
0.0
  0
LINE
  5
A9EB
  8
0
 10
3611.9162338112109865
 20
304.549997877771716
 30
0.0
 11
3611.9162403212471872
 21
304.5451637346812959
 31
0.0
  0
ARC
  5
A9EC
  8
0
 10
3612.0342673470381669
 20
304.686772581932928
 30
0.0
 40
0.0980014298688687
 50
292.9932427036343938
 51
326.4893931802985776
  0
ARC
  5
A9ED
  8
0
 10
3611.7693684317760017
 20
305.2061777191379974
 30
0.0
 40
0.6808490969917307
 50
289.7815036782549214
 51
296.4423822237131958
  0
ARC
  5
A9EE
  8
0
 10
3611.8066278853148106
 20
305.1173941216322874
 30
0.0
 40
0.5847162339089628
 50
280.6164306024534199
 51
289.2902420668856962
  0
ARC
  5
A9EF
  8
0
 10
3611.8065131034450133
 20
305.1084170673543099
 30
0.0
 40
0.5759167002394788
 50
274.9357024592756034
 51
280.7921920701202225
  0
LINE
  5
A9F0
  8
0
 10
3611.905446799317815
 20
304.6340344452344198
 30
0.0
 11
3611.9054468075519253
 21
304.6233386841673791
 31
0.0
  0
LINE
  5
A9F1
  8
0
 10
3611.9054468075519253
 20
304.6233386841673791
 30
0.0
 11
3611.8883990693461783
 21
304.6156341859536951
 31
0.0
  0
LINE
  5
A9F2
  8
0
 10
3611.8883990693461783
 20
304.6156341859536951
 30
0.0
 11
3611.8875596857010351
 21
304.6157644695535964
 31
0.0
  0
LINE
  5
A9F3
  8
0
 10
3611.8875596857010351
 20
304.6157644695535964
 30
0.0
 11
3611.8875596696198045
 21
304.6365875117535893
 31
0.0
  0
LINE
  5
A9F4
  8
0
 10
3611.8875596696198045
 20
304.6365875117535893
 30
0.0
 11
3611.8883990528511276
 21
304.6369850753725927
 31
0.0
  0
LINE
  5
A9F5
  8
0
 10
3611.8883990528511276
 20
304.6369850753725927
 30
0.0
 11
3611.9054467992918944
 21
304.6340344452385125
 31
0.0
  0
LINE
  5
A9F6
  8
0
 10
3611.8883990529129733
 20
304.6369850753608262
 30
0.0
 11
3611.8883990693461783
 21
304.6156341859536951
 31
0.0
  0
LINE
  5
A9F7
  8
0
 10
3611.9054468212962092
 20
304.6055392311258743
 30
0.0
 11
3611.9054468280919536
 21
304.5967408324169128
 31
0.0
  0
LINE
  5
A9F8
  8
0
 10
3611.9054468280919536
 20
304.5967408324169128
 30
0.0
 11
3611.8883990891667963
 21
304.5899677254536755
 31
0.0
  0
LINE
  5
A9F9
  8
0
 10
3611.8883990891667963
 20
304.5899677254536755
 30
0.0
 11
3611.8875597055230173
 21
304.5900980090535768
 31
0.0
  0
LINE
  5
A9FA
  8
0
 10
3611.8875597055230173
 20
304.5900980090535768
 30
0.0
 11
3611.8875596922857767
 21
304.6072377932536028
 31
0.0
  0
LINE
  5
A9FB
  8
0
 10
3611.8875596922857767
 20
304.6072377932536028
 30
0.0
 11
3611.8883990755489322
 21
304.6075852599857967
 31
0.0
  0
LINE
  5
A9FC
  8
0
 10
3611.8883990755489322
 20
304.6075852599857967
 30
0.0
 11
3611.9054468212698339
 21
304.6055392311300238
 31
0.0
  0
LINE
  5
A9FD
  8
0
 10
3611.8883990756098683
 20
304.6075852599739733
 30
0.0
 11
3611.8883990891667963
 21
304.5899677254536755
 31
0.0
  0
LINE
  5
A9FE
  8
0
 10
3611.9054468392919262
 20
304.5823266190041068
 30
0.0
 11
3611.9054468446151986
 21
304.5753468264674098
 31
0.0
  0
LINE
  5
A9FF
  8
0
 10
3611.9054468446151986
 20
304.5753468264674098
 30
0.0
 11
3611.8883991050151963
 21
304.5694488153537804
 31
0.0
  0
LINE
  5
AA00
  8
0
 10
3611.8883991050151963
 20
304.5694488153537804
 30
0.0
 11
3611.8875597213691435
 21
304.5695790989536249
 31
0.0
  0
LINE
  5
AA01
  8
0
 10
3611.8875597213691435
 20
304.5695790989536249
 30
0.0
 11
3611.8875597052879129
 21
304.5904021411536178
 31
0.0
  0
LINE
  5
AA02
  8
0
 10
3611.8875597108599322
 20
304.5831872872536223
 30
0.0
 11
3611.8883990941471893
 21
304.5834882689068763
 31
0.0
  0
LINE
  5
AA03
  8
0
 10
3611.8883990941471893
 20
304.5834882689068763
 30
0.0
 11
3611.9054468392660056
 21
304.5823266190081995
 31
0.0
  0
LINE
  5
AA04
  8
0
 10
3611.8883990942081255
 20
304.5834882688949961
 30
0.0
 11
3611.8883991050151963
 21
304.5694488153537804
 31
0.0
  0
LINE
  5
AA05
  8
0
 10
3611.9054468532240207
 20
304.564224482911527
 30
0.0
 11
3611.9054468572098813
 21
304.5590382520675234
 31
0.0
  0
LINE
  5
AA06
  8
0
 10
3611.9054468572098813
 20
304.5590382520675234
 30
0.0
 11
3611.8883991168549983
 21
304.5541168901756919
 31
0.0
  0
LINE
  5
AA07
  8
0
 10
3611.8883991168549983
 20
304.5541168901756919
 30
0.0
 11
3611.887559733310809
 21
304.5541154191536179
 31
0.0
  0
LINE
  5
AA08
  8
0
 10
3611.887559733310809
 20
304.5541154191536179
 30
0.0
 11
3611.8875597252708758
 21
304.564526940253586
 31
0.0
  0
LINE
  5
AA09
  8
0
 10
3611.8875597252708758
 20
304.564526940253586
 30
0.0
 11
3611.8883991086267997
 21
304.5647264575800932
 31
0.0
  0
LINE
  5
AA0A
  8
0
 10
3611.8883991086267997
 20
304.5647264575800932
 30
0.0
 11
3611.9054468531981001
 21
304.5642244829155061
 31
0.0
  0
LINE
  5
AA0B
  8
0
 10
3611.8883991086891001
 20
304.5647264575683266
 30
0.0
 11
3611.8883991168549983
 21
304.5541168901756919
 31
0.0
  0
LINE
  5
AA0C
  8
0
 10
3611.9054468633130455
 20
304.5512077782017855
 30
0.0
 11
3611.9054468659242048
 21
304.5478401534696218
 31
0.0
  0
LINE
  5
AA0D
  8
0
 10
3611.9054468659242048
 20
304.5478401534696218
 30
0.0
 11
3611.8883991249567771
 21
304.543624930953797
 31
0.0
  0
LINE
  5
AA0E
  8
0
 10
3611.8883991249567771
 20
304.543624930953797
 30
0.0
 11
3611.8875597413120886
 21
304.5437552145535847
 31
0.0
  0
LINE
  5
AA0F
  8
0
 10
3611.8875597413120886
 20
304.5437552145535847
 30
0.0
 11
3611.887559736221192
 21
304.5503484559536105
 31
0.0
  0
LINE
  5
AA10
  8
0
 10
3611.887559736221192
 20
304.5503484559536105
 30
0.0
 11
3611.8883991194370537
 21
304.5505615423738277
 31
0.0
  0
LINE
  5
AA11
  8
0
 10
3611.8883991194370537
 20
304.5505615423738277
 30
0.0
 11
3611.9054468632871249
 21
304.5512077782058213
 31
0.0
  0
LINE
  5
AA12
  8
0
 10
3611.8883991194988994
 20
304.5505615423618906
 30
0.0
 11
3611.8883991249567771
 21
304.543624930953797
 31
0.0
  0
LINE
  5
AA13
  8
0
 10
3611.8875597429741902
 20
304.5416042058536163
 30
0.0
 11
3611.888399126431068
 21
304.5417734329287782
 31
0.0
  0
LINE
  5
AA14
  8
0
 10
3611.888399126431068
 20
304.5417734329287782
 30
0.0
 11
3611.9054468692911541
 21
304.5433949193674721
 31
0.0
  0
LINE
  5
AA15
  8
0
 10
3611.9054468692911541
 20
304.5433949193674721
 30
0.0
 11
3611.905446870427113
 21
304.5419246570673977
 31
0.0
  0
LINE
  5
AA16
  8
0
 10
3611.905446870427113
 20
304.5419246570673977
 30
0.0
 11
3611.8883991302818686
 21
304.5387922757557249
 31
0.0
  0
LINE
  5
AA17
  8
0
 10
3611.8883991302818686
 20
304.5387922757557249
 30
0.0
 11
3611.8875597452210968
 21
304.5386942225783855
 31
0.0
  0
LINE
  5
AA18
  8
0
 10
3611.8875597452210968
 20
304.5386942225783855
 30
0.0
 11
3611.8875597429741902
 21
304.5416042058536163
 31
0.0
  0
LINE
  5
AA19
  8
0
 10
3611.8883991287298159
 20
304.5387922755729164
 30
0.0
 11
3611.8884554385808769
 21
304.5417787890270915
 31
0.0
  0
ARC
  5
AA1A
  8
0
 10
3612.0720998866331684
 20
304.8725209535282943
 30
0.0
 40
0.2802657217189744
 50
283.7392568027295852
 51
312.2651743019719106
  0
ARC
  5
AA1B
  8
0
 10
3611.8060067728611102
 20
305.4908735893878884
 30
0.0
 40
0.9707197652213151
 50
269.9561384716378143
 51
276.3259839383994745
  0
ARC
  5
AA1C
  8
0
 10
3612.0882902987618763
 20
304.6175385019436135
 30
0.0
 40
0.0315523272810756
 50
336.0313081128514909
 51
28.650676926370199
  0
ARC
  5
AA1D
  8
0
 10
3611.1945282717711052
 20
307.1137613284291774
 30
0.0
 40
0.0315094051742354
 50
180.0729796774548959
 51
269.4570896796724924
  0
ARC
  5
AA1E
  8
0
 10
3611.8182901722038878
 20
559.3349994591075074
 30
0.0
 40
252.252256607921197
 50
269.868994299635915
 51
269.9969546407049279
  0
ARC
  5
AA1F
  8
0
 10
3611.238762054720155
 20
305.8768882178782178
 30
0.0
 40
1.2065171735566229
 50
89.868994299635915
 51
91.8974053224718972
  0
ARC
  5
AA20
  8
0
 10
3611.2000248495728556
 20
307.0462045132641151
 30
0.0
 40
0.0365594094823639
 50
91.8974053224718972
 51
98.1290099200302848
  0
ARC
  5
AA21
  8
0
 10
3611.1954010435838427
 20
307.0785755637717216
 30
0.0
 40
0.0038597995034286
 50
98.1290099200302848
 51
107.666195940747599
  0
ARC
  5
AA22
  8
0
 10
3611.7914726226790663
 20
559.3349994589824519
 30
0.0
 40
252.252256607921197
 50
270.0030458940760809
 51
270.1310062351465149
  0
ARC
  5
AA23
  8
0
 10
3612.3710031058972163
 20
305.8768882231623252
 30
0.0
 40
1.2065171735566229
 50
88.1025952123157339
 51
90.1310062351465149
  0
ARC
  5
AA24
  8
0
 10
3612.409740300131034
 20
307.0462045189096898
 30
0.0
 40
0.0365594094823639
 50
81.8709906147565647
 51
88.1025952123157339
  0
ARC
  5
AA25
  8
0
 10
3612.4143641058158209
 20
307.0785755694604973
 30
0.0
 40
0.0038597995034286
 50
72.3338045940320455
 51
81.8709906147565647
  0
ARC
  5
AA26
  8
0
 10
3612.4152322425147759
 20
307.113772299607092
 30
0.0
 40
0.0315204144052184
 50
270.5511464246721971
 51
359.9056210192881053
  0
ARC
  5
AA27
  8
0
 10
3611.8122739558621106
 20
312.6493793303794178
 30
0.0
 40
5.7274167817407564
 50
261.6288567739306927
 51
269.9298705683410731
  0
ARC
  5
AA28
  8
0
 10
3611.7966693032590229
 20
312.6708961550140202
 30
0.0
 40
5.7489357401693333
 50
270.0856542074649838
 51
278.3555800107744176
  0
ARC
  5
AA29
  8
0
 10
3610.8137256124791747
 20
306.3108388604339893
 30
0.0
 40
0.1661860255938749
 50
6.3961528344471104
 51
7.6064284847230264
  0
LINE
  5
AA2A
  8
0
 10
3610.8800674765889198
 20
296.7135456683733992
 30
0.0
 11
3610.8800674765889198
 21
296.6807583589476849
 31
0.0
  0
LINE
  5
AA2B
  8
0
 10
3612.7304598427931523
 20
296.7135456683733992
 30
0.0
 11
3612.7304598427931523
 21
296.6807583589476849
 31
0.0
  0
LINE
  5
AA2C
  8
0
 10
3612.6320818019958097
 20
306.9829836995036203
 30
0.0
 11
3612.4155353945811839
 21
307.0822580385037099
 31
0.0
  0
LINE
  5
AA2D
  8
0
 10
3610.9784493165611821
 20
306.9829836979990887
 30
0.0
 11
3611.1948552583580749
 21
307.0823965807426816
 31
0.0
  0
ARC
  5
AA2E
  8
0
 10
3612.4153005012649373
 20
307.2312580432717937
 30
0.0
 40
0.0314525020903014
 50
359.7149665733743973
 51
84.7179980613087338
  0
ARC
  5
AA2F
  8
0
 10
3611.194458784795188
 20
307.2312696940908268
 30
0.0
 40
0.0314403421181508
 50
95.3375472392932295
 51
180.3063722683648962
  0
LINE
  5
AA30
  8
0
 10
3612.4467526141579583
 20
307.2314145116458235
 30
0.0
 11
3612.4467526141579583
 21
307.1137203784467147
 31
0.0
  0
LINE
  5
AA31
  8
0
 10
3611.1630188921571971
 20
307.2314378112387203
 30
0.0
 11
3611.1630188921571971
 21
307.1137211937871143
 31
0.0
  0
LINE
  5
AA32
  8
0
 10
3611.1942652388061106
 20
305.4251840457225171
 30
0.0
 11
3611.1942652388061106
 21
304.724310913721979
 31
0.0
  0
LINE
  5
AA33
  8
0
 10
3612.6320780028217996
 20
299.0335311355905787
 30
0.0
 11
3612.8147203320140761
 21
298.9164942059035752
 31
0.0
  0
ARC
  5
AA34
  8
0
 10
3612.7714954347511593
 20
298.8633976985893241
 30
0.0
 40
0.0897435170369461
 50
241.9609597439971935
 51
265.6540296391298739
  0
ARC
  5
AA35
  8
0
 10
3612.7609994202821326
 20
298.8579563868232754
 30
0.0
 40
0.0841253635800947
 50
272.5176319588218234
 51
358.0048538675928853
  0
LINE
  5
AA36
  8
0
 10
3612.7293094235142235
 20
298.7841876026035948
 30
0.0
 11
3612.6320780028217996
 21
298.8474199130629927
 31
0.0
  0
LINE
  5
AA37
  8
0
 10
3612.7304598427931523
 20
296.6807583589476849
 30
0.0
 11
3610.8800674765889198
 21
296.6807583589476849
 31
0.0
  0
LINE
  5
AA38
  8
0
 10
3612.6338227188462042
 20
297.0288631813477878
 30
0.0
 11
3610.9767924419711562
 21
297.0288631813477878
 31
0.0
  0
LINE
  5
AA39
  8
0
 10
3610.9784493165611821
 20
297.0400731072284088
 30
0.0
 11
3610.9784493165611821
 21
306.2131987947037146
 31
0.0
  0
LINE
  5
AA3A
  8
0
 10
3610.9784493165611821
 20
306.3328365061357772
 30
0.0
 11
3610.9784493165611821
 21
307.2304717622866974
 31
0.0
  0
ARC
  5
AA3B
  8
0
 10
3612.7598592290601118
 20
298.8511748074001275
 30
0.0
 40
0.0853016086488408
 50
2.5887264058552688
 51
49.9734395533352682
  0
ARC
  5
AA3D
  8
0
 10
3612.6008833961268465
 20
307.2255497398945749
 30
0.0
 40
0.0315805286725805
 50
8.9664586133126711
 51
85.8950406018602592
  0
ARC
  5
AA3E
  8
0
 10
3612.6037914890362117
 20
306.333251466131685
 30
0.0
 40
0.028130171861623
 50
291.3210092759479153
 51
352.0325936122532084
  0
ARC
  5
AA3F
  8
0
 10
3612.6059506451138077
 20
306.3309001882872167
 30
0.0
 40
0.0251813364730714
 50
269.8782630040578283
 51
288.6887329021325854
  0
ARC
  5
AA40
  8
0
 10
3612.7968017069019879
 20
306.3108388604339893
 30
0.0
 40
0.1661860255938749
 50
172.3935715152769035
 51
173.6038471655529065
  0
LINE
  5
AA41
  8
0
 10
3612.6320780028217996
 20
306.3328365061357772
 30
0.0
 11
3612.6320780028217996
 21
307.2304717622866974
 31
0.0
  0
LINE
  5
AA42
  8
0
 10
3612.6320780028217996
 20
297.0399720816913032
 30
0.0
 11
3612.6320780028217996
 21
306.2131987947037146
 31
0.0
  0
ENDSEC
  0
EOF
