  0
SECTION
  2
HEADER
  9
$ACADVER
  1
AC1009
  9
$INSBASE
 10
3630.8423328606668292
 20
296.0480414067873767
 30
0.0
  9
$EXTMIN
 10
3625.3882073822592247
 20
296.0397132241939175
 30
-0.0000000000112498
  9
$EXTMAX
 10
3632.0222356734311688
 20
306.7868282487692113
 30
0.0000000000002956
  9
$LIMMIN
 10
0.0
 20
0.0
  9
$LIMMAX
 10
11.6929133858000007
 20
8.2677165353999982
  9
$ORTHOMODE
 70
     0
  9
$REGENMODE
 70
     1
  9
$FILLMODE
 70
     1
  9
$QTEXTMODE
 70
     0
  9
$MIRRTEXT
 70
     0
  9
$DRAGMODE
 70
     2
  9
$LTSCALE
 40
0.6431102362
  9
$OSMODE
 70
  4095
  9
$ATTMODE
 70
     1
  9
$TEXTSIZE
 40
0.2
  9
$TRACEWID
 40
0.05
  9
$TEXTSTYLE
  7
STANDARD
  9
$CLAYER
  8
0
  9
$CELTYPE
  6
BYLAYER
  9
$CECOLOR
 62
   256
  9
$DIMSCALE
 40
1.0
  9
$DIMASZ
 40
0.1875
  9
$DIMEXO
 40
0.0625
  9
$DIMDLI
 40
0.4443307087
  9
$DIMRND
 40
0.0
  9
$DIMDLE
 40
0.0
  9
$DIMEXE
 40
0.125
  9
$DIMTP
 40
0.01
  9
$DIMTM
 40
0.01
  9
$DIMTXT
 40
2.0
  9
$DIMCEN
 40
0.1052362205
  9
$DIMTSZ
 40
0.0
  9
$DIMTOL
 70
     1
  9
$DIMLIM
 70
     0
  9
$DIMTIH
 70
     1
  9
$DIMTOH
 70
     1
  9
$DIMSE1
 70
     0
  9
$DIMSE2
 70
     0
  9
$DIMTAD
 70
     0
  9
$DIMZIN
 70
     0
  9
$DIMBLK
  1

  9
$DIMASO
 70
     1
  9
$DIMSHO
 70
     1
  9
$DIMPOST
  1
\X
  9
$DIMAPOST
  1

  9
$DIMALT
 70
     1
  9
$DIMALTD
 70
     2
  9
$DIMALTF
 40
25.3999999999999986
  9
$DIMLFAC
 40
1.0
  9
$DIMTOFL
 70
     0
  9
$DIMTVP
 40
0.0
  9
$DIMTIX
 70
     0
  9
$DIMSOXD
 70
     0
  9
$DIMSAH
 70
     0
  9
$DIMBLK1
  1

  9
$DIMBLK2
  1

  9
$DIMSTYLE
  2
STANDARD
  9
$DIMCLRD
 70
     0
  9
$DIMCLRE
 70
     0
  9
$DIMCLRT
 70
     0
  9
$DIMTFAC
 40
1.0
  9
$DIMGAP
 40
0.09
  9
$LUNITS
 70
     2
  9
$LUPREC
 70
     4
  9
$SKETCHINC
 40
0.1
  9
$FILLETRAD
 40
0.0
  9
$AUNITS
 70
     0
  9
$AUPREC
 70
     0
  9
$MENU
  1
.
  9
$ELEVATION
 40
0.0
  9
$PELEVATION
 40
0.0
  9
$THICKNESS
 40
0.0
  9
$LIMCHECK
 70
     0
  9
$BLIPMODE
 70
     0
  9
$CHAMFERA
 40
0.0
  9
$CHAMFERB
 40
0.0
  9
$SKPOLY
 70
     0
  9
$TDCREATE
 40
2458060.468368056230247
  9
$TDUPDATE
 40
2459998.8295717588625848
  9
$TDINDWG
 40
0.4782624653
  9
$TDUSRTIMER
 40
0.4782624653
  9
$USRTIMER
 70
     1
  9
$ANGBASE
 50
0.0
  9
$ANGDIR
 70
     0
  9
$PDMODE
 70
     0
  9
$PDSIZE
 40
0.3125
  9
$PLINEWID
 40
0.0
  9
$COORDS
 70
     1
  9
$SPLFRAME
 70
     0
  9
$SPLINETYPE
 70
     6
  9
$SPLINESEGS
 70
     8
  9
$ATTDIA
 70
     1
  9
$ATTREQ
 70
     1
  9
$HANDLING
 70
     1
  9
$HANDSEED
  5
AAA2
  9
$SURFTAB1
 70
     6
  9
$SURFTAB2
 70
     6
  9
$SURFTYPE
 70
     6
  9
$SURFU
 70
     6
  9
$SURFV
 70
     6
  9
$UCSNAME
  2

  9
$UCSORG
 10
0.0
 20
0.0
 30
0.0
  9
$UCSXDIR
 10
1.0
 20
0.0
 30
0.0
  9
$UCSYDIR
 10
0.0
 20
1.0
 30
0.0
  9
$PUCSNAME
  2

  9
$PUCSORG
 10
0.0
 20
0.0
 30
0.0
  9
$PUCSXDIR
 10
1.0
 20
0.0
 30
0.0
  9
$PUCSYDIR
 10
0.0
 20
1.0
 30
0.0
  9
$USERI1
 70
     0
  9
$USERI2
 70
     0
  9
$USERI3
 70
     0
  9
$USERI4
 70
     0
  9
$USERI5
 70
     0
  9
$USERR1
 40
0.0
  9
$USERR2
 40
0.0
  9
$USERR3
 40
0.0
  9
$USERR4
 40
0.0
  9
$USERR5
 40
0.0
  9
$WORLDVIEW
 70
     1
  9
$SHADEDGE
 70
     3
  9
$SHADEDIF
 70
    70
  9
$TILEMODE
 70
     1
  9
$MAXACTVP
 70
    64
  9
$PLIMCHECK
 70
     0
  9
$PEXTMIN
 10
1.0000000000000000E+20
 20
1.0000000000000000E+20
 30
1.0000000000000000E+20
  9
$PEXTMAX
 10
-1.0000000000000000E+20
 20
-1.0000000000000000E+20
 30
-1.0000000000000000E+20
  9
$PLIMMIN
 10
0.0
 20
0.0
  9
$PLIMMAX
 10
12.0
 20
9.0
  9
$UNITMODE
 70
     0
  9
$VISRETAIN
 70
     1
  9
$PLINEGEN
 70
     0
  9
$PSLTSCALE
 70
     1
  0
ENDSEC
  0
SECTION
  2
TABLES
  0
TABLE
  2
VPORT
 70
     1
  0
VPORT
  2
*ACTIVE
 70
     0
 10
0.0
 20
0.0
 11
1.0
 21
1.0
 12
368.3889373481570146
 22
-2.7971632234794011
 13
0.0
 23
0.0
 14
1.0
 24
1.0
 15
0.0
 25
0.0
 16
0.0
 26
0.0
 36
48.4519809769821421
 17
3260.3162841796870453
 27
304.2104339599608807
 37
0.0
 40
10.8296792885285509
 41
1.593589743589743
 42
50.0
 43
0.0
 44
0.0
 50
0.0
 51
0.0
 71
     0
 72
   100
 73
     1
 74
     1
 75
     0
 76
     0
 77
     0
 78
     0
  0
ENDTAB
  0
TABLE
  2
LTYPE
 70
     2
  0
LTYPE
  2
CONTINUOUS
 70
     0
  3
Solid line
 72
    65
 73
     0
 40
0.0
  0
LTYPE
  2
PHANTOM2
 70
     0
  3
___ _ _ ___ _ _ ___ _ _ ___ _ _
 72
    65
 73
     6
 40
1.25
 49
0.625
 49
-0.125
 49
0.125
 49
-0.125
 49
0.125
 49
-0.125
  0
ENDTAB
  0
TABLE
  2
LAYER
 70
     2
  0
LAYER
  2
0
 70
     0
 62
   255
  6
CONTINUOUS
  0
LAYER
  2
DEFPOINTS
 70
     0
 62
     7
  6
CONTINUOUS
  0
ENDTAB
  0
TABLE
  2
STYLE
 70
     1
  0
STYLE
  2
STANDARD
 70
     0
 40
0.0
 41
0.8
 50
0.0
 71
     0
 42
0.2
  3
txt
  4

  0
ENDTAB
  0
TABLE
  2
VIEW
 70
     0
  0
ENDTAB
  0
TABLE
  2
UCS
 70
     0
  0
ENDTAB
  0
TABLE
  2
APPID
 70
     9
  0
APPID
  2
ACAD
 70
     0
  0
APPID
  2
ACAD_MLEADERVER
 70
     0
  0
APPID
  2
ACAD_EXEMPT_FROM_CAD_STANDARDS
 70
     0
  0
APPID
  2
ACAD_NAV_VCDISPLAY
 70
     0
  0
APPID
  2
ACAECLAYERSTANDARD
 70
     0
  0
APPID
  2
ACCMTRANSPARENCY
 70
     0
  0
APPID
  2
ACAD_DSTYLE_DIMJAG
 70
     0
  0
APPID
  2
ACAD_DSTYLE_DIMTALN
 70
     0
  0
APPID
  2
ACDBATTR
 70
     0
  0
ENDTAB
  0
TABLE
  2
DIMSTYLE
 70
     1
  0
DIMSTYLE
  2
STANDARD
 70
     0
  3

  4

  5

  6

  7

 40
1.0
 41
0.1875
 42
0.0625
 43
0.38
 44
0.125
 45
0.0
 46
0.0
 47
0.01
 48
0.01
140
0.15625
141
0.09
142
0.0
143
25.3999999999999986
144
1.0
145
0.0
146
1.0
147
0.09
 71
     1
 72
     0
 73
     1
 74
     1
 75
     0
 76
     0
 77
     0
 78
     4
170
     0
171
     2
172
     0
173
     0
174
     0
175
     0
176
     0
177
     0
178
     0
  0
ENDTAB
  0
ENDSEC
  0
SECTION
  2
BLOCKS
  0
BLOCK
  8
0
  2
$MODEL_SPACE
 70
     0
 10
0.0
 20
0.0
 30
0.0
  3
$MODEL_SPACE
  1

  0
ENDBLK
  5
21
  8
0
  0
BLOCK
 67
     1
  8
0
  2
$PAPER_SPACE
 70
     0
 10
0.0
 20
0.0
 30
0.0
  3
$PAPER_SPACE
  1

  0
ENDBLK
  5
1D
 67
     1
  8
0
  0
ENDSEC
  0
SECTION
  2
ENTITIES
  0
ATTDEF
  5
3930
  8
DEFPOINTS
 10
3630.8378919355109247
 20
296.0456010267781721
 30
0.0
 40
0.001
  1
K-74026X-4ACD
  3

  2
MODELNUMBER
 70
     0
1001
ACDBATTR
1070
     0
1070
     1
  0
ATTDEF
  5
3931
  8
DEFPOINTS
 10
3630.8378919355109247
 20
296.0439343601116207
 30
0.0
 40
0.001
  1
TAUT PIN
  3

  2
TRADENAME
 70
     0
1001
ACDBATTR
1070
     0
1070
     1
  0
ATTDEF
  5
3932
  8
DEFPOINTS
 10
3630.8378919355109247
 20
296.0422676934448987
 30
0.0
 40
0.001
  1
BATHROOM SINK FAUCET
  3

  2
PRODUCT
 70
     0
1001
ACDBATTR
1070
     0
1070
     1
  0
LINE
  5
A882
  8
0
 10
3631.637717282560061
 20
306.7832383359873916
 30
0.0
 11
3627.4440281999181934
 21
306.7832383359873916
 31
0.0
  0
ARC
  5
A883
  8
0
 10
3627.4440281999181934
 20
306.7556383359873848
 30
0.0
 40
0.0276
 50
90.0
 51
178.5012025486890934
  0
LINE
  5
A884
  8
0
 10
3630.0155666662171825
 20
306.0894289897873932
 30
0.0
 11
3630.0155686338298437
 21
305.7518892319009751
 31
0.0
  0
ARC
  5
A885
  8
0
 10
3630.0273631117811419
 20
305.7517268443243097
 30
0.0
 40
0.0117955957817569
 50
179.2111956970246922
 51
270.0216855143963812
  0
LINE
  5
A886
  8
0
 10
3630.0273675762200583
 20
305.7399312493873822
 30
0.0
 11
3630.7434559443040598
 21
305.7399312493873822
 31
0.0
  0
ARC
  5
A887
  8
0
 10
3630.7422776231987882
 20
306.1934707530500077
 30
0.0
 40
0.4535410343322222
 50
270.1488573184918209
 51
293.2681422679987122
  0
LINE
  5
A888
  8
0
 10
3630.9214420990060717
 20
305.7768179474289809
 30
0.0
 11
3631.6622905023068597
 21
306.1222812313230861
 31
0.0
  0
LINE
  5
A889
  8
0
 10
3631.6692133456949705
 20
306.5457180312673131
 30
0.0
 11
3631.6692133456949705
 21
306.7517422699197027
 31
0.0
  0
ARC
  5
A88A
  8
0
 10
3631.6377172774577957
 20
306.751742267750501
 30
0.0
 40
0.031496068236951
 50
0.0000039461041173
 51
89.999990473237844
  0
ARC
  5
A88B
  8
0
 10
3630.7385507736948966
 20
305.5396207018432051
 30
0.0
 40
0.8661417323000712
 50
7.937073392561123
 51
34.1464427277077931
  0
LINE
  5
A88C
  8
0
 10
3631.6690990168540338
 20
305.6592222546153153
 30
0.0
 11
3630.0155626825940089
 21
305.6592222546153721
 31
0.0
  0
ARC
  5
A88D
  8
0
 10
3629.4183533776918011
 20
305.6677217060935732
 30
0.0
 40
0.5972697837133479
 50
286.688915369918675
 51
359.1846245215813838
  0
ARC
  5
A88E
  8
0
 10
3625.5190180724689526
 20
304.8758812822511004
 30
0.0
 40
0.0311050756359596
 50
90.7704727372987179
 51
180.2867511086321883
  0
LINE
  5
A88F
  8
0
 10
3625.4879133863851166
 20
304.8757256097433128
 30
0.0
 11
3625.4879415457708092
 21
304.157682570375016
 31
0.0
  0
ARC
  5
A890
  8
0
 10
3625.5201997970648335
 20
304.1591972197845166
 30
0.0
 40
0.0322937910351288
 50
182.6882835719451066
 51
255.9286897497194957
  0
LINE
  5
A891
  8
0
 10
3626.7018646247988727
 20
303.993464377754492
 30
0.0
 11
3629.0327368726261739
 21
303.9122418813469721
 31
0.0
  0
ARC
  5
A892
  8
0
 10
3629.21866774627415
 20
303.1103863860683987
 30
0.0
 40
0.8018303493967884
 50
355.1756377701082101
 51
48.9394020896874693
  0
ARC
  5
A893
  8
0
 10
3629.0333551002499917
 20
302.5286662975001946
 30
0.0
 40
1.3835757219691369
 50
59.0286812916076826
 51
90.0256016596992339
  0
LINE
  5
A894
  8
0
 10
3630.0176573624949015
 20
303.042951214340917
 30
0.0
 11
3630.0163534873681783
 21
300.0637894382874151
 31
0.0
  0
LINE
  5
A895
  8
0
 10
3630.0155666662171825
 20
300.0440980602888885
 30
0.0
 11
3630.0155666662158183
 21
296.498535961587379
 31
0.0
  0
LINE
  5
A896
  8
0
 10
3631.6691099733170631
 20
296.49855275438739
 30
0.0
 11
3631.6691099733170631
 21
300.044104398987372
 31
0.0
  0
LINE
  5
A897
  8
0
 10
3631.6683231520660229
 20
300.0637894382874151
 30
0.0
 11
3631.6690990168540338
 21
305.6592222546153153
 31
0.0
  0
ARC
  5
A898
  8
0
 10
3629.0570370477112192
 20
306.5819054332156952
 30
0.0
 40
1.578920385655544
 50
273.1650991836497724
 51
289.7227745410208968
  0
ARC
  5
A899
  8
0
 10
3628.4801393291299973
 20
313.6482477714276911
 30
0.0
 40
8.6683288288055831
 50
271.6841087037789748
 51
274.3936980376338965
  0
ARC
  5
A89A
  8
0
 10
3681.9961413111232105
 20
-1996.5255361176150473
 30
0.0
 40
2302.1253995509619017
 50
91.3256953975380412
 51
91.4057659275555636
  0
LINE
  5
A89B
  8
0
 10
3630.0163534873681783
 20
300.0637894382874151
 30
0.0
 11
3631.6683231520660229
 21
300.0637894382874151
 31
0.0
  0
ARC
  5
A89C
  8
0
 10
3630.0352780551088472
 20
300.0440929696422927
 30
0.0
 40
0.0197113895489724
 50
87.7705179733498539
 51
179.9852028406288866
  0
ARC
  5
A89D
  8
0
 10
3631.6494439982438962
 20
300.0441234572264761
 30
0.0
 40
0.0196659843071957
 50
359.9444748445313849
 51
90.032921029194398
  0
ARC
  5
A89E
  8
0
 10
3624.5698878034440895
 20
437.0168236847940193
 30
0.0
 40
132.1442869421570094
 50
270.3980453163056836
 51
272.0367258397296837
  0
ARC
  5
A89F
  8
0
 10
3629.3397471825669527
 20
310.8878517746396142
 30
0.0
 40
5.9322876909767848
 50
269.2906760074079102
 51
278.1762816547814055
  0
ARC
  5
A8A0
  8
0
 10
3630.1174920268940696
 20
305.6834635853593909
 30
0.0
 40
0.6708475551235225
 50
275.6409415426577993
 51
357.929144442456618
  0
LINE
  5
A8A1
  8
0
 10
3630.7879014143018139
 20
302.8196951772873717
 30
0.0
 11
3630.7879014143018139
 21
300.0637894382874151
 31
0.0
  0
ARC
  5
A8A2
  8
0
 10
3624.9172081919809898
 20
302.5893615726167241
 30
0.0
 40
5.875209994548487
 50
2.246817799090663
 51
8.108034492460364
  0
ARC
  5
A8A3
  8
0
 10
3630.0262391124588248
 20
303.3010538133545992
 30
0.0
 40
0.7170509245583585
 50
9.3866119696685875
 51
83.0676261708456707
  0
ARC
  5
A8A4
  8
0
 10
3629.2202587242268237
 20
297.3895901490452047
 30
0.0
 40
6.6831386366630268
 50
82.3252730586426935
 51
89.5938463481173244
  0
LINE
  5
A8A5
  8
0
 10
3629.9409416668167978
 20
306.1680615606874198
 30
0.0
 11
3627.4313756331271179
 21
306.2998068268822749
 31
0.0
  0
LINE
  5
A8A6
  8
0
 10
3627.4052320068881272
 20
306.3280907777677271
 30
0.0
 11
3627.4164376425910632
 21
306.7563602406781911
 31
0.0
  0
ARC
  5
A8A7
  8
0
 10
3627.4328225642148027
 20
306.3273688730768072
 30
0.0
 40
0.0276
 50
178.5012025486859102
 51
266.9948888923487971
  0
ARC
  5
A8A8
  8
0
 10
3629.9368255625090569
 20
306.089428112874316
 30
0.0
 40
0.0787411038127972
 50
0.0006380837994649
 51
87.0035606375522832
  0
ARC
  5
A8A9
  8
0
 10
3632.4862625529422075
 20
306.4190651076373797
 30
0.0
 40
0.8268073355552802
 50
171.1885619104195939
 51
188.7645502899117957
  0
LINE
  5
A8AA
  8
0
 10
3631.6691099733170631
 20
306.2930808556873785
 30
0.0
 11
3631.6691099733170631
 21
306.1329856662752036
 31
0.0
  0
ARC
  5
A8AB
  8
0
 10
3631.6571661100338133
 20
306.1330702828996095
 30
0.0
 40
0.0119441630129584
 50
295.4059535982437978
 51
359.5940932816220084
  0
ARC
  5
A8AC
  8
0
 10
3630.9482087656160729
 20
305.5396212109876046
 30
0.0
 40
0.8661417322989035
 50
166.6283205826910034
 51
172.0629606133940115
  0
LINE
  5
A8AD
  8
0
 10
3626.5073478578838149
 20
304.0520102188536953
 30
0.0
 11
3626.4873764262702025
 21
303.997041537192672
 31
0.0
  0
LINE
  5
A8AE
  8
0
 10
3626.4873764262702025
 20
303.997041537192672
 30
0.0
 11
3626.2190150902861205
 21
304.0945436039637002
 31
0.0
  0
LINE
  5
A8AF
  8
0
 10
3626.1220930247650358
 20
304.1001383643858276
 30
0.0
 11
3626.4670318547459829
 21
303.9748138696558044
 31
0.0
  0
LINE
  5
A8B0
  8
0
 10
3626.4565837960171848
 20
303.9699345958874233
 30
0.0
 11
3626.0950795187959557
 21
304.1012777122522834
 31
0.0
  0
LINE
  5
A8B1
  8
0
 10
3626.4565837960171848
 20
303.9699345958874233
 30
0.0
 11
3626.4670318547250645
 21
303.9748138696638193
 31
0.0
  0
ARC
  5
A8B2
  8
0
 10
3626.4503729716798262
 20
304.0104857741361002
 30
0.0
 40
0.0393700794125238
 50
295.0327113068861991
 51
340.032710476384409
  0
ARC
  5
A8B3
  8
0
 10
3626.3235516285271842
 20
304.5837572342443877
 30
0.0
 40
0.5883291529999861
 50
234.7105122435860096
 51
275.4241783293512071
  0
LINE
  5
A8B4
  8
0
 10
3626.00258519252111
 20
304.1034332157490212
 30
0.0
 11
3626.0096808159228203
 21
304.0986633856867911
 31
0.0
  0
LINE
  5
A8B5
  8
0
 10
3626.0096808159228203
 20
304.0986633856867911
 30
0.0
 11
3626.0195408402018984
 21
304.0969789492888253
 31
0.0
  0
LINE
  5
A8B6
  8
0
 10
3626.0195408402018984
 20
304.0969789492888253
 30
0.0
 11
3626.0149863665587873
 21
304.1033029335898163
 31
0.0
  0
LINE
  5
A8B7
  8
0
 10
3626.0096808173161662
 20
304.0986633852518253
 30
0.0
 11
3626.0113627871851349
 21
304.1033460816958041
 31
0.0
  0
LINE
  5
A8B8
  8
0
 10
3626.0200174873880314
 20
304.1032360699225023
 30
0.0
 11
3626.0190294949488816
 21
304.1005167531698135
 31
0.0
  0
LINE
  5
A8B9
  8
0
 10
3626.0190294949488816
 20
304.1005167531698135
 30
0.0
 11
3626.0171557635208046
 21
304.1032750939397147
 31
0.0
  0
LINE
  5
A8BA
  8
0
 10
3626.0190294949488816
 20
304.1005167531698135
 30
0.0
 11
3626.0362146854008643
 21
304.0901710522263102
 31
0.0
  0
LINE
  5
A8BB
  8
0
 10
3626.0362146854008643
 20
304.0901710522263102
 30
0.0
 11
3626.046512777757016
 21
304.0896923433954839
 31
0.0
  0
LINE
  5
A8BC
  8
0
 10
3626.046512777757016
 20
304.0896923433954839
 30
0.0
 11
3626.0396864921171982
 21
304.0997267337463086
 31
0.0
  0
LINE
  5
A8BD
  8
0
 10
3626.0396864921171982
 20
304.0997267337463086
 30
0.0
 11
3626.0343244293958378
 21
304.1030017333973205
 31
0.0
  0
LINE
  5
A8BE
  8
0
 10
3626.0362146867942101
 20
304.0901710517915149
 30
0.0
 11
3626.0396864921021916
 21
304.0997267337206722
 31
0.0
  0
LINE
  5
A8BF
  8
0
 10
3626.0074639701538217
 20
304.0975070260108737
 30
0.0
 11
3626.0172004108158035
 21
304.0954824531496001
 31
0.0
  0
LINE
  5
A8C0
  8
0
 10
3626.0172004108158035
 20
304.0954824531496001
 30
0.0
 11
3626.0149133267332218
 21
304.0891875602400773
 31
0.0
  0
LINE
  5
A8C1
  8
0
 10
3626.0149133267332218
 20
304.0891875602400773
 30
0.0
 11
3626.0074639703129833
 21
304.0975070259613062
 31
0.0
  0
LINE
  5
A8C2
  8
0
 10
3626.0149133267332218
 20
304.0891875602400773
 30
0.0
 11
3626.032106756650137
 21
304.0788645233487273
 31
0.0
  0
LINE
  5
A8C3
  8
0
 10
3626.032106756650137
 20
304.0788645233487273
 30
0.0
 11
3626.0418354751100196
 21
304.0768186964376127
 31
0.0
  0
LINE
  5
A8C4
  8
0
 10
3626.0418354751100196
 20
304.0768186964376127
 30
0.0
 11
3626.0343783974158214
 21
304.0851169090822168
 31
0.0
  0
LINE
  5
A8C5
  8
0
 10
3626.0343783974158214
 20
304.0851169090822168
 30
0.0
 11
3626.017200411021804
 21
304.0954824529887901
 31
0.0
  0
LINE
  5
A8C6
  8
0
 10
3626.0321067580430281
 20
304.0788645229138183
 30
0.0
 11
3626.0343783973989957
 21
304.0851169090566941
 31
0.0
  0
LINE
  5
A8C7
  8
0
 10
3626.0337666156251544
 20
304.088378283233908
 30
0.0
 11
3626.0439578878040265
 21
304.0876055664655269
 31
0.0
  0
LINE
  5
A8C8
  8
0
 10
3626.0439578878040265
 20
304.0876055664655269
 30
0.0
 11
3626.0410945365601947
 21
304.0797245752588083
 31
0.0
  0
LINE
  5
A8C9
  8
0
 10
3626.0410945365601947
 20
304.0797245752588083
 30
0.0
 11
3626.0337666157852254
 21
304.0883782831842836
 31
0.0
  0
LINE
  5
A8CA
  8
0
 10
3626.0410945365601947
 20
304.0797245752588083
 30
0.0
 11
3626.0586141364469768
 21
304.0702992957020001
 31
0.0
  0
LINE
  5
A8CB
  8
0
 10
3626.0586141364469768
 20
304.0702992957020001
 30
0.0
 11
3626.068791382911968
 21
304.0694879705121139
 31
0.0
  0
LINE
  5
A8CC
  8
0
 10
3626.068791382911968
 20
304.0694879705121139
 30
0.0
 11
3626.0614629079441329
 21
304.0781401460790789
 31
0.0
  0
LINE
  5
A8CD
  8
0
 10
3626.0614629079441329
 20
304.0781401460790789
 30
0.0
 11
3626.0439578880100271
 21
304.0876055663046031
 31
0.0
  0
LINE
  5
A8CE
  8
0
 10
3626.0586141378398679
 20
304.0702992952670911
 30
0.0
 11
3626.0614629079282167
 21
304.0781401460536131
 31
0.0
  0
LINE
  5
A8CF
  8
0
 10
3626.0563523446157888
 20
304.0690192276321113
 30
0.0
 11
3626.0664067488110049
 21
304.0678698037311278
 31
0.0
  0
LINE
  5
A8D0
  8
0
 10
3626.0664067488110049
 20
304.0678698037311278
 30
0.0
 11
3626.0641557839880988
 21
304.0616743293193736
 31
0.0
  0
LINE
  5
A8D1
  8
0
 10
3626.0641557839880988
 20
304.0616743293193736
 30
0.0
 11
3626.0563523447758598
 21
304.0690192275826007
 31
0.0
  0
LINE
  5
A8D2
  8
0
 10
3626.0641557839880988
 20
304.0616743293193736
 30
0.0
 11
3626.0820987791239531
 21
304.0531638736013065
 31
0.0
  0
LINE
  5
A8D3
  8
0
 10
3626.0820987791239531
 20
304.0531638736013065
 30
0.0
 11
3626.092058361936779
 21
304.0520039644487724
 31
0.0
  0
LINE
  5
A8D4
  8
0
 10
3626.092058361936779
 20
304.0520039644487724
 30
0.0
 11
3626.0842560265868997
 21
304.059351908853273
 31
0.0
  0
LINE
  5
A8D5
  8
0
 10
3626.0842560265868997
 20
304.059351908853273
 30
0.0
 11
3626.066406749017915
 21
304.0678698035703178
 31
0.0
  0
LINE
  5
A8D6
  8
0
 10
3626.0820987805182085
 20
304.0531638731663975
 30
0.0
 11
3626.0842560265709835
 21
304.0593519088278072
 31
0.0
  0
LINE
  5
A8D7
  8
0
 10
3626.0494359461649765
 20
304.1026831882545025
 30
0.0
 11
3626.046161753897195
 21
304.0936714176634723
 31
0.0
  0
LINE
  5
A8D8
  8
0
 10
3626.046161753897195
 20
304.0936714176634723
 30
0.0
 11
3626.0402515719979419
 21
304.1028854903448746
 31
0.0
  0
LINE
  5
A8D9
  8
0
 10
3626.046161753897195
 20
304.0936714176634723
 30
0.0
 11
3626.0638531375630009
 21
304.0841841090867206
 31
0.0
  0
LINE
  5
A8DA
  8
0
 10
3626.0638531375630009
 20
304.0841841090867206
 30
0.0
 11
3626.0744414857808806
 21
304.0850391195299949
 31
0.0
  0
LINE
  5
A8DB
  8
0
 10
3626.0744414857808806
 20
304.0850391195299949
 30
0.0
 11
3626.0677634490771197
 21
304.0954815446924044
 31
0.0
  0
LINE
  5
A8DC
  8
0
 10
3626.0677634490771197
 20
304.0954815446924044
 30
0.0
 11
3626.0548409331308903
 21
304.1025515311666254
 31
0.0
  0
LINE
  5
A8DD
  8
0
 10
3626.0638531389568016
 20
304.0841841086518116
 30
0.0
 11
3626.0677634490612036
 21
304.0954815446668817
 31
0.0
  0
LINE
  5
A8DE
  8
0
 10
3626.0677273080518717
 20
304.1003272854961779
 30
0.0
 11
3626.0757101451340532
 21
304.1019555314430818
 31
0.0
  0
LINE
  5
A8DF
  8
0
 10
3626.078755079488019
 20
304.1018569276885728
 30
0.0
 11
3626.0742594176440434
 21
304.0894832214178791
 31
0.0
  0
LINE
  5
A8E0
  8
0
 10
3626.0742594176440434
 20
304.0894832214178791
 30
0.0
 11
3626.0677273080518717
 21
304.1003272854961779
 31
0.0
  0
LINE
  5
A8E1
  8
0
 10
3626.0742594176440434
 20
304.0894832214178791
 30
0.0
 11
3626.0920814967730621
 21
304.0808904681156264
 31
0.0
  0
LINE
  5
A8E2
  8
0
 10
3626.0920814967730621
 20
304.0808904681156264
 30
0.0
 11
3626.1033541195101861
 21
304.0830940190987235
 31
0.0
  0
LINE
  5
A8E3
  8
0
 10
3626.1033541195101861
 20
304.0830940190987235
 30
0.0
 11
3626.0968418776237741
 21
304.0939927724153904
 31
0.0
  0
LINE
  5
A8E4
  8
0
 10
3626.0968418776237741
 20
304.0939927724153904
 30
0.0
 11
3626.0807772383168412
 21
304.1017898054362263
 31
0.0
  0
LINE
  5
A8E5
  8
0
 10
3626.0920814981668627
 20
304.0808904676807174
 30
0.0
 11
3626.0968418776078579
 21
304.0939927723899245
 31
0.0
  0
LINE
  5
A8E6
  8
0
 10
3626.0610098726720025
 20
304.0818384478175744
 30
0.0
 11
3626.071664613466055
 21
304.0823413662237158
 31
0.0
  0
LINE
  5
A8E7
  8
0
 10
3626.071664613466055
 20
304.0823413662237158
 30
0.0
 11
3626.0682063357171501
 21
304.0728229195527774
 31
0.0
  0
LINE
  5
A8E8
  8
0
 10
3626.0682063357171501
 20
304.0728229195527774
 30
0.0
 11
3626.0610098728311641
 21
304.0818384477681207
 31
0.0
  0
LINE
  5
A8E9
  8
0
 10
3626.0682063357171501
 20
304.0728229195527774
 30
0.0
 11
3626.0860495757560784
 21
304.0642884033255768
 31
0.0
  0
LINE
  5
A8EA
  8
0
 10
3626.0860495757560784
 20
304.0642884033255768
 30
0.0
 11
3626.0966845835118875
 21
304.0647370175378228
 31
0.0
  0
LINE
  5
A8EB
  8
0
 10
3626.0966845835118875
 20
304.0647370175378228
 30
0.0
 11
3626.0894959281449701
 21
304.0737740270506038
 31
0.0
  0
LINE
  5
A8EC
  8
0
 10
3626.0894959281449701
 20
304.0737740270506038
 30
0.0
 11
3626.0716646136729651
 21
304.0823413660629058
 31
0.0
  0
LINE
  5
A8ED
  8
0
 10
3626.086049577149879
 20
304.0642884028907247
 30
0.0
 11
3626.0894959281281444
 21
304.0737740270250811
 31
0.0
  0
LINE
  5
A8EE
  8
0
 10
3626.0892097764021855
 20
304.0779316536414854
 30
0.0
 11
3626.1003439622941187
 21
304.0797541806715003
 31
0.0
  0
LINE
  5
A8EF
  8
0
 10
3626.1003439622941187
 20
304.0797541806715003
 30
0.0
 11
3626.0962624958651759
 21
304.0685204906940839
 31
0.0
  0
LINE
  5
A8F0
  8
0
 10
3626.0962624958651759
 20
304.0685204906940839
 30
0.0
 11
3626.0892097765608924
 21
304.0779316535919179
 31
0.0
  0
LINE
  5
A8F1
  8
0
 10
3626.0962624958651759
 20
304.0685204906940839
 30
0.0
 11
3626.1144314551052048
 21
304.0608824850381779
 31
0.0
  0
LINE
  5
A8F2
  8
0
 10
3626.1144314551052048
 20
304.0608824850381779
 30
0.0
 11
3626.1255405991050793
 21
304.0626360835776154
 31
0.0
  0
LINE
  5
A8F3
  8
0
 10
3626.1255405991050793
 20
304.0626360835776154
 30
0.0
 11
3626.1185057031220822
 21
304.0720963013707774
 31
0.0
  0
LINE
  5
A8F4
  8
0
 10
3626.1185057031220822
 20
304.0720963013707774
 30
0.0
 11
3626.1003439625001192
 21
304.0797541805106903
 31
0.0
  0
LINE
  5
A8F5
  8
0
 10
3626.1144314564980959
 20
304.0608824846032121
 30
0.0
 11
3626.118505703106166
 21
304.0720963013453115
 31
0.0
  0
LINE
  5
A8F6
  8
0
 10
3626.0835758452699338
 20
304.0624250155594268
 30
0.0
 11
3626.094083952130859
 21
304.0625243469932002
 31
0.0
  0
LINE
  5
A8F7
  8
0
 10
3626.094083952130859
 20
304.0625243469932002
 30
0.0
 11
3626.0912526614802118
 21
304.0547316026000999
 31
0.0
  0
LINE
  5
A8F8
  8
0
 10
3626.0912526614802118
 20
304.0547316026000999
 30
0.0
 11
3626.0835758454290954
 21
304.0624250155098025
 31
0.0
  0
LINE
  5
A8F9
  8
0
 10
3626.0912526614802118
 20
304.0547316026000999
 30
0.0
 11
3626.1094300803729311
 21
304.0471168612327801
 31
0.0
  0
LINE
  5
A8FA
  8
0
 10
3626.1094300803729311
 20
304.0471168612327801
 30
0.0
 11
3626.1199260054709157
 21
304.0471826688726082
 31
0.0
  0
LINE
  5
A8FB
  8
0
 10
3626.1199260054709157
 20
304.0471826688726082
 30
0.0
 11
3626.1122566431517953
 21
304.054896603841712
 31
0.0
  0
LINE
  5
A8FC
  8
0
 10
3626.1122566431517953
 20
304.054896603841712
 30
0.0
 11
3626.0940839523368595
 21
304.0625243468322765
 31
0.0
  0
LINE
  5
A8FD
  8
0
 10
3626.1094300817658223
 20
304.047116860797928
 30
0.0
 11
3626.1122566431358791
 21
304.0548966038160756
 31
0.0
  0
LINE
  5
A8FE
  8
0
 10
3626.1183976064598937
 20
304.0767439942263763
 30
0.0
 11
3626.1300357374670966
 21
304.0799535641398847
 31
0.0
  0
LINE
  5
A8FF
  8
0
 10
3626.1300357374670966
 20
304.0799535641398847
 30
0.0
 11
3626.1252913540638474
 21
304.0668952897971167
 31
0.0
  0
LINE
  5
A900
  8
0
 10
3626.1252913540638474
 20
304.0668952897971167
 30
0.0
 11
3626.1183976066199648
 21
304.0767439941769226
 31
0.0
  0
LINE
  5
A901
  8
0
 10
3626.1252913540638474
 20
304.0668952897971167
 30
0.0
 11
3626.1437930796009823
 21
304.0601731720329894
 31
0.0
  0
LINE
  5
A902
  8
0
 10
3626.1437930796009823
 20
304.0601731720329894
 30
0.0
 11
3626.1554010626769013
 21
304.0632997570527891
 31
0.0
  0
LINE
  5
A903
  8
0
 10
3626.1554010626769013
 20
304.0632997570527891
 30
0.0
 11
3626.1485264426341928
 21
304.0732352233554252
 31
0.0
  0
LINE
  5
A904
  8
0
 10
3626.1485264426341928
 20
304.0732352233554252
 30
0.0
 11
3626.1300357376740067
 21
304.0799535639790747
 31
0.0
  0
LINE
  5
A905
  8
0
 10
3626.1437930809947829
 20
304.0601731715980236
 30
0.0
 11
3626.1485264426178219
 21
304.0732352233299025
 31
0.0
  0
LINE
  5
A906
  8
0
 10
3626.1408679294968351
 20
304.0570672991430001
 30
0.0
 11
3626.1523347623378868
 21
304.0598053982088231
 31
0.0
  0
LINE
  5
A907
  8
0
 10
3626.1523347623378868
 20
304.0598053982088231
 30
0.0
 11
3626.1482605157939361
 21
304.0485915814688838
 31
0.0
  0
LINE
  5
A908
  8
0
 10
3626.1482605157939361
 20
304.0485915814688838
 30
0.0
 11
3626.1408679296559967
 21
304.0570672990933758
 31
0.0
  0
LINE
  5
A909
  8
0
 10
3626.1482605157939361
 20
304.0485915814688838
 30
0.0
 11
3626.167095006116142
 21
304.0427853538008094
 31
0.0
  0
LINE
  5
A90A
  8
0
 10
3626.167095006116142
 20
304.0427853538008094
 30
0.0
 11
3626.1785440190938061
 21
304.0454743951702881
 31
0.0
  0
LINE
  5
A90B
  8
0
 10
3626.1785440190938061
 20
304.0454743951702881
 30
0.0
 11
3626.1711764756510092
 21
304.0540190399059952
 31
0.0
  0
LINE
  5
A90C
  8
0
 10
3626.1711764756510092
 20
304.0540190399059952
 30
0.0
 11
3626.1523347625438873
 21
304.0598053980481268
 31
0.0
  0
LINE
  5
A90D
  8
0
 10
3626.1670950075090332
 20
304.0427853533659004
 30
0.0
 11
3626.1711764756350931
 21
304.0540190398804157
 31
0.0
  0
LINE
  5
A90E
  8
0
 10
3626.111737863217968
 20
304.0584139459101038
 30
0.0
 11
3626.1227141398230742
 21
304.0598018512670819
 31
0.0
  0
LINE
  5
A90F
  8
0
 10
3626.1227141398230742
 20
304.0598018512670819
 30
0.0
 11
3626.1192785798571094
 21
304.0503459363296201
 31
0.0
  0
LINE
  5
A910
  8
0
 10
3626.1192785798571094
 20
304.0503459363296201
 30
0.0
 11
3626.1117378633771295
 21
304.0584139458605932
 31
0.0
  0
LINE
  5
A911
  8
0
 10
3626.1192785798571094
 20
304.0503459363296201
 30
0.0
 11
3626.1377803102800499
 21
304.0436238191126108
 31
0.0
  0
LINE
  5
A912
  8
0
 10
3626.1377803102800499
 20
304.0436238191126108
 30
0.0
 11
3626.1487413194149667
 21
304.0449697088989751
 31
0.0
  0
LINE
  5
A913
  8
0
 10
3626.1487413194149667
 20
304.0449697088989751
 30
0.0
 11
3626.1412158657321925
 21
304.0530797327633081
 31
0.0
  0
LINE
  5
A914
  8
0
 10
3626.1412158657321925
 20
304.0530797327633081
 30
0.0
 11
3626.1227141400308938
 21
304.0598018511062719
 31
0.0
  0
LINE
  5
A915
  8
0
 10
3626.1377803116738505
 20
304.0436238186775881
 30
0.0
 11
3626.1412158657149121
 21
304.0530797327377854
 31
0.0
  0
LINE
  5
A916
  8
0
 10
3626.1352533357280663
 20
304.0416138844594229
 30
0.0
 11
3626.1460857033112006
 21
304.0426057003629126
 31
0.0
  0
LINE
  5
A917
  8
0
 10
3626.1460857033112006
 20
304.0426057003629126
 30
0.0
 11
3626.1432591367770328
 21
304.0348259576293799
 31
0.0
  0
LINE
  5
A918
  8
0
 10
3626.1432591367770328
 20
304.0348259576293799
 30
0.0
 11
3626.1352533358867731
 21
304.0416138844097986
 31
0.0
  0
LINE
  5
A919
  8
0
 10
3626.1432591367770328
 20
304.0348259576293799
 30
0.0
 11
3626.1620851785419291
 21
304.0289964635932165
 31
0.0
  0
LINE
  5
A91A
  8
0
 10
3626.1620851785419291
 20
304.0289964635932165
 30
0.0
 11
3626.1729100879610996
 21
304.0299677569545906
 31
0.0
  0
LINE
  5
A91B
  8
0
 10
3626.1729100879610996
 20
304.0299677569545906
 30
0.0
 11
3626.1649164675250177
 21
304.0367892068451852
 31
0.0
  0
LINE
  5
A91C
  8
0
 10
3626.1649164675250177
 20
304.0367892068451852
 30
0.0
 11
3626.1460857035172012
 21
304.0426057002021025
 31
0.0
  0
LINE
  5
A91D
  8
0
 10
3626.1620851799361844
 20
304.0289964631583075
 30
0.0
 11
3626.164916467510011
 21
304.0367892068196056
 31
0.0
  0
LINE
  5
A91E
  8
0
 10
3626.1710122362228503
 20
304.0585122132491165
 30
0.0
 11
3626.1830017232960017
 21
304.0626888477912075
 31
0.0
  0
LINE
  5
A91F
  8
0
 10
3626.1830017232960017
 20
304.0626888477912075
 30
0.0
 11
3626.1782413462001387
 21
304.0495865405250129
 31
0.0
  0
LINE
  5
A920
  8
0
 10
3626.1782413462001387
 20
304.0495865405250129
 30
0.0
 11
3626.1710122363820119
 21
304.0585122131996059
 31
0.0
  0
LINE
  5
A921
  8
0
 10
3626.1782413462001387
 20
304.0495865405250129
 30
0.0
 11
3626.1974227159948896
 21
304.0447350607955741
 31
0.0
  0
LINE
  5
A922
  8
0
 10
3626.1974227159948896
 20
304.0447350607955741
 30
0.0
 11
3626.2093923370548509
 21
304.0488570055136961
 31
0.0
  0
LINE
  5
A923
  8
0
 10
3626.2093923370548509
 20
304.0488570055136961
 30
0.0
 11
3626.2022007838440913
 21
304.0578860394479079
 31
0.0
  0
LINE
  5
A924
  8
0
 10
3626.2022007838440913
 20
304.0578860394479079
 30
0.0
 11
3626.1830017235029118
 21
304.0626888476302838
 31
0.0
  0
LINE
  5
A925
  8
0
 10
3626.197422717389145
 20
304.0447350603606083
 30
0.0
 11
3626.2022007838281752
 21
304.0578860394223284
 31
0.0
  0
LINE
  5
A926
  8
0
 10
3626.1948560135369917
 20
304.0410009357423746
 30
0.0
 11
3626.2062540824031203
 21
304.0451645991291798
 31
0.0
  0
LINE
  5
A927
  8
0
 10
3626.2021458844110384
 20
304.0338573383467065
 30
0.0
 11
3626.2062540719412027
 21
304.0451645953078241
 31
0.0
  0
LINE
  5
A928
  8
0
 10
3626.2021458843451001
 20
304.0338573384075858
 30
0.0
 11
3626.1948560136970627
 21
304.0410009356928072
 31
0.0
  0
LINE
  5
A929
  8
0
 10
3626.2021458843451001
 20
304.0338573384075858
 30
0.0
 11
3626.2216558390409773
 21
304.0299102354671845
 31
0.0
  0
LINE
  5
A92A
  8
0
 10
3626.2216558390409773
 20
304.0299102354671845
 30
0.0
 11
3626.2334722849482205
 21
304.0336105867348806
 31
0.0
  0
LINE
  5
A92B
  8
0
 10
3626.2334722849482205
 20
304.0336105867348806
 30
0.0
 11
3626.2257863634631576
 21
304.0412789446621105
 31
0.0
  0
LINE
  5
A92C
  8
0
 10
3626.2257863634631576
 20
304.0412789446621105
 30
0.0
 11
3626.2062540826091208
 21
304.0451645989683129
 31
0.0
  0
LINE
  5
A92D
  8
0
 10
3626.2216558404347779
 20
304.0299102350322187
 30
0.0
 11
3626.225786363448151
 21
304.0412789446364741
 31
0.0
  0
LINE
  5
A92E
  8
0
 10
3626.1643427002500175
 20
304.040155211693218
 30
0.0
 11
3626.1756680680309728
 21
304.0425039439701891
 31
0.0
  0
LINE
  5
A92F
  8
0
 10
3626.1756680680309728
 20
304.0425039439701891
 30
0.0
 11
3626.1722094193378325
 21
304.0329844799488797
 31
0.0
  0
LINE
  5
A930
  8
0
 10
3626.1722094193378325
 20
304.0329844799488797
 30
0.0
 11
3626.1643427004091791
 21
304.0401552116435937
 31
0.0
  0
LINE
  5
A931
  8
0
 10
3626.1722094193378325
 20
304.0329844799488797
 30
0.0
 11
3626.1913696370511389
 21
304.0280747600100995
 31
0.0
  0
LINE
  5
A932
  8
0
 10
3626.1913696370511389
 20
304.0280747600100995
 30
0.0
 11
3626.2026749018327791
 21
304.0303681678213934
 31
0.0
  0
LINE
  5
A933
  8
0
 10
3626.2026749018327791
 20
304.0303681678213934
 30
0.0
 11
3626.1948279142989122
 21
304.0375932053300971
 31
0.0
  0
LINE
  5
A934
  8
0
 10
3626.1948279142989122
 20
304.0375932053300971
 30
0.0
 11
3626.1756680682378828
 21
304.0425039438093791
 31
0.0
  0
LINE
  5
A935
  8
0
 10
3626.1913696384449395
 20
304.0280747595751905
 30
0.0
 11
3626.1948279142829961
 21
304.0375932053045744
 31
0.0
  0
LINE
  5
A936
  8
0
 10
3626.1887802861278942
 20
304.0258931433135103
 30
0.0
 11
3626.1999535381610258
 21
304.0278232010479087
 31
0.0
  0
LINE
  5
A937
  8
0
 10
3626.1999535381610258
 20
304.0278232010479087
 30
0.0
 11
3626.1971047702058968
 21
304.0199823491628877
 31
0.0
  0
LINE
  5
A938
  8
0
 10
3626.1971047702058968
 20
304.0199823491628877
 30
0.0
 11
3626.1887802862870558
 21
304.025893143263886
 31
0.0
  0
LINE
  5
A939
  8
0
 10
3626.1971047702058968
 20
304.0199823491628877
 30
0.0
 11
3626.2165886197740292
 21
304.0159633952113722
 31
0.0
  0
LINE
  5
A93A
  8
0
 10
3626.2165886197740292
 20
304.0159633952113722
 30
0.0
 11
3626.2277624312318949
 21
304.017894981752022
 31
0.0
  0
LINE
  5
A93B
  8
0
 10
3626.2277624312318949
 20
304.017894981752022
 30
0.0
 11
3626.2194519738031886
 21
304.0238443838550779
 31
0.0
  0
LINE
  5
A93C
  8
0
 10
3626.2194519738031886
 20
304.0238443838550779
 30
0.0
 11
3626.1999535383679358
 21
304.0278232008870987
 31
0.0
  0
LINE
  5
A93D
  8
0
 10
3626.2165886211678298
 20
304.0159633947765201
 30
0.0
 11
3626.2194519737868177
 21
304.0238443838294984
 31
0.0
  0
LINE
  5
A93E
  8
0
 10
3626.2752725205577917
 20
304.0193816771686102
 30
0.0
 11
3626.2873491015279797
 21
304.0237980236723843
 31
0.0
  0
LINE
  5
A93F
  8
0
 10
3626.2873491015279797
 20
304.0237980236723843
 30
0.0
 11
3626.2837734689019271
 21
304.0139565767995009
 31
0.0
  0
LINE
  5
A940
  8
0
 10
3626.2837734689019271
 20
304.0139565767995009
 30
0.0
 11
3626.2752725207169533
 21
304.0193816771188722
 31
0.0
  0
LINE
  5
A941
  8
0
 10
3626.2837734689019271
 20
304.0139565767995009
 30
0.0
 11
3626.3043311755668583
 21
304.0128932707291938
 31
0.0
  0
LINE
  5
A942
  8
0
 10
3626.3043311755668583
 20
304.0128932707291938
 30
0.0
 11
3626.3164279671768782
 21
304.017365235859188
 31
0.0
  0
LINE
  5
A943
  8
0
 10
3626.3164279671768782
 20
304.017365235859188
 30
0.0
 11
3626.3079472320200694
 21
304.0228459713355278
 31
0.0
  0
LINE
  5
A944
  8
0
 10
3626.3079472320200694
 20
304.0228459713355278
 30
0.0
 11
3626.2873491017357992
 21
304.0237980235115742
 31
0.0
  0
LINE
  5
A945
  8
0
 10
3626.3043311769611137
 20
304.0128932702942848
 30
0.0
 11
3626.3079472320041532
 21
304.0228459713098914
 31
0.0
  0
LINE
  5
A946
  8
0
 10
3626.244191316478009
 20
304.0153580790287151
 30
0.0
 11
3626.2557328864668307
 21
304.018301881955324
 31
0.0
  0
LINE
  5
A947
  8
0
 10
3626.2557328864668307
 20
304.018301881955324
 30
0.0
 11
3626.2528330226141406
 21
304.0103203956949756
 31
0.0
  0
LINE
  5
A948
  8
0
 10
3626.2528330226141406
 20
304.0103203956949756
 30
0.0
 11
3626.24419131663808
 21
304.0153580789790908
 31
0.0
  0
LINE
  5
A949
  8
0
 10
3626.2528330226141406
 20
304.0103203956949756
 30
0.0
 11
3626.2730036031339296
 21
304.00819157704899
 31
0.0
  0
LINE
  5
A94A
  8
0
 10
3626.2730036031339296
 20
304.00819157704899
 30
0.0
 11
3626.2845580660728046
 21
304.0111708551849006
 31
0.0
  0
LINE
  5
A94B
  8
0
 10
3626.2845580660728046
 20
304.0111708551849006
 30
0.0
 11
3626.275929250966783
 21
304.0162440209982719
 31
0.0
  0
LINE
  5
A94C
  8
0
 10
3626.275929250966783
 20
304.0162440209982719
 30
0.0
 11
3626.2557328866741955
 21
304.018301881794514
 31
0.0
  0
LINE
  5
A94D
  8
0
 10
3626.273003604528185
 20
304.0081915766140241
 30
0.0
 11
3626.2759292509517763
 21
304.0162440209726924
 31
0.0
  0
LINE
  5
A94E
  8
0
 10
3626.2188324676108095
 20
304.0270844946452939
 30
0.0
 11
3626.2305079109769395
 21
304.0303967662579225
 31
0.0
  0
LINE
  5
A94F
  8
0
 10
3626.2305079109769395
 20
304.0303967662579225
 30
0.0
 11
3626.2270162821150734
 21
304.020786526258803
 31
0.0
  0
LINE
  5
A950
  8
0
 10
3626.2270162821150734
 20
304.020786526258803
 30
0.0
 11
3626.2188324677690616
 21
304.0270844945957265
 31
0.0
  0
LINE
  5
A951
  8
0
 10
3626.2270162821150734
 20
304.020786526258803
 30
0.0
 11
3626.2468543647842125
 21
304.0177425519584062
 31
0.0
  0
LINE
  5
A952
  8
0
 10
3626.2468543647842125
 20
304.0177425519584062
 30
0.0
 11
3626.2585332814619505
 21
304.0210643724307147
 31
0.0
  0
LINE
  5
A953
  8
0
 10
3626.2585332814619505
 20
304.0210643724307147
 30
0.0
 11
3626.2503709347402037
 21
304.0274214290258215
 31
0.0
  0
LINE
  5
A954
  8
0
 10
3626.2503709347402037
 20
304.0274214290258215
 30
0.0
 11
3626.2305079111838495
 21
304.0303967660971125
 31
0.0
  0
LINE
  5
A955
  8
0
 10
3626.2468543661780132
 20
304.0177425515234972
 30
0.0
 11
3626.2503709347238328
 21
304.0274214290001851
 31
0.0
  0
LINE
  5
A956
  8
0
 10
3626.2141551648551285
 20
304.0142108477692204
 30
0.0
 11
3626.2251998144770369
 21
304.0157869435158204
 31
0.0
  0
LINE
  5
A957
  8
0
 10
3626.2251998144770369
 20
304.0157869435158204
 30
0.0
 11
3626.2229341528050099
 21
304.0095335083686905
 31
0.0
  0
LINE
  5
A958
  8
0
 10
3626.2229341528050099
 20
304.0095335083686905
 30
0.0
 11
3626.2141551650151996
 21
304.0142108477195961
 31
0.0
  0
LINE
  5
A959
  8
0
 10
3626.2229341528050099
 20
304.0095335083686905
 30
0.0
 11
3626.2427381982279257
 21
304.0064133565666111
 31
0.0
  0
LINE
  5
A95A
  8
0
 10
3626.2427381982279257
 20
304.0064133565666111
 30
0.0
 11
3626.2537959673800287
 21
304.0080080461473244
 31
0.0
  0
LINE
  5
A95B
  8
0
 10
3626.2537959673800287
 20
304.0080080461473244
 30
0.0
 11
3626.2451671522730976
 21
304.0130812119606958
 31
0.0
  0
LINE
  5
A95C
  8
0
 10
3626.2451671522730976
 20
304.0130812119606958
 30
0.0
 11
3626.2251998146848564
 21
304.0157869433548967
 31
0.0
  0
LINE
  5
A95D
  8
0
 10
3626.2427381996221811
 20
304.0064133561315884
 30
0.0
 11
3626.2450252841758811
 21
304.01270824884989
 31
0.0
  0
LINE
  5
A95E
  8
0
 10
3626.1597164787099246
 20
304.0274221586652743
 30
0.0
 11
3626.1704158698989886
 21
304.0280479839573218
 31
0.0
  0
LINE
  5
A95F
  8
0
 10
3626.1704158698989886
 20
304.0280479839573218
 30
0.0
 11
3626.168172309081001
 21
304.0218728770429948
 31
0.0
  0
LINE
  5
A960
  8
0
 10
3626.168172309081001
 20
304.0218728770429948
 30
0.0
 11
3626.1597164788690861
 21
304.0274221586157068
 31
0.0
  0
LINE
  5
A961
  8
0
 10
3626.168172309081001
 20
304.0218728770429948
 30
0.0
 11
3626.1873190845599311
 21
304.0169261679262718
 31
0.0
  0
LINE
  5
A962
  8
0
 10
3626.1873190845599311
 20
304.0169261679262718
 30
0.0
 11
3626.1980173717279285
 21
304.0175489482509192
 31
0.0
  0
LINE
  5
A963
  8
0
 10
3626.1980173717279285
 20
304.0175489482509192
 30
0.0
 11
3626.1895113450341341
 21
304.0231356748317921
 31
0.0
  0
LINE
  5
A964
  8
0
 10
3626.1895113450341341
 20
304.0231356748317921
 30
0.0
 11
3626.1704158701058986
 21
304.0280479837965117
 31
0.0
  0
LINE
  5
A965
  8
0
 10
3626.1873190859541864
 20
304.0169261674913059
 30
0.0
 11
3626.189511345018218
 21
304.0231356748062126
 31
0.0
  0
LINE
  5
A966
  8
0
 10
3626.1071180470157742
 20
304.0456985223095216
 30
0.0
 11
3626.117490500979784
 21
304.0454244913210005
 31
0.0
  0
LINE
  5
A967
  8
0
 10
3626.117490500979784
 20
304.0454244913210005
 30
0.0
 11
3626.1153837143101555
 21
304.0392180866437002
 31
0.0
  0
LINE
  5
A968
  8
0
 10
3626.1153837143101555
 20
304.0392180866437002
 30
0.0
 11
3626.1071180471749358
 21
304.045698522260011
 31
0.0
  0
LINE
  5
A969
  8
0
 10
3626.1153837143101555
 20
304.0392180866437002
 30
0.0
 11
3626.1337553653897885
 21
304.0325457119338921
 31
0.0
  0
LINE
  5
A96A
  8
0
 10
3626.1337553653897885
 20
304.0325457119338921
 30
0.0
 11
3626.144121501016798
 21
304.0322542859385067
 31
0.0
  0
LINE
  5
A96B
  8
0
 10
3626.144121501016798
 20
304.0322542859385067
 30
0.0
 11
3626.1359686683340442
 21
304.0387104807555261
 31
0.0
  0
LINE
  5
A96C
  8
0
 10
3626.1359686683340442
 20
304.0387104807555261
 30
0.0
 11
3626.1174905011871488
 21
304.0454244911600767
 31
0.0
  0
LINE
  5
A96D
  8
0
 10
3626.1337553667840439
 20
304.0325457114989831
 30
0.0
 11
3626.1359686683190375
 21
304.0387104807300034
 31
0.0
  0
LINE
  5
A96E
  8
0
 10
3626.2500408266978411
 20
304.0314580760218064
 30
0.0
 11
3626.2621521378678153
 21
304.0359700089614989
 31
0.0
  0
LINE
  5
A96F
  8
0
 10
3626.2621521378678153
 20
304.0359700089614989
 30
0.0
 11
3626.2584463328839774
 21
304.0243910298299284
 31
0.0
  0
LINE
  5
A970
  8
0
 10
3626.2584463328839774
 20
304.0243910298299284
 30
0.0
 11
3626.2500408268570027
 21
304.0314580759721821
 31
0.0
  0
LINE
  5
A971
  8
0
 10
3626.2584463328839774
 20
304.0243910298299284
 30
0.0
 11
3626.2781823843370148
 21
304.0224454835374104
 31
0.0
  0
LINE
  5
A972
  8
0
 10
3626.2781823843370148
 20
304.0224454835374104
 30
0.0
 11
3626.290407576294001
 21
304.0272708521779919
 31
0.0
  0
LINE
  5
A973
  8
0
 10
3626.290407576294001
 20
304.0272708521779919
 30
0.0
 11
3626.2840204826770787
 21
304.0326302987102167
 31
0.0
  0
LINE
  5
A974
  8
0
 10
3626.2793915828451645
 20
304.0343114842813748
 30
0.0
 11
3626.2621521380751801
 21
304.0359700088005752
 31
0.0
  0
LINE
  5
A975
  8
0
 10
3626.2781823857308154
 20
304.0224454831025014
 30
0.0
 11
3626.2821322667969071
 21
304.0333169925496009
 31
0.0
  0
LINE
  5
A976
  8
0
 10
3626.2255801886758491
 20
304.0456566904279043
 30
0.0
 11
3626.236067729781098
 21
304.0500522416546119
 31
0.0
  0
LINE
  5
A977
  8
0
 10
3626.2374651464879207
 20
304.0495456215273862
 30
0.0
 11
3626.2331285600080264
 21
304.0376097497288015
 31
0.0
  0
LINE
  5
A978
  8
0
 10
3626.2331285600080264
 20
304.0376097497288015
 30
0.0
 11
3626.2255801888350106
 21
304.04565669037828
 31
0.0
  0
LINE
  5
A979
  8
0
 10
3626.2331285600080264
 20
304.0376097497288015
 30
0.0
 11
3626.2531300594478125
 21
304.0346723383323138
 31
0.0
  0
LINE
  5
A97A
  8
0
 10
3626.2531300594478125
 20
304.0346723383323138
 30
0.0
 11
3626.2647524888789121
 21
304.0396303102427851
 31
0.0
  0
LINE
  5
A97B
  8
0
 10
3626.2531300608420679
 20
304.0346723378974048
 30
0.0
 11
3626.2559668735211744
 21
304.0428235033327269
 31
0.0
  0
LINE
  5
A97C
  8
0
 10
3626.2704948494638302
 20
304.0062317795919853
 30
0.0
 11
3626.281914539572881
 21
304.0088401245030809
 31
0.0
  0
LINE
  5
A97D
  8
0
 10
3626.281914539572881
 20
304.0088401245030809
 30
0.0
 11
3626.2795909403080259
 21
304.0024447350921832
 31
0.0
  0
LINE
  5
A97E
  8
0
 10
3626.2795909403080259
 20
304.0024447350921832
 30
0.0
 11
3626.2704948496239012
 21
304.0062317795424178
 31
0.0
  0
LINE
  5
A97F
  8
0
 10
3626.2795909403080259
 20
304.0024447350921832
 30
0.0
 11
3626.3001033088057738
 21
304.001256641654777
 31
0.0
  0
LINE
  5
A980
  8
0
 10
3626.3001033088057738
 20
304.001256641654777
 30
0.0
 11
3626.3115444683999158
 21
304.0039240678863166
 31
0.0
  0
LINE
  5
A981
  8
0
 10
3626.3115444683999158
 20
304.0039240678863166
 30
0.0
 11
3626.3024518463198547
 21
304.0077206645387946
 31
0.0
  0
LINE
  5
A982
  8
0
 10
3626.3024518463198547
 20
304.0077206645387946
 30
0.0
 11
3626.2819145397797911
 21
304.0088401243423277
 31
0.0
  0
LINE
  5
A983
  8
0
 10
3626.3001033102000292
 20
304.0012566412199249
 30
0.0
 11
3626.302451846304848
 21
304.0077206645132719
 31
0.0
  0
LINE
  5
A984
  8
0
 10
3626.0969929360999231
 20
304.0993537548288259
 30
0.0
 11
3626.1063724757727869
 21
304.0971747119394877
 31
0.0
  0
LINE
  5
A985
  8
0
 10
3626.1063724757727869
 20
304.0971747119394877
 30
0.0
 11
3626.103356535697003
 21
304.0881452273665104
 31
0.0
  0
LINE
  5
A986
  8
0
 10
3626.103356535697003
 20
304.0881452273665104
 30
0.0
 11
3626.0969929362599942
 21
304.0993537547793153
 31
0.0
  0
LINE
  5
A987
  8
0
 10
3626.103356535697003
 20
304.0881452273665104
 30
0.0
 11
3626.1215089846850788
 21
304.0803624299626904
 31
0.0
  0
LINE
  5
A988
  8
0
 10
3626.1215089846850788
 20
304.0803624299626904
 30
0.0
 11
3626.1332950830710615
 21
304.0839792647199147
 31
0.0
  0
LINE
  5
A989
  8
0
 10
3626.1215089860779699
 20
304.0803624295277245
 30
0.0
 11
3626.1251399065881742
 21
304.0903560572110109
 31
0.0
  0
LINE
  5
A98A
  8
0
 10
3625.9950562101421383
 20
304.1034883470019281
 30
0.0
 11
3626.0082288956978118
 21
304.0946671662121048
 31
0.0
  0
LINE
  5
A98B
  8
0
 10
3626.0082288956978118
 20
304.0946671662121048
 30
0.0
 11
3626.0158054834141694
 21
304.0866978879224121
 31
0.0
  0
LINE
  5
A98C
  8
0
 10
3626.0158054834141694
 20
304.0866978879224121
 30
0.0
 11
3625.9906408944079885
 21
304.1035122559462138
 31
0.0
  0
LINE
  5
A98D
  8
0
 10
3626.0300521997228316
 20
304.078154852114892
 30
0.0
 11
3626.0396604916099932
 21
304.0757775665251756
 31
0.0
  0
LINE
  5
A98E
  8
0
 10
3626.0396604916099932
 20
304.0757775665251756
 30
0.0
 11
3626.0571872395280479
 21
304.0663719496125168
 31
0.0
  0
LINE
  5
A98F
  8
0
 10
3626.0571872395280479
 20
304.0663719496125168
 30
0.0
 11
3626.065113997923163
 21
304.0593664690056812
 31
0.0
  0
LINE
  5
A990
  8
0
 10
3626.065113997923163
 20
304.0593664690056812
 30
0.0
 11
3626.0300521997228316
 21
304.078154852114892
 31
0.0
  0
LINE
  5
A991
  8
0
 10
3626.0799084952741396
 20
304.0523311272477258
 30
0.0
 11
3626.0898343297631072
 21
304.0508278348751219
 31
0.0
  0
LINE
  5
A992
  8
0
 10
3626.0898343297631072
 20
304.0508278348751219
 30
0.0
 11
3626.1080140613171352
 21
304.043219467209326
 31
0.0
  0
LINE
  5
A993
  8
0
 10
3626.1080140613171352
 20
304.043219467209326
 30
0.0
 11
3626.1162706552568125
 21
304.0371218148735011
 31
0.0
  0
LINE
  5
A994
  8
0
 10
3626.1162706552568125
 20
304.0371218148735011
 30
0.0
 11
3626.0799084952741396
 21
304.0523311272477258
 31
0.0
  0
LINE
  5
A995
  8
0
 10
3626.1315979877399513
 20
304.0315530298396993
 30
0.0
 11
3626.1418431207580397
 21
304.0309285639727932
 31
0.0
  0
LINE
  5
A996
  8
0
 10
3626.1418431207580397
 20
304.0309285639727932
 30
0.0
 11
3626.1606668433369123
 21
304.0250926951961219
 31
0.0
  0
LINE
  5
A997
  8
0
 10
3626.1606668433369123
 20
304.0250926951961219
 30
0.0
 11
3626.1692427358671011
 21
304.0198738693374025
 31
0.0
  0
LINE
  5
A998
  8
0
 10
3626.1692427358671011
 20
304.0198738693374025
 30
0.0
 11
3626.1315979877517748
 21
304.0315530298123008
 31
0.0
  0
LINE
  5
A999
  8
0
 10
3626.1851029034328349
 20
304.0157716411155207
 30
0.0
 11
3626.1956778720777947
 21
304.0160550034506173
 31
0.0
  0
LINE
  5
A99A
  8
0
 10
3626.1956778720777947
 20
304.0160550034506173
 30
0.0
 11
3626.2151545782649009
 21
304.0120163839188763
 31
0.0
  0
LINE
  5
A99B
  8
0
 10
3626.2151545782649009
 20
304.0120163839188763
 30
0.0
 11
3626.224048013204083
 21
304.0076715513818044
 31
0.0
  0
LINE
  5
A99C
  8
0
 10
3626.224048013204083
 20
304.0076715513818044
 30
0.0
 11
3626.1851029034328349
 21
304.0157716411155207
 31
0.0
  0
LINE
  5
A99D
  8
0
 10
3626.3015796923878042
 20
304.0102653923145795
 30
0.0
 11
3626.3135312358740521
 21
304.0143375919179221
 31
0.0
  0
LINE
  5
A99E
  8
0
 10
3626.3135312358740521
 20
304.0143375919179221
 30
0.0
 11
3626.334463053368836
 21
304.0143039710866901
 31
0.0
  0
LINE
  5
A99F
  8
0
 10
3626.334463053368836
 20
304.0143039710866901
 30
0.0
 11
3626.33145702428601
 21
304.0060302799262217
 31
0.0
  0
LINE
  5
A9A0
  8
0
 10
3626.33145702428601
 20
304.0060302799262217
 30
0.0
 11
3626.3105465255162017
 21
304.0061225778018184
 31
0.0
  0
LINE
  5
A9A1
  8
0
 10
3626.3105465255162017
 20
304.0061225778018184
 30
0.0
 11
3626.3015796923878042
 21
304.0102653923145795
 31
0.0
  0
LINE
  5
A9A2
  8
0
 10
3626.3434401333288406
 20
304.0101893601724896
 30
0.0
 11
3626.334463053368836
 21
304.0143039710866901
 31
0.0
  0
LINE
  5
A9A3
  8
0
 10
3626.3434401334111499
 20
304.010189360137872
 30
0.0
 11
3626.33145702428601
 21
304.0060302799262217
 31
0.0
  0
LINE
  5
A9A4
  8
0
 10
3626.2404559618271378
 20
304.0050770170818737
 30
0.0
 11
3626.2513811008798257
 21
304.0063241771928801
 31
0.0
  0
LINE
  5
A9A5
  8
0
 10
3626.2513811008798257
 20
304.0063241771928801
 30
0.0
 11
3626.2715390687940271
 21
304.0041606382685018
 31
0.0
  0
LINE
  5
A9A6
  8
0
 10
3626.2715390687940271
 20
304.0041606382685018
 30
0.0
 11
3626.28075730742421
 21
304.0007097836884782
 31
0.0
  0
LINE
  5
A9A7
  8
0
 10
3626.28075730742421
 20
304.0007097836884782
 30
0.0
 11
3626.2404559618271378
 21
304.0050770170818737
 31
0.0
  0
LINE
  5
A9A8
  8
0
 10
3626.2977451221890988
 20
303.9997112533832819
 30
0.0
 11
3626.3090531183470375
 21
304.0020121752252749
 31
0.0
  0
LINE
  5
A9A9
  8
0
 10
3626.3090531183470375
 20
304.0020121752252749
 30
0.0
 11
3626.3299442774778072
 21
304.0018666478998739
 31
0.0
  0
LINE
  5
A9AA
  8
0
 10
3626.3299442774778072
 20
304.0018666478998739
 30
0.0
 11
3626.3395052461660271
 21
303.9993591116984817
 31
0.0
  0
LINE
  5
A9AB
  8
0
 10
3626.3395052461660271
 20
303.9993591116984817
 30
0.0
 11
3626.2977451223350727
 21
303.9997112533387735
 31
0.0
  0
LINE
  5
A9AC
  8
0
 10
3626.3288587314550568
 20
304.0038240421259843
 30
0.0
 11
3626.3382942871248815
 21
304.0009713233861817
 31
0.0
  0
LINE
  5
A9AD
  8
0
 10
3626.3382942871248815
 20
304.0009713233861817
 30
0.0
 11
3626.359575351003059
 21
304.0018989566362961
 31
0.0
  0
LINE
  5
A9AE
  8
0
 10
3626.359575351003059
 20
304.0018989566362961
 30
0.0
 11
3626.3644524218511833
 21
304.0034081190527218
 31
0.0
  0
LINE
  5
A9AF
  8
0
 10
3626.3517469653888838
 20
304.0080243140793073
 30
0.0
 11
3626.3406988133251616
 21
304.0075894596067201
 31
0.0
  0
LINE
  5
A9B0
  8
0
 10
3626.3406988133251616
 20
304.0075894596067201
 30
0.0
 11
3626.3288587314068536
 21
304.0038240421520754
 31
0.0
  0
LINE
  5
A9B1
  8
0
 10
3626.3406333751881903
 20
304.0075686487793973
 30
0.0
 11
3626.338316347008913
 21
304.0009722849678724
 31
0.0
  0
LINE
  5
A9B2
  8
0
 10
3626.3134448908058403
 20
304.0143081719230054
 30
0.0
 11
3626.3105449868839969
 21
304.0061232886741891
 31
0.0
  0
LINE
  5
A9B3
  8
0
 10
3626.133295083037865
 20
304.0839792647088871
 30
0.0
 11
3626.1307438105782239
 21
304.0883200253844052
 31
0.0
  0
LINE
  5
A9B4
  8
0
 10
3626.1532912898651375
 20
304.0801267733363034
 30
0.0
 11
3626.1486483224020958
 21
304.0783682130801253
 31
0.0
  0
LINE
  5
A9B5
  8
0
 10
3626.1486483224020958
 20
304.0783682130801253
 30
0.0
 11
3626.1553380440700494
 21
304.0680715266993275
 31
0.0
  0
LINE
  5
A9B6
  8
0
 10
3626.1553380440700494
 20
304.0680715266993275
 30
0.0
 11
3626.1741852808809199
 21
304.0623003778302973
 31
0.0
  0
LINE
  5
A9B7
  8
0
 10
3626.1741852808809199
 20
304.0623003778302973
 30
0.0
 11
3626.1863271767460901
 21
304.0668964969037233
 31
0.0
  0
LINE
  5
A9B8
  8
0
 10
3626.1863271767460901
 20
304.0668964969037233
 30
0.0
 11
3626.1852399555241391
 21
304.0685193074904191
 31
0.0
  0
LINE
  5
A9B9
  8
0
 10
3626.1741852808809199
 20
304.0623003778302973
 30
0.0
 11
3626.1780116606760203
 21
304.0711464893382754
 31
0.0
  0
LINE
  5
A9BA
  8
0
 10
3626.1553380440700494
 20
304.0680715266993275
 30
0.0
 11
3626.1584553049101487
 21
304.0782517792968065
 31
0.0
  0
LINE
  5
A9BB
  8
0
 10
3626.6746247566247803
 20
304.0049562054365992
 30
0.0
 11
3626.6701799450170256
 21
303.9927441858873749
 31
0.0
  0
LINE
  5
A9BC
  8
0
 10
3626.6701799450170256
 20
303.9927441858873749
 30
0.0
 11
3626.5038670265262226
 21
304.0532771378602206
 31
0.0
  0
ARC
  5
A9BD
  8
0
 10
3626.450071753858083
 20
303.4346538155594999
 30
0.0
 40
0.6129183422591705
 50
65.7442837148773265
 51
73.3184592319881148
  0
ARC
  5
A9BE
  8
0
 10
3626.1086139487210858
 20
302.2951719621166831
 30
0.0
 40
1.802461249014041
 50
73.3185511211004695
 51
77.4457326681271638
  0
ARC
  5
A9BF
  8
0
 10
3626.1047576411738191
 20
302.2778549187813155
 30
0.0
 40
1.8202024749518091
 50
77.4457326681271638
 51
85.6984624244346946
  0
ARC
  5
A9C0
  8
0
 10
3625.9360653727330828
 20
300.035124560863494
 30
0.0
 40
4.069268178695939
 50
85.6984624244346946
 51
87.5670467596397089
  0
ARC
  5
A9C1
  8
0
 10
3625.9758943322399318
 20
300.972528327938619
 30
0.0
 40
3.1310186550925758
 50
87.5670467596397089
 51
91.5807065513165242
  0
ARC
  5
A9C2
  8
0
 10
3625.8169349711079121
 20
306.7328572618295084
 30
0.0
 40
2.631503145743582
 50
267.0388054385559826
 51
271.5807065513164957
  0
ARC
  5
A9C3
  8
0
 10
3625.7334609203549007
 20
305.1191667062079773
 30
0.0
 40
1.01565503207356
 50
257.4257559057642766
 51
267.0388054385559826
  0
LINE
  5
A9C4
  8
0
 10
3626.2028833051981564
 20
304.062110028343227
 30
0.0
 11
3626.2093311083208391
 21
304.0536434489002886
 31
0.0
  0
LINE
  5
A9C5
  8
0
 10
3626.2093311083208391
 20
304.0536434489002886
 30
0.0
 11
3626.2288783039989539
 21
304.0497937230074967
 31
0.0
  0
LINE
  5
A9C6
  8
0
 10
3626.2288783039989539
 20
304.0497937230074967
 30
0.0
 11
3626.2324990528932176
 21
304.0513499216420996
 31
0.0
  0
LINE
  5
A9C7
  8
0
 10
3626.2288783040471571
 20
304.0497937229990271
 30
0.0
 11
3626.2298014433649769
 21
304.0523300274510916
 31
0.0
  0
LINE
  5
A9C8
  8
0
 10
3626.209331108213064
 20
304.0536434489238218
 30
0.0
 11
3626.2112997133672252
 21
304.0590521467436247
 31
0.0
  0
LINE
  5
A9C9
  8
0
 10
3625.4880021587591727
 20
304.1659386232154816
 30
0.0
 11
3629.2676332159171579
 21
304.0725608727873919
 31
0.0
  0
ARC
  5
A9CA
  8
0
 10
3629.9188587645357984
 20
296.4953956766245824
 30
0.0
 40
0.0967588736870489
 50
340.7627389810202203
 51
1.8598467420040381
  0
LINE
  5
A9CB
  8
0
 10
3630.0102148452169786
 20
296.4635154921874118
 30
0.0
 11
3629.9201363113238585
 21
296.175663325713117
 31
0.0
  0
LINE
  5
A9CC
  8
0
 10
3629.9171360109171474
 20
296.0480414067873767
 30
0.0
 11
3631.7675297104169658
 21
296.0480414067873767
 31
0.0
  0
LINE
  5
A9CD
  8
0
 10
3629.9171360109171474
 20
296.0480414067873767
 30
0.0
 11
3629.9171502593171681
 21
296.156194209687385
 31
0.0
  0
ARC
  5
A9CE
  8
0
 10
3629.9682486081251227
 20
296.1583206116071096
 30
0.0
 40
0.0511425736152581
 50
160.177630868262213
 51
182.3829263393174074
  0
LINE
  5
A9CF
  8
0
 10
3629.9201363113238585
 20
296.1756633257134013
 30
0.0
 11
3631.7643985380191225
 21
296.1761078130301144
 31
0.0
  0
LINE
  5
A9D0
  8
0
 10
3630.0155666662158183
 20
296.4985359615943139
 30
0.0
 11
3631.6691099733170631
 21
296.4985527543943249
 31
0.0
  0
ARC
  5
A9D1
  8
0
 10
3631.7707775321500776
 20
296.4960586931917987
 30
0.0
 40
0.1016981458054059
 50
178.5947284763452103
 51
198.6686911240913957
  0
LINE
  5
A9D2
  8
0
 10
3631.6744302004171914
 20
296.4635055899873919
 30
0.0
 11
3631.7643985380191225
 21
296.1761078130297733
 31
0.0
  0
LINE
  5
A9D3
  8
0
 10
3631.7675297104169658
 20
296.0480414067873767
 30
0.0
 11
3631.7675328165169049
 21
296.156195465387384
 31
0.0
  0
ARC
  5
A9D4
  8
0
 10
3631.7093150244941171
 20
296.1572346131486029
 30
0.0
 40
0.0582270653229982
 50
358.9774181196478935
 51
18.9129382962215082
  0
LINE
  5
A9D5
  8
0
 10
3626.3571445819611654
 20
304.0001631256790233
 30
0.0
 11
3626.366259943265959
 21
304.0027514034603087
 31
0.0
  0
LINE
  5
A9D6
  8
0
 10
3626.3571445819611654
 20
304.0001631256790233
 30
0.0
 11
3626.3576268795800388
 21
304.0000712983454036
 31
0.0
  0
LINE
  5
A9D7
  8
0
 10
3626.3576268795800388
 20
304.0000712983454036
 30
0.0
 11
3626.3711717959108682
 21
304.0009668103750187
 31
0.0
  0
LINE
  5
A9D8
  8
0
 10
3626.359575351003059
 20
304.0018989566362961
 30
0.0
 11
3626.3606272740598797
 21
304.0047978863751723
 31
0.0
  0
LINE
  5
A9D9
  8
0
 10
3630.0487259643578
 20
306.7832383359873916
 30
0.0
 11
3630.0526538696171883
 21
306.2468010360873905
 31
0.0
  0
ARC
  5
A9DA
  8
0
 10
3629.7790364962411331
 20
306.237190941731626
 30
0.0
 40
0.2737839292011759
 50
343.0321452216928719
 51
2.0115500570053682
  0
ARC
  5
A9DB
  8
0
 10
3629.4742101401820946
 20
306.3301987381507274
 30
0.0
 40
0.5924837213935826
 50
336.0227667479608158
 51
343.0321452216928719
  0
ENDSEC
  0
EOF
