  0
SECTION
  2
HEADER
  9
$ACADVER
  1
AC1009
  9
$INSBASE
 10
4219.3758993728706628
 20
222.9552101381393072
 30
0.0
  9
$EXTMIN
 10
4217.9831267055205899
 20
219.2537341913379123
 30
-0.0000000349181948
  9
$EXTMAX
 10
4225.0143720995029071
 20
224.3470471875052965
 30
0.0000000814935746
  9
$LIMMIN
 10
0.0
 20
0.0
  9
$LIMMAX
 10
11.6929133858000007
 20
8.2677165353999982
  9
$ORTHOMODE
 70
     0
  9
$REGENMODE
 70
     1
  9
$FILLMODE
 70
     1
  9
$QTEXTMODE
 70
     0
  9
$MIRRTEXT
 70
     0
  9
$DRAGMODE
 70
     2
  9
$LTSCALE
 40
0.6431102362
  9
$OSMODE
 70
  4095
  9
$ATTMODE
 70
     1
  9
$TEXTSIZE
 40
0.2
  9
$TRACEWID
 40
0.05
  9
$TEXTSTYLE
  7
STANDARD
  9
$CLAYER
  8
0
  9
$CELTYPE
  6
BYLAYER
  9
$CECOLOR
 62
   256
  9
$DIMSCALE
 40
1.0
  9
$DIMASZ
 40
0.1875
  9
$DIMEXO
 40
0.0625
  9
$DIMDLI
 40
0.4443307087
  9
$DIMRND
 40
0.0
  9
$DIMDLE
 40
0.0
  9
$DIMEXE
 40
0.125
  9
$DIMTP
 40
0.01
  9
$DIMTM
 40
0.01
  9
$DIMTXT
 40
2.0
  9
$DIMCEN
 40
0.1052362205
  9
$DIMTSZ
 40
0.0
  9
$DIMTOL
 70
     1
  9
$DIMLIM
 70
     0
  9
$DIMTIH
 70
     1
  9
$DIMTOH
 70
     1
  9
$DIMSE1
 70
     0
  9
$DIMSE2
 70
     0
  9
$DIMTAD
 70
     0
  9
$DIMZIN
 70
     0
  9
$DIMBLK
  1

  9
$DIMASO
 70
     1
  9
$DIMSHO
 70
     1
  9
$DIMPOST
  1
\X
  9
$DIMAPOST
  1

  9
$DIMALT
 70
     1
  9
$DIMALTD
 70
     2
  9
$DIMALTF
 40
25.3999999999999986
  9
$DIMLFAC
 40
1.0
  9
$DIMTOFL
 70
     0
  9
$DIMTVP
 40
0.0
  9
$DIMTIX
 70
     0
  9
$DIMSOXD
 70
     0
  9
$DIMSAH
 70
     0
  9
$DIMBLK1
  1

  9
$DIMBLK2
  1

  9
$DIMSTYLE
  2
STANDARD
  9
$DIMCLRD
 70
     0
  9
$DIMCLRE
 70
     0
  9
$DIMCLRT
 70
     0
  9
$DIMTFAC
 40
1.0
  9
$DIMGAP
 40
0.09
  9
$LUNITS
 70
     2
  9
$LUPREC
 70
     4
  9
$SKETCHINC
 40
0.1
  9
$FILLETRAD
 40
0.0
  9
$AUNITS
 70
     0
  9
$AUPREC
 70
     0
  9
$MENU
  1
.
  9
$ELEVATION
 40
0.0
  9
$PELEVATION
 40
0.0
  9
$THICKNESS
 40
0.0
  9
$LIMCHECK
 70
     0
  9
$BLIPMODE
 70
     0
  9
$CHAMFERA
 40
0.0
  9
$CHAMFERB
 40
0.0
  9
$SKPOLY
 70
     0
  9
$TDCREATE
 40
2458060.468368056230247
  9
$TDUPDATE
 40
2459160.8685532407835126
  9
$TDINDWG
 40
0.605134375
  9
$TDUSRTIMER
 40
0.605134375
  9
$USRTIMER
 70
     1
  9
$ANGBASE
 50
0.0
  9
$ANGDIR
 70
     0
  9
$PDMODE
 70
     0
  9
$PDSIZE
 40
0.3125
  9
$PLINEWID
 40
0.0
  9
$COORDS
 70
     1
  9
$SPLFRAME
 70
     0
  9
$SPLINETYPE
 70
     6
  9
$SPLINESEGS
 70
     8
  9
$ATTDIA
 70
     1
  9
$ATTREQ
 70
     1
  9
$HANDLING
 70
     1
  9
$HANDSEED
  5
10728
  9
$SURFTAB1
 70
     6
  9
$SURFTAB2
 70
     6
  9
$SURFTYPE
 70
     6
  9
$SURFU
 70
     6
  9
$SURFV
 70
     6
  9
$UCSNAME
  2

  9
$UCSORG
 10
0.0
 20
0.0
 30
0.0
  9
$UCSXDIR
 10
1.0
 20
0.0
 30
0.0
  9
$UCSYDIR
 10
0.0
 20
1.0
 30
0.0
  9
$PUCSNAME
  2

  9
$PUCSORG
 10
0.0
 20
0.0
 30
0.0
  9
$PUCSXDIR
 10
1.0
 20
0.0
 30
0.0
  9
$PUCSYDIR
 10
0.0
 20
1.0
 30
0.0
  9
$USERI1
 70
     0
  9
$USERI2
 70
     0
  9
$USERI3
 70
     0
  9
$USERI4
 70
     0
  9
$USERI5
 70
     0
  9
$USERR1
 40
0.0
  9
$USERR2
 40
0.0
  9
$USERR3
 40
0.0
  9
$USERR4
 40
0.0
  9
$USERR5
 40
0.0
  9
$WORLDVIEW
 70
     1
  9
$SHADEDGE
 70
     3
  9
$SHADEDIF
 70
    70
  9
$TILEMODE
 70
     1
  9
$MAXACTVP
 70
    64
  9
$PLIMCHECK
 70
     0
  9
$PEXTMIN
 10
1.0000000000000000E+20
 20
1.0000000000000000E+20
 30
1.0000000000000000E+20
  9
$PEXTMAX
 10
-1.0000000000000000E+20
 20
-1.0000000000000000E+20
 30
-1.0000000000000000E+20
  9
$PLIMMIN
 10
0.0
 20
0.0
  9
$PLIMMAX
 10
12.0
 20
9.0
  9
$UNITMODE
 70
     0
  9
$VISRETAIN
 70
     1
  9
$PLINEGEN
 70
     0
  9
$PSLTSCALE
 70
     1
  0
ENDSEC
  0
SECTION
  2
TABLES
  0
TABLE
  2
VPORT
 70
     1
  0
VPORT
  2
*ACTIVE
 70
     0
 10
0.0
 20
0.0
 11
1.0
 21
1.0
 12
59.942352918137658
 22
-4.3104415249338777
 13
0.0
 23
0.0
 14
1.0
 24
1.0
 15
0.0
 25
0.0
 16
0.0
 26
0.0
 36
202.37134017897489
 17
4161.556396484375
 27
226.1108322143554972
 37
0.0
 40
5.1645391160381022
 41
2.9225663716814161
 42
50.0
 43
0.0
 44
0.0
 50
0.0
 51
0.0
 71
     0
 72
   100
 73
     1
 74
     1
 75
     0
 76
     0
 77
     0
 78
     0
  0
ENDTAB
  0
TABLE
  2
LTYPE
 70
     2
  0
LTYPE
  2
CONTINUOUS
 70
     0
  3
Solid line
 72
    65
 73
     0
 40
0.0
  0
LTYPE
  2
PHANTOM2
 70
     0
  3
___ _ _ ___ _ _ ___ _ _ ___ _ _
 72
    65
 73
     6
 40
1.25
 49
0.625
 49
-0.125
 49
0.125
 49
-0.125
 49
0.125
 49
-0.125
  0
ENDTAB
  0
TABLE
  2
LAYER
 70
     2
  0
LAYER
  2
0
 70
     0
 62
   255
  6
CONTINUOUS
  0
LAYER
  2
DEFPOINTS
 70
     0
 62
     7
  6
CONTINUOUS
  0
ENDTAB
  0
TABLE
  2
STYLE
 70
     1
  0
STYLE
  2
STANDARD
 70
     0
 40
0.0
 41
0.8
 50
0.0
 71
     0
 42
0.2
  3
txt
  4

  0
ENDTAB
  0
TABLE
  2
VIEW
 70
     0
  0
ENDTAB
  0
TABLE
  2
UCS
 70
     0
  0
ENDTAB
  0
TABLE
  2
APPID
 70
     9
  0
APPID
  2
ACAD
 70
     0
  0
APPID
  2
ACAD_MLEADERVER
 70
     0
  0
APPID
  2
ACAD_EXEMPT_FROM_CAD_STANDARDS
 70
     0
  0
APPID
  2
ACAD_NAV_VCDISPLAY
 70
     0
  0
APPID
  2
ACAECLAYERSTANDARD
 70
     0
  0
APPID
  2
ACCMTRANSPARENCY
 70
     0
  0
APPID
  2
ACAD_DSTYLE_DIMJAG
 70
     0
  0
APPID
  2
ACAD_DSTYLE_DIMTALN
 70
     0
  0
APPID
  2
ACDBATTR
 70
     0
  0
ENDTAB
  0
TABLE
  2
DIMSTYLE
 70
     1
  0
DIMSTYLE
  2
STANDARD
 70
     0
  3

  4

  5

  6

  7

 40
1.0
 41
0.1875
 42
0.0625
 43
0.38
 44
0.125
 45
0.0
 46
0.0
 47
0.01
 48
0.01
140
0.15625
141
0.09
142
0.0
143
25.3999999999999986
144
1.0
145
0.0
146
1.0
147
0.09
 71
     1
 72
     0
 73
     1
 74
     1
 75
     0
 76
     0
 77
     0
 78
     4
170
     0
171
     2
172
     0
173
     0
174
     0
175
     0
176
     0
177
     0
178
     0
  0
ENDTAB
  0
ENDSEC
  0
SECTION
  2
BLOCKS
  0
BLOCK
  8
0
  2
$MODEL_SPACE
 70
     0
 10
0.0
 20
0.0
 30
0.0
  3
$MODEL_SPACE
  1

  0
ENDBLK
  5
21
  8
0
  0
BLOCK
 67
     1
  8
0
  2
$PAPER_SPACE
 70
     0
 10
0.0
 20
0.0
 30
0.0
  3
$PAPER_SPACE
  1

  0
ENDBLK
  5
1D
 67
     1
  8
0
  0
ENDSEC
  0
SECTION
  2
ENTITIES
  0
ATTDEF
  5
3930
  8
DEFPOINTS
 10
4219.3725275160013553
 20
222.9599994952511111
 30
0.0
 40
0.001
  1
K-74027IN-4A
  3

  2
MODELNUMBER
 70
     0
1001
ACDBATTR
1070
     0
1070
     1
  0
ATTDEF
  5
3931
  8
DEFPOINTS
 10
4219.3725275160013553
 20
222.9583328285845027
 30
0.0
 40
0.001
  1
TAUT
  3

  2
TRADENAME
 70
     0
1001
ACDBATTR
1070
     0
1070
     1
  0
ATTDEF
  5
3932
  8
DEFPOINTS
 10
4219.3725275160013553
 20
222.9566661619178092
 30
0.0
 40
0.001
  1
BATHROOM SINK FAUCET
  3

  2
PRODUCT
 70
     0
1001
ACDBATTR
1070
     0
1070
     1
  0
LINE
  5
105AD
  8
0
 10
4218.5639316358719952
 20
222.4846346001392874
 30
0.0
 11
4218.572983255005056
 21
223.5193288572982908
 31
0.0
  0
LINE
  5
105AE
  8
0
 10
4218.7379863370715611
 20
223.4779674364392861
 30
0.0
 11
4218.7304670046723913
 21
222.596330005439313
 31
0.0
  0
LINE
  5
105AF
  8
0
 10
4222.4133167618210791
 20
222.8946099790960034
 30
0.0
 11
4222.627918985341239
 21
219.3327338032800924
 31
0.0
  0
LINE
  5
105B0
  8
0
 10
4218.8162749744724351
 20
223.5089533663393127
 30
0.0
 11
4219.8925498791822974
 21
223.5094266512163017
 31
0.0
  0
LINE
  5
105B1
  8
0
 10
4224.1238795957642651
 20
219.3327338032561897
 30
0.0
 11
4224.3387914547720356
 21
222.8997491587392972
 31
0.0
  0
CIRCLE
  5
105B2
  8
0
 10
4219.3758993728733913
 20
222.9552101381393072
 30
0.0
 40
1.3779527558999971
  0
ARC
  5
105B3
  8
0
 10
4219.3757721586143816
 20
219.3512401768138034
 30
0.0
 40
4.2700778820550971
 50
89.9982930428032262
 51
100.4844423938275071
  0
ARC
  5
105B4
  8
0
 10
4218.6044762999554223
 20
223.5190566500137948
 30
0.0
 40
0.0314942213278485
 50
100.4714860378658017
 51
179.5047814461061932
  0
ARC
  5
105B5
  8
0
 10
4218.8073734463969231
 20
226.1282941208123134
 30
0.0
 40
2.6193812022165259
 50
269.1690847796303956
 51
270.1947106354343759
  0
ARC
  5
105B6
  8
0
 10
4218.7689390864188681
 20
223.4782376775710873
 30
0.0
 40
0.030953937419788
 50
89.1690847796303672
 51
180.5011106396584069
  0
ARC
  5
105B7
  8
0
 10
4218.7619686074458514
 20
222.5961601593641035
 30
0.0
 40
0.0315020606473385
 50
179.691083369704188
 51
259.3621117389072879
  0
ARC
  5
105B8
  8
0
 10
4219.0541879074089593
 20
223.6637362825782134
 30
0.0
 40
1.138247634793639
 50
254.8209466067924041
 51
265.2077959385370036
  0
ARC
  5
105B9
  8
0
 10
4218.8832750854253391
 20
227.4569311524467992
 30
0.0
 40
4.9280467705234177
 50
270.8815657914688018
 51
273.0092998529485158
  0
ARC
  5
105BA
  8
0
 10
4219.3931201517098089
 20
219.4580564468564887
 30
0.0
 40
3.0879691101132631
 50
90.3195249131615583
 51
94.7371323026795551
  0
ARC
  5
105BB
  8
0
 10
4219.3863408360330141
 20
224.6012479559666133
 30
0.0
 40
2.2913760256679589
 50
249.515524848064814
 51
269.7388777037207888
  0
ARC
  5
105BC
  8
0
 10
4218.595615932178589
 20
222.4844206388326029
 30
0.0
 40
0.0316850187303423
 50
179.6130924484245099
 51
249.3957447588387879
  0
ARC
  5
105BD
  8
0
 10
4219.4075296321661881
 20
229.1527649803074951
 30
0.0
 40
6.8266157492645974
 50
268.5285547772509176
 51
269.7345263138307132
  0
ARC
  5
105BE
  8
0
 10
4219.2292629993062292
 20
222.2128667580093122
 30
0.0
 40
0.1155716818156576
 50
88.528554777250875
 51
94.6188371544121054
  0
ARC
  5
105BF
  8
0
 10
4219.2202394450969223
 20
222.3245596189179025
 30
0.0
 40
0.0035149117902825
 50
94.6188371544640461
 51
121.1916225162269001
  0
ARC
  5
105C0
  8
0
 10
4219.2189132262637941
 20
222.3267501892736959
 30
0.0
 40
0.0009541589955456
 50
121.1916225162269001
 51
238.8084125817665893
  0
ARC
  5
105C1
  8
0
 10
4219.2222941528498268
 20
222.3323346129108984
 30
0.0
 40
0.0074822867475914
 50
238.8084125817665893
 51
253.2819669909841025
  0
ARC
  5
105C2
  8
0
 10
4219.30630949848819
 20
222.8657958081535071
 30
0.0
 40
0.5474510634708193
 50
260.9440997086081211
 51
266.7527602555750832
  0
ARC
  5
105C3
  8
0
 10
4219.3738578459960991
 20
223.7821344513768054
 30
0.0
 40
1.466226981032523
 50
266.1457196847143791
 51
270.0797768101646739
  0
ARC
  5
105C4
  8
0
 10
4219.2758335506532603
 20
269.9355042064594841
 30
0.0
 40
47.3727172685727069
 50
269.4667096707465817
 51
270.12102648698351
  0
ARC
  5
105C5
  8
0
 10
4218.8206440348094475
 20
221.0321516380165008
 30
0.0
 40
1.532753692545413
 50
89.4667096707466385
 51
90.5332903292533757
  0
ARC
  5
105C6
  8
0
 10
4218.7921997895045934
 20
224.0880633148740912
 30
0.0
 40
1.52329036012227
 50
268.6440501577624218
 51
270.5332903292533047
  0
LINE
  5
105C7
  8
0
 10
4218.7471144327673755
 20
223.500188320722998
 30
0.0
 11
4218.5803571371516227
 21
223.5393088588486989
 31
0.0
  0
LINE
  5
105C8
  8
0
 10
4218.5694982479872124
 20
222.4664815651935044
 30
0.0
 11
4218.7366089697143252
 21
222.5755719471891041
 31
0.0
  0
ARC
  5
105C9
  8
0
 10
4223.3758993678720799
 20
222.9552119390392875
 30
0.0
 40
1.3779527559
 50
255.7555227142312049
 51
284.4170027530759057
  0
ARC
  5
105CA
  8
0
 10
4223.3758993678720799
 20
222.9552119390392875
 30
0.0
 40
1.3779527559
 50
310.974328912071428
 51
229.025662147188001
  0
ARC
  5
105CB
  8
0
 10
4223.3758992039420264
 20
222.9552125194186942
 30
0.0
 40
0.9644882714545213
 50
356.703359489856723
 51
183.6024892881667938
  0
ARC
  5
105CC
  8
0
 10
4223.3758993608707897
 20
222.9552108165393065
 30
0.0
 40
0.9744094487999996
 50
348.3675284019158767
 51
191.6324140467733912
  0
LINE
  5
105CD
  8
0
 10
4220.1878671098720588
 20
222.4846346001392874
 30
0.0
 11
4220.1788154907389981
 21
223.5193288572982908
 31
0.0
  0
LINE
  5
105CE
  8
0
 10
4220.0138124128152413
 20
223.4779669505097957
 30
0.0
 11
4220.0213317410707532
 21
222.596330005439313
 31
0.0
  0
ARC
  5
105CF
  8
0
 10
4219.3760265871296724
 20
219.3512401768138034
 30
0.0
 40
4.2700778820550971
 50
79.5155576061725213
 51
90.0017069571967738
  0
ARC
  5
105D0
  8
0
 10
4220.1473224457886317
 20
223.5190566500137948
 30
0.0
 40
0.0314942213278485
 50
0.4952185538937747
 51
79.5285139621341841
  0
ARC
  5
105D1
  8
0
 10
4219.9444252993471309
 20
226.1282941208123134
 30
0.0
 40
2.6193812022165259
 50
268.8652140583964183
 51
270.8309152203696044
  0
ARC
  5
105D2
  8
0
 10
4219.9828596593242764
 20
223.4782376775710873
 30
0.0
 40
0.030953937419788
 50
359.4988774587956755
 51
90.830915220369647
  0
ARC
  5
105D3
  8
0
 10
4219.9898301382982027
 20
222.5961601593641035
 30
0.0
 40
0.0315020606473385
 50
280.6378882610927121
 51
0.3089166302958048
  0
ARC
  5
105D4
  8
0
 10
4219.6976108383341852
 20
223.6637362825782134
 30
0.0
 40
1.138247634793639
 50
274.7922040614628827
 51
285.1790533932075959
  0
ARC
  5
105D5
  8
0
 10
4219.868523660318715
 20
227.4569311524467992
 30
0.0
 40
4.9280467705234177
 50
267.0359399074671956
 51
269.1184342085310846
  0
ARC
  5
105D6
  8
0
 10
4219.3586785940342452
 20
219.4580564468564887
 30
0.0
 40
3.0879691101132631
 50
85.2628676973204449
 51
89.6804750868905671
  0
ARC
  5
105D7
  8
0
 10
4219.36545790971104
 20
224.6012479559666133
 30
0.0
 40
2.2913760256679589
 50
270.2611222962792112
 51
290.4844751519351007
  0
ARC
  5
105D8
  8
0
 10
4220.1561828135636461
 20
222.4844206388326029
 30
0.0
 40
0.0316850187303423
 50
290.6042552411611268
 51
0.3869075515755091
  0
ARC
  5
105D9
  8
0
 10
4219.3442691135769564
 20
229.1527649803074951
 30
0.0
 40
6.8266157492645974
 50
270.2654736861692868
 51
271.4714452227490824
  0
ARC
  5
105DA
  8
0
 10
4219.5225357464369154
 20
222.2128667580093122
 30
0.0
 40
0.1155716818156576
 50
85.3811628455879088
 51
91.471445222749125
  0
ARC
  5
105DB
  8
0
 10
4219.5315593006471317
 20
222.3245596189179025
 30
0.0
 40
0.0035149117902825
 50
58.8083774837730999
 51
85.3811628455359681
  0
ARC
  5
105DC
  8
0
 10
4219.53288551948026
 20
222.3267501892736959
 30
0.0
 40
0.0009541589955456
 50
301.1915874182333823
 51
58.8083774837730999
  0
ARC
  5
105DD
  8
0
 10
4219.5295045928942272
 20
222.3323346129108984
 30
0.0
 40
0.0074822867475914
 50
286.7180330090159259
 51
301.1915874182333823
  0
ARC
  5
105DE
  8
0
 10
4219.4454892472549545
 20
222.8657958081535071
 30
0.0
 40
0.5474510634708193
 50
273.2472397444249168
 51
279.0559002913918789
  0
ARC
  5
105DF
  8
0
 10
4219.3779408997470455
 20
223.7821344513768054
 30
0.0
 40
1.466226981032523
 50
269.9202231898353261
 51
273.8542803152856209
  0
ARC
  5
105E0
  8
0
 10
4219.4759651950907937
 20
269.9355042064594841
 30
0.0
 40
47.3727172685727069
 50
269.8789735130166036
 51
270.5332903292533047
  0
ARC
  5
105E1
  8
0
 10
4219.9311547109336971
 20
221.0321516380165008
 30
0.0
 40
1.532753692545413
 50
89.4667096707466385
 51
90.5332903292533757
  0
ARC
  5
105E2
  8
0
 10
4219.9595989562385512
 20
224.0880633148740912
 30
0.0
 40
1.52329036012227
 50
269.4667096707465817
 51
271.3559498422375214
  0
LINE
  5
105E3
  8
0
 10
4220.0046843129766785
 20
223.500188320722998
 30
0.0
 11
4220.1714416085924313
 21
223.5393088588486989
 31
0.0
  0
LINE
  5
105E4
  8
0
 10
4220.1823004977559322
 20
222.4664815651935044
 30
0.0
 11
4220.0151897760297288
 21
222.5755719471891041
 31
0.0
  0
LINE
  5
105E6
  8
0
 10
4224.0453220499211966
 20
219.258766877418708
 30
0.0
 11
4222.706476531187036
 21
219.258766877418708
 31
0.0
  0
ARC
  5
105E7
  8
0
 10
4224.0453220499211966
 20
219.3374668774187057
 30
0.0
 40
0.0787
 50
270.0
 51
356.5521103498180082
  0
ARC
  5
105E8
  8
0
 10
4222.706476531187036
 20
219.3374668774187057
 30
0.0
 40
0.0787
 50
183.447889632759086
 51
270.0
  0
LINE
  5
105E9
  8
0
 10
4222.8286064756994165
 20
221.1173669054234949
 30
0.0
 11
4222.8936742248406517
 21
220.033727276618805
 31
0.0
  0
LINE
  5
105EA
  8
0
 10
4223.9285880738507331
 20
221.117878316407598
 30
0.0
 11
4223.8639954708996811
 21
220.033727276618805
 31
0.0
  0
ARC
  5
105EB
  8
0
 10
4223.3788348478710759
 20
220.033727276618805
 30
0.0
 40
0.4851606230291985
 50
180.0
 51
0.0
  0
ARC
  5
105EC
  8
0
 10
4223.3785665763025463
 20
221.1836512167188005
 30
0.0
 40
0.5539401792434679
 50
353.1808138309576748
 51
186.8724628582585012
  0
ARC
  5
105ED
  8
0
 10
4219.4106315602348332
 20
223.7472213148404023
 30
0.0
 40
1.4094797520486591
 50
263.0060524592328761
 51
268.5879831213503053
  0
ARC
  5
105EE
  8
0
 10
4219.3158076005665862
 20
222.8608086243235107
 30
0.0
 40
0.5183008030649594
 50
247.6812333503953028
 51
261.4786626103282856
  0
ARC
  5
105EF
  8
0
 10
4219.1675149871080066
 20
222.4995709364299898
 30
0.0
 40
0.1278096170423884
 50
219.961751478096005
 51
247.6812333503953028
  0
ARC
  5
105F0
  8
0
 10
4219.1092756950529292
 20
222.450768583046397
 30
0.0
 40
0.0518261659830632
 50
184.4699425428154882
 51
219.961751478096005
  0
ARC
  5
105F1
  8
0
 10
4219.3757273217534021
 20
221.7863304726103877
 30
0.0
 40
0.7148121885141834
 50
89.9862092404839018
 51
95.4825574673442645
  0
ARC
  5
105F2
  8
0
 10
4219.3547024390782099
 20
222.0053811840242872
 30
0.0
 40
0.4947547872244411
 50
95.4825574673442645
 51
108.2262399100190038
  0
ARC
  5
105F3
  8
0
 10
4219.234820853808742
 20
222.3694410837424869
 30
0.0
 40
0.1114648120496017
 50
108.2262399100190038
 51
136.2327395860071988
  0
ARC
  5
105F4
  8
0
 10
4219.360236726814037
 20
222.9079937432892109
 30
0.0
 40
0.5053063166992323
 50
245.952302534245888
 51
257.0897781986278119
  0
ARC
  5
105F5
  8
0
 10
4219.3758976945800896
 20
222.9660054138423959
 30
0.0
 40
0.5653552611015509
 50
256.8562915077844764
 51
270.0001700858426261
  0
ARC
  5
105F6
  8
0
 10
4219.3758876503061401
 20
222.8976716017579065
 30
0.0
 40
0.541338604871331
 50
261.1506989058624981
 51
270.001240727010213
  0
ARC
  5
105F7
  8
0
 10
4219.3695912488710746
 20
222.8572295237783862
 30
0.0
 40
0.5004093202166563
 50
248.6673459303534059
 51
261.150698815205601
  0
ARC
  5
105F8
  8
0
 10
4219.2178783239523909
 20
222.4687603111021019
 30
0.0
 40
0.0833659881940284
 50
220.3058410305692973
 51
248.6673459303534059
  0
ARC
  5
105F9
  8
0
 10
4219.3757467035411537
 20
222.9365090424944924
 30
0.0
 40
0.5521207568537779
 50
253.0996220347084886
 51
270.0158431070433949
  0
ARC
  5
105FA
  8
0
 10
4219.137311016480453
 20
221.9733378471707113
 30
0.0
 40
0.44182258878829
 50
79.8409165403212029
 51
87.7958984758591043
  0
LINE
  5
105FB
  8
0
 10
4219.215240503493078
 20
222.4082334611026113
 30
0.0
 11
4219.2836054727267765
 21
222.4082334611026113
 31
0.0
  0
LINE
  5
105FC
  8
0
 10
4219.057607165799709
 20
222.446729453763993
 30
0.0
 11
4219.041870681169712
 21
222.5314370239885875
 31
0.0
  0
ARC
  5
105FD
  8
0
 10
4218.9855894914626333
 20
229.231464625798111
 30
0.0
 40
6.7020492971298262
 50
268.8770611984401171
 51
269.7735078489812963
  0
ARC
  5
105FE
  8
0
 10
4219.146874533220398
 20
223.416159113956212
 30
0.0
 40
0.9322774018103082
 50
251.7679791969736129
 51
262.411471258136487
  0
ARC
  5
105FF
  8
0
 10
4219.1269883707336703
 20
222.7450058631812055
 30
0.0
 40
0.2732114676685441
 50
232.083393997415186
 51
253.839380498874192
  0
ARC
  5
10600
  8
0
 10
4219.1111146945868313
 20
222.6554938015044911
 30
0.0
 40
0.1798875694543451
 50
224.2898587584789993
 51
250.231548655654592
  0
ARC
  5
10601
  8
0
 10
4219.1007365051218585
 20
222.5924620560566041
 30
0.0
 40
0.0909487918357526
 50
222.3652886960487081
 51
229.9241268784234933
  0
ARC
  5
10602
  8
0
 10
4219.3745992038866461
 20
221.6170882484306048
 30
0.0
 40
0.9071145731846524
 50
89.9178778260043572
 51
97.3669603073891494
  0
ARC
  5
10603
  8
0
 10
4219.3307802167573755
 20
221.9560058128332116
 30
0.0
 40
0.5653760487338677
 50
97.3669603073891494
 51
110.0376493835485974
  0
ARC
  5
10604
  8
0
 10
4219.1843124655069914
 20
222.3576013733203069
 30
0.0
 40
0.1379046504408649
 50
110.0376493835485974
 51
133.2060820780546067
  0
ARC
  5
10605
  8
0
 10
4219.1151342950815888
 20
222.4312529734862949
 30
0.0
 40
0.0368592276322016
 50
133.2060820780546067
 51
201.3949691146478074
  0
ARC
  5
10606
  8
0
 10
4219.2028378319473632
 20
222.5196847817192065
 30
0.0
 40
0.1589611394614255
 50
219.8588113696297057
 51
251.2079534035786139
  0
ARC
  5
10607
  8
0
 10
4219.3586785940287882
 20
219.4580564468564887
 30
0.0
 40
3.0879691101132631
 50
85.2628676973204449
 51
89.6804750868384275
  0
ARC
  5
10608
  8
0
 10
4219.3443424272891207
 20
223.704013539084599
 30
0.0
 40
1.3662084814663269
 50
271.3235466150896968
 51
277.0824178043258144
  0
ARC
  5
10609
  8
0
 10
4219.4359911451711014
 20
222.8608086243235107
 30
0.0
 40
0.5183008030649594
 50
278.5213373896717144
 51
292.3187666496046972
  0
ARC
  5
1060A
  8
0
 10
4219.5842837586305905
 20
222.4995709364299898
 30
0.0
 40
0.1278096170423884
 50
292.3187666496046972
 51
320.038248521903995
  0
ARC
  5
1060B
  8
0
 10
4219.6425230506856678
 20
222.450768583046397
 30
0.0
 40
0.0518261659830632
 50
320.038248521903995
 51
355.5300574571843981
  0
ARC
  5
1060C
  8
0
 10
4219.376071423987014
 20
221.7863304726103877
 30
0.0
 40
0.7148121885141834
 50
84.5174425326557355
 51
90.0137907595161124
  0
ARC
  5
1060D
  8
0
 10
4219.3970963066612967
 20
222.0053811840242872
 30
0.0
 40
0.4947547872244411
 50
71.7737600899810388
 51
84.5174425326557355
  0
ARC
  5
1060E
  8
0
 10
4219.5169778919298551
 20
222.3694410837424869
 30
0.0
 40
0.1114648120496017
 50
43.7672604139928225
 51
71.7737600899810388
  0
ARC
  5
1060F
  8
0
 10
4219.3915620189263791
 20
222.9079937432892109
 30
0.0
 40
0.5053063166992323
 50
282.9102218013721881
 51
294.0476974657540836
  0
ARC
  5
10610
  8
0
 10
4219.375901051159417
 20
222.9660054138423106
 30
0.0
 40
0.5653552611015048
 50
269.9998299141573739
 51
283.1437084922155236
  0
ARC
  5
10611
  8
0
 10
4219.3759110954333664
 20
222.8976716017577075
 30
0.0
 40
0.5413386048710646
 50
269.9987592730419124
 51
278.8493010941375019
  0
ARC
  5
10612
  8
0
 10
4219.3822074968684319
 20
222.8572295237783862
 30
0.0
 40
0.5004093202166563
 50
278.8493011847942853
 51
291.3326540696465941
  0
ARC
  5
10613
  8
0
 10
4219.5339204217871156
 20
222.4687603111021019
 30
0.0
 40
0.0833659881940284
 50
291.3326540696465941
 51
319.694158969430589
  0
ARC
  5
10614
  8
0
 10
4219.3760520421974434
 20
222.9365090424944924
 30
0.0
 40
0.5521207568537779
 50
269.9841568929566051
 51
286.9003779652915114
  0
ARC
  5
10615
  8
0
 10
4219.6144877292599631
 20
221.9733378471707113
 30
0.0
 40
0.44182258878829
 50
92.2041015241408672
 51
100.1590834596787971
  0
LINE
  5
10616
  8
0
 10
4219.5365582422446096
 20
222.4082334611026113
 30
0.0
 11
4219.4681932730109111
 21
222.4082334611026113
 31
0.0
  0
LINE
  5
10617
  8
0
 10
4219.694191579938888
 20
222.446729453763993
 30
0.0
 11
4219.709928064568885
 21
222.5314370239885875
 31
0.0
  0
ARC
  5
10618
  8
0
 10
4219.7662092542759638
 20
229.231464625798111
 30
0.0
 40
6.7020492971298262
 50
270.22649215101859
 51
271.1229388015598829
  0
ARC
  5
10619
  8
0
 10
4219.6049242125191086
 20
223.416159113956212
 30
0.0
 40
0.9322774018103082
 50
277.588528741863513
 51
288.2320208030263871
  0
ARC
  5
1061A
  8
0
 10
4219.6248103750040173
 20
222.7450058631812055
 30
0.0
 40
0.2732114676685441
 50
286.1606195011257796
 51
307.9166060025847855
  0
ARC
  5
1061B
  8
0
 10
4219.6406840511517657
 20
222.6554938015044911
 30
0.0
 40
0.1798875694543451
 50
289.7684513443452943
 51
315.710141241520887
  0
ARC
  5
1061C
  8
0
 10
4219.6510622406158291
 20
222.5924620560566041
 30
0.0
 40
0.0909487918357526
 50
310.0758731215764783
 51
317.6347113039512919
  0
ARC
  5
1061D
  8
0
 10
4219.3771995418519509
 20
221.6170882484306048
 30
0.0
 40
0.9071145731846524
 50
82.6330396926108648
 51
90.082122173995657
  0
ARC
  5
1061E
  8
0
 10
4219.4210185289830406
 20
221.9560058128332116
 30
0.0
 40
0.5653760487338677
 50
69.9623506164514026
 51
82.6330396926108648
  0
ARC
  5
1061F
  8
0
 10
4219.5674862802306961
 20
222.3576013733203069
 30
0.0
 40
0.1379046504408649
 50
46.7939179219453223
 51
69.9623506164514026
  0
ARC
  5
10620
  8
0
 10
4219.6366644506579178
 20
222.4312529734862949
 30
0.0
 40
0.0368592276322016
 50
338.6050308853521074
 51
46.7939179219453223
  0
ARC
  5
10621
  8
0
 10
4219.5489609137921434
 20
222.5196847817192065
 30
0.0
 40
0.1589611394614255
 50
288.7920465964214145
 51
320.1411886303703227
  0
ENDSEC
  0
EOF
