  0
SECTION
  2
HEADER
  9
$ACADVER
  1
AC1009
  9
$INSBASE
 10
800.1704910288826795
 20
89.2206966690098398
 30
0.0
  9
$EXTMIN
 10
795.9133262000849527
 20
81.0841039833527475
 30
-0.0000000000000058
  9
$EXTMAX
 10
807.6210139411355158
 20
113.4325904145054977
 30
0.0000000000000104
  9
$LIMMIN
 10
0.0
 20
0.0
  9
$LIMMAX
 10
11.6929133858000007
 20
8.2677165353999982
  9
$ORTHOMODE
 70
     0
  9
$REGENMODE
 70
     1
  9
$FILLMODE
 70
     1
  9
$QTEXTMODE
 70
     0
  9
$MIRRTEXT
 70
     0
  9
$DRAGMODE
 70
     2
  9
$LTSCALE
 40
0.6431102362
  9
$OSMODE
 70
  4095
  9
$ATTMODE
 70
     1
  9
$TEXTSIZE
 40
0.2
  9
$TRACEWID
 40
0.05
  9
$TEXTSTYLE
  7
STANDARD
  9
$CLAYER
  8
0
  9
$CELTYPE
  6
BYLAYER
  9
$CECOLOR
 62
   256
  9
$DIMSCALE
 40
1.0
  9
$DIMASZ
 40
0.1875
  9
$DIMEXO
 40
0.0625
  9
$DIMDLI
 40
0.4443307087
  9
$DIMRND
 40
0.0
  9
$DIMDLE
 40
0.0
  9
$DIMEXE
 40
0.125
  9
$DIMTP
 40
0.01
  9
$DIMTM
 40
0.01
  9
$DIMTXT
 40
1.0
  9
$DIMCEN
 40
0.1052362205
  9
$DIMTSZ
 40
0.0
  9
$DIMTOL
 70
     1
  9
$DIMLIM
 70
     0
  9
$DIMTIH
 70
     0
  9
$DIMTOH
 70
     1
  9
$DIMSE1
 70
     0
  9
$DIMSE2
 70
     0
  9
$DIMTAD
 70
     0
  9
$DIMZIN
 70
     0
  9
$DIMBLK
  1

  9
$DIMASO
 70
     1
  9
$DIMSHO
 70
     1
  9
$DIMPOST
  1
\X
  9
$DIMAPOST
  1

  9
$DIMALT
 70
     1
  9
$DIMALTD
 70
     2
  9
$DIMALTF
 40
25.3999999999999986
  9
$DIMLFAC
 40
1.0
  9
$DIMTOFL
 70
     0
  9
$DIMTVP
 40
0.0
  9
$DIMTIX
 70
     0
  9
$DIMSOXD
 70
     0
  9
$DIMSAH
 70
     0
  9
$DIMBLK1
  1

  9
$DIMBLK2
  1

  9
$DIMSTYLE
  2
STANDARD
  9
$DIMCLRD
 70
     0
  9
$DIMCLRE
 70
     0
  9
$DIMCLRT
 70
     0
  9
$DIMTFAC
 40
1.0
  9
$DIMGAP
 40
0.09
  9
$LUNITS
 70
     2
  9
$LUPREC
 70
     4
  9
$SKETCHINC
 40
0.1
  9
$FILLETRAD
 40
0.02
  9
$AUNITS
 70
     0
  9
$AUPREC
 70
     0
  9
$MENU
  1
.
  9
$ELEVATION
 40
0.0
  9
$PELEVATION
 40
0.0
  9
$THICKNESS
 40
0.0
  9
$LIMCHECK
 70
     0
  9
$BLIPMODE
 70
     0
  9
$CHAMFERA
 40
0.0
  9
$CHAMFERB
 40
0.0
  9
$SKPOLY
 70
     0
  9
$TDCREATE
 40
2458172.5207638889551163
  9
$TDUPDATE
 40
2459145.773136573843658
  9
$TDINDWG
 40
0.3859613657
  9
$TDUSRTIMER
 40
0.3859613657
  9
$USRTIMER
 70
     1
  9
$ANGBASE
 50
0.0
  9
$ANGDIR
 70
     0
  9
$PDMODE
 70
     0
  9
$PDSIZE
 40
0.3125
  9
$PLINEWID
 40
0.0
  9
$COORDS
 70
     1
  9
$SPLFRAME
 70
     0
  9
$SPLINETYPE
 70
     6
  9
$SPLINESEGS
 70
     8
  9
$ATTDIA
 70
     1
  9
$ATTREQ
 70
     1
  9
$HANDLING
 70
     1
  9
$HANDSEED
  5
F580
  9
$SURFTAB1
 70
     6
  9
$SURFTAB2
 70
     6
  9
$SURFTYPE
 70
     6
  9
$SURFU
 70
     6
  9
$SURFV
 70
     6
  9
$UCSNAME
  2

  9
$UCSORG
 10
0.0
 20
0.0
 30
0.0
  9
$UCSXDIR
 10
1.0
 20
0.0
 30
0.0
  9
$UCSYDIR
 10
0.0
 20
1.0
 30
0.0
  9
$PUCSNAME
  2

  9
$PUCSORG
 10
0.0
 20
0.0
 30
0.0
  9
$PUCSXDIR
 10
1.0
 20
0.0
 30
0.0
  9
$PUCSYDIR
 10
0.0
 20
1.0
 30
0.0
  9
$USERI1
 70
     0
  9
$USERI2
 70
     0
  9
$USERI3
 70
     0
  9
$USERI4
 70
     0
  9
$USERI5
 70
     0
  9
$USERR1
 40
0.0
  9
$USERR2
 40
0.0
  9
$USERR3
 40
0.0
  9
$USERR4
 40
0.0
  9
$USERR5
 40
0.0
  9
$WORLDVIEW
 70
     1
  9
$SHADEDGE
 70
     3
  9
$SHADEDIF
 70
    70
  9
$TILEMODE
 70
     1
  9
$MAXACTVP
 70
    64
  9
$PLIMCHECK
 70
     0
  9
$PEXTMIN
 10
1.0000000000000000E+20
 20
1.0000000000000000E+20
 30
1.0000000000000000E+20
  9
$PEXTMAX
 10
-1.0000000000000000E+20
 20
-1.0000000000000000E+20
 30
-1.0000000000000000E+20
  9
$PLIMMIN
 10
0.0
 20
0.0
  9
$PLIMMAX
 10
12.0
 20
9.0
  9
$UNITMODE
 70
     0
  9
$VISRETAIN
 70
     1
  9
$PLINEGEN
 70
     0
  9
$PSLTSCALE
 70
     1
  0
ENDSEC
  0
SECTION
  2
TABLES
  0
TABLE
  2
VPORT
 70
     1
  0
VPORT
  2
*ACTIVE
 70
     0
 10
0.0
 20
0.0
 11
1.0
 21
1.0
 12
335.0249683627802142
 22
8.1252000789993684
 13
0.0
 23
0.0
 14
1.0
 24
1.0
 15
0.0
 25
0.0
 16
0.0
 26
0.0
 36
24.1179433675886514
 17
466.74220170783002
 27
89.133147119929788
 37
0.0
 40
32.7305551685286389
 41
2.6055226824457591
 42
50.0
 43
0.0
 44
0.0
 50
0.0
 51
0.0
 71
     0
 72
   100
 73
     1
 74
     1
 75
     0
 76
     0
 77
     0
 78
     0
  0
ENDTAB
  0
TABLE
  2
LTYPE
 70
     2
  0
LTYPE
  2
CONTINUOUS
 70
     0
  3
Solid line
 72
    65
 73
     0
 40
0.0
  0
LTYPE
  2
PHANTOM2
 70
     0
  3
___ _ _ ___ _ _ ___ _ _ ___ _ _
 72
    65
 73
     6
 40
1.25
 49
0.625
 49
-0.125
 49
0.125
 49
-0.125
 49
0.125
 49
-0.125
  0
ENDTAB
  0
TABLE
  2
LAYER
 70
     2
  0
LAYER
  2
0
 70
     0
 62
   255
  6
CONTINUOUS
  0
LAYER
  2
DEFPOINTS
 70
     0
 62
     7
  6
CONTINUOUS
  0
ENDTAB
  0
TABLE
  2
STYLE
 70
     1
  0
STYLE
  2
STANDARD
 70
     0
 40
0.0
 41
0.8
 50
0.0
 71
     0
 42
0.2
  3
txt
  4

  0
ENDTAB
  0
TABLE
  2
VIEW
 70
     0
  0
ENDTAB
  0
TABLE
  2
UCS
 70
     0
  0
ENDTAB
  0
TABLE
  2
APPID
 70
    11
  0
APPID
  2
ACAD
 70
     0
  0
APPID
  2
ACAD_MLEADERVER
 70
     0
  0
APPID
  2
ACAD_EXEMPT_FROM_CAD_STANDARDS
 70
     0
  0
APPID
  2
ACAD_DSTYLE_DIMJAG
 70
     0
  0
APPID
  2
ACAD_DSTYLE_DIMTALN
 70
     0
  0
APPID
  2
ACAD_NAV_VCDISPLAY
 70
     0
  0
APPID
  2
ACAECLAYERSTANDARD
 70
     0
  0
APPID
  2
ACCMTRANSPARENCY
 70
     0
  0
APPID
  2
DCO15
 70
     0
  0
APPID
  2
ACDBATTR
 70
     0
  0
APPID
  2
ACADANNOTATIVE
 70
     0
  0
ENDTAB
  0
TABLE
  2
DIMSTYLE
 70
     1
  0
DIMSTYLE
  2
STANDARD
 70
     0
  3

  4

  5

  6

  7

 40
1.0
 41
0.1875
 42
0.0625
 43
0.38
 44
0.125
 45
0.0
 46
0.0
 47
0.01
 48
0.01
140
0.15625
141
0.09
142
0.0
143
25.3999999999999986
144
1.0
145
0.0
146
1.0
147
0.09
 71
     1
 72
     0
 73
     1
 74
     1
 75
     0
 76
     0
 77
     0
 78
     4
170
     0
171
     2
172
     0
173
     0
174
     0
175
     0
176
     0
177
     0
178
     0
  0
ENDTAB
  0
ENDSEC
  0
SECTION
  2
BLOCKS
  0
BLOCK
  8
0
  2
$MODEL_SPACE
 70
     0
 10
0.0
 20
0.0
 30
0.0
  3
$MODEL_SPACE
  1

  0
ENDBLK
  5
21
  8
0
  0
BLOCK
 67
     1
  8
0
  2
$PAPER_SPACE
 70
     0
 10
0.0
 20
0.0
 30
0.0
  3
$PAPER_SPACE
  1

  0
ENDBLK
  5
1D
 67
     1
  8
0
  0
ENDSEC
  0
SECTION
  2
ENTITIES
  0
ATTDEF
  5
829
  8
DEFPOINTS
 10
800.1676888528216978
 20
89.225071638182655
 30
0.0
 40
0.001
  1
K-74035T-4
  3

  2
MODELNUMBER
 70
     0
1001
ACDBATTR
1070
     0
1070
     1
  0
ATTDEF
  5
82A
  8
DEFPOINTS
 10
800.1676888528216978
 20
89.223404971516004
 30
0.0
 40
0.001
  1
TAUT
  3

  2
TRADENAME
 70
     0
1001
ACDBATTR
1070
     0
1070
     1
  0
ATTDEF
  5
82B
  8
DEFPOINTS
 10
800.1676888528216978
 20
89.2217383048493389
 30
0.0
 40
0.001
  1
BATH AND SHOWER FAUCET
  3

  2
PRODUCT
 70
     0
1001
ACDBATTR
1070
     0
1070
     1
  0
ARC
  5
F01B
  8
0
 10
800.2141154403493601
 20
110.8701783355646029
 30
0.0
 40
2.557424287002958
 50
90.9774152244219039
 51
112.7132240117476982
  0
ARC
  5
F01C
  8
0
 10
799.8703887247755802
 20
111.7749225698073019
 30
0.0
 40
1.5904518555536811
 50
113.8757727234836068
 51
137.2820960969210091
  0
ARC
  5
F01D
  8
0
 10
799.4904695788821982
 20
112.125721738310304
 30
0.0
 40
1.0733458567114511
 50
137.2820960969210091
 51
153.0049225282853058
  0
ARC
  5
F01E
  8
0
 10
799.3927422791150548
 20
112.1642307566316958
 30
0.0
 40
0.9688386936405118
 50
152.4107760107337981
 51
176.5452908301199102
  0
LINE
  5
F01F
  8
0
 10
798.4256642135345601
 20
112.2226125120729989
 30
0.0
 11
798.4047446068833551
 21
111.7607014524145939
 31
0.0
  0
ARC
  5
F020
  8
0
 10
800.2200734656286158
 20
110.5678509465387975
 30
0.0
 40
2.4703722938549979
 50
91.1500714629520985
 51
117.6429632345485032
  0
ARC
  5
F021
  8
0
 10
799.7492621965736816
 20
111.4981173742750968
 30
0.0
 40
1.4279264555089239
 50
118.2262267642031048
 51
147.4041032097183006
  0
ARC
  5
F022
  8
0
 10
799.5704098284467136
 20
111.7082329144241015
 30
0.0
 40
1.166845472306159
 50
151.3684557393171985
 51
177.4227608939702066
  0
ARC
  5
F023
  8
0
 10
799.3880804119161212
 20
111.7875398000778944
 30
0.0
 40
0.9837019885944952
 50
181.5633951162498931
 51
200.7697246752944977
  0
ARC
  5
F024
  8
0
 10
799.8187159746837551
 20
112.0661488684028058
 30
0.0
 40
1.4890570866221979
 50
204.9210498355583923
 51
253.3119827899639915
  0
ARC
  5
F025
  8
0
 10
799.2544911713822557
 20
110.2208987456947966
 30
0.0
 40
0.4406257594706916
 50
43.6876632594783274
 51
71.9362705329563994
  0
ARC
  5
F026
  8
0
 10
799.3681626693661428
 20
110.3404163702572021
 30
0.0
 40
0.2759874276570863
 50
357.7132840411687198
 51
42.0454759944664289
  0
LINE
  5
F027
  8
0
 10
799.6439303207347393
 20
110.3294044365730002
 30
0.0
 11
799.5514187096847536
 21
106.1083692356731945
 31
0.0
  0
ARC
  5
F028
  8
0
 10
800.1736011440535776
 20
110.6503650467233939
 30
0.0
 40
2.285667390889063
 50
90.0779842526056456
 51
113.038336228616501
  0
ARC
  5
F029
  8
0
 10
799.9080979839014844
 20
111.2858503214428936
 30
0.0
 40
1.596968503030195
 50
113.1950414922776957
 51
135.7035280129744024
  0
ARC
  5
F02A
  8
0
 10
799.4749390926141359
 20
111.7085003098656983
 30
0.0
 40
0.9917746185476261
 50
135.7035280129744024
 51
173.8758502294269022
  0
ARC
  5
F02B
  8
0
 10
799.3720754865106528
 20
111.750720447465298
 30
0.0
 40
0.8855368335176647
 50
175.8823622253806889
 51
210.5649504624740018
  0
ARC
  5
F02C
  8
0
 10
799.7145558125752132
 20
111.9628421886402947
 30
0.0
 40
1.288325662252813
 50
210.942609932031786
 51
237.962119309908303
  0
ARC
  5
F02D
  8
0
 10
800.2119187201673185
 20
112.8248479152530024
 30
0.0
 40
2.283165352260855
 50
238.8571229449509019
 51
268.7005751567871812
  0
ARC
  5
F02E
  8
0
 10
800.4705916038901705
 20
111.7749225698073019
 30
0.0
 40
1.5904518555536811
 50
42.7179039030789767
 51
66.1242272765163364
  0
ARC
  5
F02F
  8
0
 10
800.8505107497834388
 20
112.125721738310304
 30
0.0
 40
1.0733458567114511
 50
26.9950774717146693
 51
42.7179039030789767
  0
ARC
  5
F030
  8
0
 10
800.9482380495506959
 20
112.1642307566316958
 30
0.0
 40
0.9688386936405118
 50
3.4547091698801169
 51
27.5892239892661912
  0
LINE
  5
F031
  8
0
 10
801.9153161151309632
 20
112.2226125120729989
 30
0.0
 11
801.9362357217826229
 21
111.7607014524145939
 31
0.0
  0
ARC
  5
F032
  8
0
 10
800.1209068630371348
 20
110.567850946538897
 30
0.0
 40
2.4703722938549881
 50
62.3570367654514328
 51
88.8499285370413787
  0
ARC
  5
F033
  8
0
 10
800.591718132092069
 20
111.4981173742750968
 30
0.0
 40
1.4279264555089239
 50
32.5958967902816426
 51
61.7737732357968312
  0
ARC
  5
F034
  8
0
 10
800.7705705002191507
 20
111.7082329144241015
 30
0.0
 40
1.166845472306159
 50
2.5772391060297761
 51
28.6315442606828405
  0
ARC
  5
F035
  8
0
 10
800.9528999167496295
 20
111.7875398000778944
 30
0.0
 40
0.9837019885944952
 50
339.230275324705417
 51
358.4366048837500216
  0
ARC
  5
F036
  8
0
 10
800.5222643539817682
 20
112.0661488684028058
 30
0.0
 40
1.4890570866221979
 50
286.68801721003598
 51
335.0789501644416077
  0
ARC
  5
F037
  8
0
 10
801.0864891572832676
 20
110.2208987456947966
 30
0.0
 40
0.4406257594706916
 50
108.0637294670436006
 51
136.3123367405216015
  0
ARC
  5
F038
  8
0
 10
800.9728176592997215
 20
110.3404163702572021
 30
0.0
 40
0.2759874276570863
 50
137.9545240055336137
 51
182.2867159588313086
  0
LINE
  5
F039
  8
0
 10
800.6970500079312387
 20
110.3294044365730002
 30
0.0
 11
800.7895616189811108
 21
106.1083692356729955
 31
0.0
  0
ARC
  5
F03A
  8
0
 10
800.1673791846120594
 20
110.6503650467233939
 30
0.0
 40
2.285667390889067
 50
66.961663771383499
 51
89.9220157473943402
  0
ARC
  5
F03B
  8
0
 10
800.4328823447642662
 20
111.2858503214428936
 30
0.0
 40
1.596968503030195
 50
44.2964719870256189
 51
66.8049585077223043
  0
ARC
  5
F03C
  8
0
 10
800.8660412360518421
 20
111.7085003098656983
 30
0.0
 40
0.9917746185476261
 50
6.1241497705731369
 51
44.2964719870256189
  0
ARC
  5
F03D
  8
0
 10
800.9689048421548705
 20
111.750720447465298
 30
0.0
 40
0.8855368335176647
 50
329.4350495375260834
 51
4.1176377746192658
  0
ARC
  5
F03E
  8
0
 10
800.6264245160904238
 20
111.9628421886402947
 30
0.0
 40
1.288325662252813
 50
302.037880690091697
 51
329.0573900679680719
  0
ARC
  5
F03F
  8
0
 10
800.1310907183587915
 20
112.8203556686821969
 30
0.0
 40
2.2782711996401739
 50
270.7306421759158752
 51
301.1576292848488947
  0
ARC
  5
F040
  8
0
 10
800.1268648883160495
 20
110.8701783355646029
 30
0.0
 40
2.5574242870029469
 50
67.2867759882522734
 51
89.0225847755781103
  0
LINE
  5
F041
  8
0
 10
799.8161603201828029
 20
105.6279265488567063
 30
0.0
 11
799.8161603201828029
 21
104.3877501194566975
 31
0.0
  0
LINE
  5
F042
  8
0
 10
799.8161603201828029
 20
104.3877481102565952
 30
0.0
 11
799.7765562584828558
 21
104.2879799400567009
 31
0.0
  0
LINE
  5
F043
  8
0
 10
799.7765562584828558
 20
104.2879799400567009
 30
0.0
 11
799.8571520575826526
 21
104.2481545644566978
 31
0.0
  0
LINE
  5
F044
  8
0
 10
799.6074989028827531
 20
104.2481545644566978
 30
0.0
 11
799.857152296282834
 21
104.2481546368565972
 31
0.0
  0
LINE
  5
F045
  8
0
 10
799.857152296282834
 20
104.2481546368565972
 30
0.0
 11
799.9140720042421435
 21
104.2492369063672015
 31
0.0
  0
ARC
  5
F046
  8
0
 10
799.6389949664845744
 20
105.6969734618074028
 30
0.0
 40
0.0196850400017841
 50
89.9891501214650162
 51
179.9999992744712074
  0
LINE
  5
F047
  8
0
 10
799.6193099264827424
 20
105.6969734620567039
 30
0.0
 11
799.6193099266828312
 21
105.670076637656706
 31
0.0
  0
LINE
  5
F048
  8
0
 10
799.6193099266828312
 20
105.670076637656706
 30
0.0
 11
799.7360368334556142
 21
105.4187963990566033
 31
0.0
  0
LINE
  5
F049
  8
0
 10
799.7360368334556142
 20
105.4187963990566033
 30
0.0
 11
799.7385041400827959
 21
105.4096714786567048
 31
0.0
  0
LINE
  5
F04A
  8
0
 10
799.7385041400827959
 20
105.4096714786567048
 30
0.0
 11
799.7660948891827957
 21
105.4054220730565987
 31
0.0
  0
LINE
  5
F04B
  8
0
 10
799.7660948891827957
 20
105.4054220730565987
 30
0.0
 11
799.8161603201828029
 21
105.4054220163565958
 31
0.0
  0
LINE
  5
F04C
  8
0
 10
799.6193099264827424
 20
105.6969734620758032
 30
0.0
 11
799.6389949664845744
 21
105.6969734618074028
 31
0.0
  0
LINE
  5
F04D
  8
0
 10
799.680154050582928
 20
105.6658334981567009
 30
0.0
 11
799.7286874593900166
 21
105.6078314112706948
 31
0.0
  0
LINE
  5
F04E
  8
0
 10
799.7286874593900166
 20
105.6078314112706948
 30
0.0
 11
799.7360353393827381
 21
105.5840874269566001
 31
0.0
  0
LINE
  5
F04F
  8
0
 10
799.7360353393827381
 20
105.5840874269566001
 30
0.0
 11
799.7360352120828111
 21
105.4187998894166043
 31
0.0
  0
LINE
  5
F050
  8
0
 10
799.7360353393827381
 20
105.5840874269566001
 30
0.0
 11
799.8161603201828029
 21
105.5840874269566001
 31
0.0
  0
LINE
  5
F051
  8
0
 10
799.6389986941638881
 20
105.7166585014566067
 30
0.0
 11
800.7019833635984014
 21
105.7166585014566067
 31
0.0
  0
LINE
  5
F052
  8
0
 10
799.8161603201828029
 20
105.6279265488567063
 30
0.0
 11
799.773882701882826
 21
105.6748046770565992
 31
0.0
  0
ARC
  5
F053
  8
0
 10
799.7043376497289273
 20
105.6551438527497027
 30
0.0
 40
0.0615192673186571
 50
64.0524030531692858
 51
89.2979137070897195
  0
ARC
  5
F054
  8
0
 10
799.6653456324194167
 20
105.5883589305191066
 30
0.0
 40
0.1387557657978569
 50
38.5360203133005967
 51
61.6403132395526825
  0
ARC
  5
F055
  8
0
 10
799.607498903111491
 20
105.6497293671045981
 30
0.0
 40
0.0393700792520992
 50
90.0000003328083551
 51
180.0073440146175869
  0
LINE
  5
F056
  8
0
 10
799.5681288241828497
 20
105.649729367656704
 30
0.0
 11
799.5681288241828497
 21
104.2875259591566959
 31
0.0
  0
ARC
  5
F057
  8
0
 10
799.5720658320827852
 20
105.2717766117567066
 30
0.0
 40
0.0118110236
 50
109.4712208060064995
 51
180.0
  0
LINE
  5
F058
  8
0
 10
799.5602548084827959
 20
105.2717766117567066
 30
0.0
 11
799.560254808581135
 21
104.6654758765427999
 31
0.0
  0
ARC
  5
F059
  8
0
 10
799.5720658320827852
 20
104.6654773991566998
 30
0.0
 40
0.0118110235999999
 50
180.0073862646756027
 51
250.5287791939935005
  0
LINE
  5
F05A
  8
0
 10
799.5602548085050785
 20
105.1337309077645017
 30
0.0
 11
799.5591415672828361
 21
105.1300197607566957
 31
0.0
  0
LINE
  5
F05B
  8
0
 10
799.5591415672828361
 20
105.1300197607566957
 30
0.0
 11
799.5589729167828636
 21
105.1261073203565957
 31
0.0
  0
ARC
  5
F05C
  8
0
 10
818.2957382677808482
 20
104.9686270054065034
 30
0.0
 40
18.73742714109801
 50
179.5184470330783881
 51
180.4815529669214982
  0
LINE
  5
F05D
  8
0
 10
799.5589729167828636
 20
104.8111466904565958
 30
0.0
 11
799.5591415672828361
 21
104.8072342500565952
 31
0.0
  0
LINE
  5
F05E
  8
0
 10
799.5591415672828361
 20
104.8072342500565952
 30
0.0
 11
799.560254808558625
 21
104.8035231341706037
 31
0.0
  0
LINE
  5
F05F
  8
0
 10
799.5806469553826901
 20
105.7295999853566997
 30
0.0
 11
799.7264318830706316
 21
105.7739452098446975
 31
0.0
  0
ARC
  5
F060
  8
0
 10
799.60995309362022
 20
105.6775936873842028
 30
0.0
 40
0.0596950983514931
 50
119.4017521247613018
 51
145.1534641719815966
  0
ARC
  5
F061
  8
0
 10
799.2848341154018499
 20
105.5960845415209945
 30
0.0
 40
0.0744996133958579
 50
201.687678372660713
 51
244.670059000226189
  0
ARC
  5
F062
  8
0
 10
799.315811266604328
 20
105.6232300865448934
 30
0.0
 40
0.1134775111013179
 50
236.3679606656494911
 51
257.2368483027970001
  0
ARC
  5
F063
  8
0
 10
799.2390236356822015
 20
105.2156306269499026
 30
0.0
 40
0.3013962188471827
 50
70.6811651660484728
 51
80.1194416626109529
  0
ARC
  5
F064
  8
0
 10
799.2340438282341211
 20
104.8525590128020042
 30
0.0
 40
0.6559055042984334
 50
74.3546803978171198
 51
80.8157380393400047
  0
ARC
  5
F065
  8
0
 10
809.1434352634771585
 20
105.3819914240877011
 30
0.0
 40
9.588143684312282
 50
178.029361380118587
 51
178.9740075268117891
  0
ARC
  5
F066
  8
0
 10
862.2132899272077111
 20
105.1040094934887037
 30
0.0
 40
62.6580746721808097
 50
179.5888119732850043
 51
179.9797930789019063
  0
ARC
  5
F067
  8
0
 10
937.0118241196536246
 20
104.9665133177844041
 30
0.0
 40
137.456697616458797
 50
179.9334766546496098
 51
180.1311466711937896
  0
ARC
  5
F068
  8
0
 10
852.9445944310599543
 20
104.7474658483621965
 30
0.0
 40
53.3891934035807978
 50
180.1025765637160134
 51
180.418312223237109
  0
ARC
  5
F069
  8
0
 10
790.8568957562951027
 20
104.0743182915104939
 30
0.0
 40
8.7045415454796462
 50
0.7068489012731567
 51
1.8654892918725421
  0
ARC
  5
F06A
  8
0
 10
799.6562786840507897
 20
104.1932746886356966
 30
0.0
 40
0.0962038298839697
 50
186.9162303371851976
 51
218.3353893516321875
  0
ARC
  5
F06B
  8
0
 10
799.6110881038119942
 20
104.2430707123474036
 30
0.0
 40
0.1109996523032904
 50
279.5293917063357867
 51
333.3825280929445967
  0
ARC
  5
F06C
  8
0
 10
799.6201928866390745
 20
104.2301947291024931
 30
0.0
 40
0.1019136797567662
 50
356.311799462782119
 51
10.1500088964207702
  0
LINE
  5
F06D
  8
0
 10
799.5808173294830112
 20
104.1336025915565955
 30
0.0
 11
799.6294630462829218
 21
104.1336026145566933
 31
0.0
  0
ARC
  5
F06E
  8
0
 10
799.6074989028983282
 20
104.2875246431942031
 30
0.0
 40
0.0393700787375429
 50
179.9980848629932098
 51
269.9999999773646095
  0
LINE
  5
F06F
  8
0
 10
799.7103242944407384
 20
104.1933408214228933
 30
0.0
 11
799.7218950980353611
 21
104.2236354559796041
 31
0.0
  0
ARC
  5
F070
  8
0
 10
799.1751152373271907
 20
105.5621562213901967
 30
0.0
 40
0.0409951514295264
 50
8.9775887649197426
 51
33.1625044217785998
  0
ARC
  5
F071
  8
0
 10
799.2693832798669291
 20
105.5870237939152929
 30
0.0
 40
0.0599998195001954
 50
128.3051135627233066
 51
182.3331523236427927
  0
ARC
  5
F072
  8
0
 10
800.0343538768922826
 20
104.5885914967302028
 30
0.0
 40
1.317788090461804
 50
103.5129886485633932
 51
127.4968690513988037
  0
ARC
  5
F073
  8
0
 10
805.9971686392183301
 20
105.7978919712531933
 30
0.0
 40
6.7910863548091527
 50
181.7999796471424929
 51
189.1197979812384915
  0
ARC
  5
F074
  8
0
 10
800.1324701226740217
 20
104.3767680563865952
 30
0.0
 40
0.6962182446543973
 50
220.6811183057293135
 51
250.1270819063387876
  0
ARC
  5
F075
  8
0
 10
802.1053297889949363
 20
105.196611661545802
 30
0.0
 40
2.8532354920666392
 50
189.5851588388869118
 51
196.3025610061654902
  0
ARC
  5
F076
  8
0
 10
800.5971848460734464
 20
104.7181498933396995
 30
0.0
 40
1.271926085939286
 50
194.6863786781848944
 51
218.6970118701734975
  0
ARC
  5
F077
  8
0
 10
797.9868286554113865
 20
105.3460276847936967
 30
0.0
 40
1.4307843811575891
 50
358.9547157588455093
 51
5.5402493054563751
  0
ARC
  5
F078
  8
0
 10
831.372518004022254
 20
106.2907792350835052
 30
0.0
 40
31.9698877626614291
 50
181.7402101489533948
 51
183.4260008025038928
  0
ARC
  5
F079
  8
0
 10
799.536280075223317
 20
104.3235055250119956
 30
0.0
 40
0.095276210315543
 50
143.4244410983174021
 51
187.9398970684223968
  0
ARC
  5
F07A
  8
0
 10
799.8490837699372378
 20
104.3387688561094961
 30
0.0
 40
0.4081574812696648
 50
183.9933315166703096
 51
199.8507360733588882
  0
ARC
  5
F07B
  8
0
 10
800.0663595314071017
 20
104.3870116761736995
 30
0.0
 40
0.6295457820787523
 50
197.2647474679826871
 51
208.1787548947401092
  0
ARC
  5
F07C
  8
0
 10
800.1762336399915512
 20
104.4176977903916992
 30
0.0
 40
0.7413043362840012
 50
206.2588063861994101
 51
247.7989259792329904
  0
ARC
  5
F07D
  8
0
 10
799.470189697525484
 20
105.461835339983196
 30
0.0
 40
0.0633269777288581
 50
117.2029209729691956
 51
159.3552367564074075
  0
ARC
  5
F07E
  8
0
 10
799.5366571376156344
 20
105.5263576664220011
 30
0.0
 40
0.0205595808030108
 50
67.8129745089743494
 51
107.3205196701673998
  0
ARC
  5
F07F
  8
0
 10
799.536940901745993
 20
105.5271329279103014
 30
0.0
 40
0.0197345873451613
 50
2.8766427672012842
 51
67.7258249126107472
  0
LINE
  5
F080
  8
0
 10
799.4412401958827559
 20
105.5181579150567046
 30
0.0
 11
799.5304395962431272
 21
105.5459545501835947
 31
0.0
  0
ARC
  5
F081
  8
0
 10
799.7373506158411374
 20
106.0258972948777938
 30
0.0
 40
0.087083803969184
 50
187.6979728908169136
 51
262.7971894680721903
  0
ARC
  5
F082
  8
0
 10
799.6310306201336289
 20
105.7963917380054966
 30
0.0
 40
0.2236120985739909
 50
67.8995625192599022
 51
81.8386493020086903
  0
ARC
  5
F083
  8
0
 10
799.6541908391660627
 20
106.0138978076128069
 30
0.0
 40
0.0031569952733939
 50
111.2171689329775006
 51
173.9175470571142057
  0
ARC
  5
F084
  8
0
 10
799.6598976352114505
 20
105.9957864231461997
 30
0.0
 40
0.0221404684229184
 50
82.5330832261520158
 51
108.0205285515612985
  0
ARC
  5
F085
  8
0
 10
800.1704910288826795
 20
107.4512594905003056
 30
0.0
 40
1.517602998300043
 50
252.5404326430854951
 51
258.3148684186169817
  0
ARC
  5
F086
  8
0
 10
800.1704910288826795
 20
107.4512594905002061
 30
0.0
 40
1.517602998299967
 50
258.3148684186169817
 51
269.9999999904964056
  0
ARC
  5
F087
  8
0
 10
799.785556205908847
 20
106.1313772063389962
 30
0.0
 40
0.2352652414878349
 50
185.6122613551166012
 51
201.0034383883572957
  0
ARC
  5
F088
  8
0
 10
799.7139501662962857
 20
106.1029215418093941
 30
0.0
 40
0.1582201503461194
 50
200.6776244604417059
 51
222.9121563675205948
  0
ARC
  5
F089
  8
0
 10
799.7295504833775794
 20
106.1412608457417974
 30
0.0
 40
0.1965270548354505
 50
228.0085347382029966
 51
261.5945208342948831
  0
ARC
  5
F08A
  8
0
 10
800.1657891209044919
 20
114.7183158548485977
 30
0.0
 40
8.7898026235716635
 50
267.1348833588966158
 51
272.8635300556474022
  0
LINE
  5
F08B
  8
0
 10
800.5248217375826698
 20
105.6279265488567063
 30
0.0
 11
800.5248217375826698
 21
104.3877501194566975
 31
0.0
  0
LINE
  5
F08C
  8
0
 10
800.5248217375826698
 20
104.3877481102565952
 30
0.0
 11
800.5644257992828443
 21
104.2879799400567009
 31
0.0
  0
LINE
  5
F08D
  8
0
 10
800.5644257992828443
 20
104.2879799400567009
 30
0.0
 11
800.4838300001829339
 21
104.2481545644566978
 31
0.0
  0
LINE
  5
F08E
  8
0
 10
800.733483154882947
 20
104.2481545644566978
 30
0.0
 11
800.4838297614827525
 21
104.2481546368565972
 31
0.0
  0
LINE
  5
F08F
  8
0
 10
800.4838297614827525
 20
104.2481546368565972
 30
0.0
 11
800.4129033427360582
 21
104.2495032295191066
 31
0.0
  0
ARC
  5
F090
  8
0
 10
800.7019870912808983
 20
105.6969734618074028
 30
0.0
 40
0.0196850400017841
 50
0.0000007255287962
 51
90.0108498875891314
  0
LINE
  5
F091
  8
0
 10
800.7216721312827303
 20
105.6969734620567039
 30
0.0
 11
800.7216721310827552
 21
105.670076637656706
 31
0.0
  0
LINE
  5
F092
  8
0
 10
800.7216721310827552
 20
105.670076637656706
 30
0.0
 11
800.6049452243101996
 21
105.4187963990566033
 31
0.0
  0
LINE
  5
F093
  8
0
 10
800.6049452243101996
 20
105.4187963990566033
 30
0.0
 11
800.6024779176829043
 21
105.4096714786567048
 31
0.0
  0
LINE
  5
F094
  8
0
 10
800.6024779176829043
 20
105.4096714786567048
 30
0.0
 11
800.5748871685829045
 21
105.4054220730565987
 31
0.0
  0
LINE
  5
F095
  8
0
 10
800.5748871685829045
 20
105.4054220730565987
 30
0.0
 11
800.5248217375826698
 21
105.4054220163565958
 31
0.0
  0
LINE
  5
F096
  8
0
 10
800.7216721312827303
 20
105.6969734620758032
 30
0.0
 11
800.7019870912808983
 21
105.6969734618074028
 31
0.0
  0
LINE
  5
F097
  8
0
 10
800.6608280071827721
 20
105.6658334981567009
 30
0.0
 11
800.6122945983755699
 21
105.6078314112706948
 31
0.0
  0
LINE
  5
F098
  8
0
 10
800.6122945983755699
 20
105.6078314112706948
 30
0.0
 11
800.6049467183828483
 21
105.5840874269566001
 31
0.0
  0
LINE
  5
F099
  8
0
 10
800.6049467183828483
 20
105.5840874269566001
 30
0.0
 11
800.604946845682889
 21
105.4187998894166043
 31
0.0
  0
LINE
  5
F09A
  8
0
 10
800.6049467183828483
 20
105.5840874269566001
 30
0.0
 11
800.5248217375826698
 21
105.5840874269566001
 31
0.0
  0
LINE
  5
F09B
  8
0
 10
800.5248217375826698
 20
105.6279265488567063
 30
0.0
 11
800.5670993558827604
 21
105.6748046770565992
 31
0.0
  0
ARC
  5
F09C
  8
0
 10
800.6366444080367728
 20
105.6551438527497027
 30
0.0
 40
0.0615192673186571
 50
90.7020862929102947
 51
115.9475969468306999
  0
ARC
  5
F09D
  8
0
 10
800.6756364253463971
 20
105.5883589305191066
 30
0.0
 40
0.1387557657978569
 50
118.3596867604473033
 51
141.463979686699389
  0
ARC
  5
F09E
  8
0
 10
800.7334831546542091
 20
105.6497293671045981
 30
0.0
 40
0.0393700792520992
 50
359.9926559853823846
 51
89.9999996671851363
  0
LINE
  5
F09F
  8
0
 10
800.7728532335828504
 20
105.649729367656704
 30
0.0
 11
800.7728532335828504
 21
104.2875259591566959
 31
0.0
  0
ARC
  5
F0A0
  8
0
 10
800.7689162256826876
 20
105.2717766117567066
 30
0.0
 40
0.0118110236
 50
0.0
 51
70.5287791939934436
  0
LINE
  5
F0A1
  8
0
 10
800.7807272492829043
 20
105.2717766117567066
 30
0.0
 11
800.7807272491846788
 21
104.6654758765427999
 31
0.0
  0
ARC
  5
F0A2
  8
0
 10
800.7689162256826876
 20
104.6654773991566998
 30
0.0
 40
0.0118110235999999
 50
289.4712208060066132
 51
359.9926137353244258
  0
LINE
  5
F0A3
  8
0
 10
800.7807272492603943
 20
105.1337309077645017
 30
0.0
 11
800.7818404904827503
 21
105.1300197607566957
 31
0.0
  0
LINE
  5
F0A4
  8
0
 10
800.7818404904827503
 20
105.1300197607566957
 30
0.0
 11
800.7820091409829502
 21
105.1261073203565957
 31
0.0
  0
ARC
  5
F0A5
  8
0
 10
782.0452437899847382
 20
104.9686270054065034
 30
0.0
 40
18.73742714109801
 50
359.5184470330784734
 51
0.4815529669215535
  0
LINE
  5
F0A6
  8
0
 10
800.7820091409829502
 20
104.8111466904565958
 30
0.0
 11
800.7818404904827503
 21
104.8072342500565952
 31
0.0
  0
LINE
  5
F0A7
  8
0
 10
800.7818404904827503
 20
104.8072342500565952
 30
0.0
 11
800.7807272492070751
 21
104.8035231341706037
 31
0.0
  0
LINE
  5
F0A8
  8
0
 10
800.7603351023830101
 20
105.7295999853566997
 30
0.0
 11
800.6049032631703994
 21
105.776879631557307
 31
0.0
  0
ARC
  5
F0A9
  8
0
 10
800.7310289641453664
 20
105.6775936873842028
 30
0.0
 40
0.0596950983514931
 50
34.8465358280184034
 51
60.5982478752387124
  0
ARC
  5
F0AA
  8
0
 10
801.0561479423637365
 20
105.5960845415209945
 30
0.0
 40
0.0744996133958579
 50
295.3299409997737826
 51
338.3123216273378944
  0
ARC
  5
F0AB
  8
0
 10
801.0251707911611447
 20
105.6232300865448934
 30
0.0
 40
0.1134775111013179
 50
282.7631516972028862
 51
303.6320393343505089
  0
ARC
  5
F0AC
  8
0
 10
801.1019584220833849
 20
105.2156306269499026
 30
0.0
 40
0.3013962188471827
 50
99.8805583373890471
 51
109.3188348339514988
  0
ARC
  5
F0AD
  8
0
 10
801.1069382295315791
 20
104.8525590128020042
 30
0.0
 40
0.6559055042984334
 50
99.1842619606599953
 51
105.6453196021828944
  0
ARC
  5
F0AE
  8
0
 10
791.1975467942885416
 20
105.3819914240877011
 30
0.0
 40
9.588143684312282
 50
1.0259924731881489
 51
1.9706386198813599
  0
ARC
  5
F0AF
  8
0
 10
738.1276921305578753
 20
105.1040094934887037
 30
0.0
 40
62.6580746721808097
 50
0.0202069210981273
 51
0.4111880267149997
  0
ARC
  5
F0B0
  8
0
 10
663.3291579381121892
 20
104.9665133177844041
 30
0.0
 40
137.456697616458797
 50
359.8688533288060967
 51
0.0665233453503525
  0
ARC
  5
F0B1
  8
0
 10
747.3963876267057458
 20
104.7474658483621965
 30
0.0
 40
53.3891934035807978
 50
359.5816877767629194
 51
359.8974234362838729
  0
ARC
  5
F0B2
  8
0
 10
809.48408630147037
 20
104.0743182915104939
 30
0.0
 40
8.7045415454796462
 50
178.134510708127408
 51
179.2931510987268098
  0
ARC
  5
F0B3
  8
0
 10
800.6847033737150241
 20
104.1932746886356966
 30
0.0
 40
0.0962038298839697
 50
321.6646106483678977
 51
353.0837696628148024
  0
ARC
  5
F0B4
  8
0
 10
800.7298939539535922
 20
104.2430707123474036
 30
0.0
 40
0.1109996523032904
 50
206.6174719070554033
 51
260.4706082936642133
  0
ARC
  5
F0B5
  8
0
 10
800.7207891711267393
 20
104.2301947291024931
 30
0.0
 40
0.1019136797567662
 50
169.8499911035792138
 51
183.6882005372179094
  0
LINE
  5
F0B6
  8
0
 10
800.7601647282826889
 20
104.1336025915565955
 30
0.0
 11
800.711519011482892
 21
104.1336026145566933
 31
0.0
  0
ARC
  5
F0B7
  8
0
 10
800.7334831548671445
 20
104.2875246431942031
 30
0.0
 40
0.0393700787375429
 50
270.0000000226287966
 51
0.0019151370068102
  0
LINE
  5
F0B8
  8
0
 10
800.630657763324848
 20
104.1933408214228933
 30
0.0
 11
800.6190869597304527
 21
104.2236354559796041
 31
0.0
  0
ARC
  5
F0B9
  8
0
 10
801.1658668204383957
 20
105.5621562213901967
 30
0.0
 40
0.0409951514295264
 50
146.8374955782213931
 51
171.0224112350801988
  0
ARC
  5
F0BA
  8
0
 10
801.071598777898771
 20
105.5870237939152929
 30
0.0
 40
0.0599998195001954
 50
357.6668476763571221
 51
51.6948864372766721
  0
ARC
  5
F0BB
  8
0
 10
800.3066281808730764
 20
104.5885914967302028
 30
0.0
 40
1.317788090461804
 50
52.5031309486011892
 51
76.9180033517180135
  0
ARC
  5
F0BC
  8
0
 10
794.34381341854737
 20
105.7978919712531933
 30
0.0
 40
6.7910863548091527
 50
350.8802020187613948
 51
358.2000203528575071
  0
ARC
  5
F0BD
  8
0
 10
800.2085119350916784
 20
104.3767680563865952
 30
0.0
 40
0.6962182446543973
 50
284.9877706658543843
 51
319.3188816942706012
  0
ARC
  5
F0BE
  8
0
 10
798.2356522687708775
 20
105.196611661545802
 30
0.0
 40
2.8532354920666392
 50
343.6974389938343961
 51
350.4148411611132019
  0
ARC
  5
F0BF
  8
0
 10
799.7437972116921401
 20
104.7181498933396995
 30
0.0
 40
1.271926085939286
 50
321.3029881298264741
 51
345.3136213218151056
  0
ARC
  5
F0C0
  8
0
 10
802.354153402354541
 20
105.3460276847936967
 30
0.0
 40
1.4307843811575891
 50
174.459750694543601
 51
181.0452842411544907
  0
ARC
  5
F0C1
  8
0
 10
768.9684640537435598
 20
106.2907792350835052
 30
0.0
 40
31.9698877626614291
 50
356.5739991974961072
 51
358.2597898510464915
  0
ARC
  5
F0C2
  8
0
 10
800.8047019825423831
 20
104.3235055250119956
 30
0.0
 40
0.095276210315543
 50
352.0601029315776032
 51
36.5755589016825624
  0
ARC
  5
F0C3
  8
0
 10
800.4918982878283487
 20
104.3387688561094961
 30
0.0
 40
0.4081574812696648
 50
340.1492639266410833
 51
356.0066684833295767
  0
ARC
  5
F0C4
  8
0
 10
800.2746225263587121
 20
104.3870116761736995
 30
0.0
 40
0.6295457820787523
 50
331.8212451052598908
 51
342.7352525320172276
  0
ARC
  5
F0C5
  8
0
 10
800.1647484177741489
 20
104.4176977903916992
 30
0.0
 40
0.7413043362840012
 50
287.5933260033066858
 51
333.7411936138004762
  0
ARC
  5
F0C6
  8
0
 10
800.8707923602398751
 20
105.461835339983196
 30
0.0
 40
0.0633269777288581
 50
20.6447632435925605
 51
62.7970790270307333
  0
ARC
  5
F0C7
  8
0
 10
800.804324920149952
 20
105.5263576664220011
 30
0.0
 40
0.0205595808030108
 50
72.6794803298392935
 51
112.1870254910255937
  0
ARC
  5
F0C8
  8
0
 10
800.8040411560194798
 20
105.5271329279103014
 30
0.0
 40
0.0197345873451613
 50
112.2741750873891959
 51
177.1233572327986963
  0
LINE
  5
F0C9
  8
0
 10
800.8997418618829442
 20
105.5181579150567046
 30
0.0
 11
800.8105424615224592
 21
105.5459545501835947
 31
0.0
  0
ARC
  5
F0CA
  8
0
 10
800.6048576777012613
 20
106.0252749864727946
 30
0.0
 40
0.0857864533148076
 50
270.0304460089146232
 51
353.7866380474857237
  0
ARC
  5
F0CB
  8
0
 10
800.7099514376320712
 20
105.7963917380054966
 30
0.0
 40
0.2236120985739909
 50
98.1613506979912955
 51
112.1004374807400978
  0
ARC
  5
F0CC
  8
0
 10
800.6810844225543633
 20
105.9957864231461997
 30
0.0
 40
0.0221404684229184
 50
65.8570441300954599
 51
97.4669167738479842
  0
ARC
  5
F0CD
  8
0
 10
800.1704910288826795
 20
107.4512594905003056
 30
0.0
 40
1.517602998300043
 50
281.6851315813830183
 51
287.4595673569144196
  0
ARC
  5
F0CE
  8
0
 10
800.1704910288826795
 20
107.4512594905002061
 30
0.0
 40
1.517602998299967
 50
270.0000000094970005
 51
281.6851315813830183
  0
ARC
  5
F0CF
  8
0
 10
800.5554258518568531
 20
106.1313772063389962
 30
0.0
 40
0.2352652414878349
 50
337.6584881377734746
 51
354.3877386448457969
  0
ARC
  5
F0D0
  8
0
 10
800.6270318914696418
 20
106.1029215418093941
 30
0.0
 40
0.1582201503461194
 50
317.0878436324794052
 51
337.3326742098553268
  0
ARC
  5
F0D1
  8
0
 10
800.611431574388007
 20
106.1412608457417974
 30
0.0
 40
0.1965270548354505
 50
278.1657242948700173
 51
311.991465261796975
  0
LINE
  5
F0D2
  8
0
 10
799.8161603201828029
 20
105.0913039432544025
 30
0.0
 11
800.5248217375826698
 21
105.0913039432544025
 31
0.0
  0
LINE
  5
F0D3
  8
0
 10
799.8161603201828029
 20
105.012563785754395
 30
0.0
 11
800.5248217375826698
 21
105.012563785754395
 31
0.0
  0
ARC
  5
F0D4
  8
0
 10
799.6119081545399467
 20
105.6184007258783026
 30
0.0
 40
0.0831105902560617
 50
34.8003616777674125
 51
70.9791092005593356
  0
ARC
  5
F0D5
  8
0
 10
800.7411990025983641
 20
105.6023744391948043
 30
0.0
 40
0.1024038528006439
 50
112.514325434328498
 51
141.7062036873352042
  0
LINE
  5
F0D6
  8
0
 10
799.607498903111491
 20
105.6890994463567068
 30
0.0
 11
799.6193099265414048
 21
105.6890994464445015
 31
0.0
  0
LINE
  5
F0D7
  8
0
 10
800.733483154882947
 20
105.6890994463567068
 30
0.0
 11
800.7216721312240679
 21
105.6890994464445015
 31
0.0
  0
ARC
  5
F0D8
  8
0
 10
800.4387310192389577
 20
105.1201473450863944
 30
0.0
 40
1.2760010308559659
 50
230.6378914820278112
 51
245.2299514751344134
  0
ARC
  5
F0D9
  8
0
 10
799.9038292974231581
 20
105.1180191747854025
 30
0.0
 40
1.27335725235843
 50
292.8461362867445246
 51
309.3680417743314024
  0
LINE
  5
F0DA
  8
0
 10
799.7264318830706316
 20
105.939500708206694
 30
0.0
 11
799.7264318830706316
 21
105.736358501456607
 31
0.0
  0
LINE
  5
F0DB
  8
0
 10
800.6049032631703994
 20
105.9394885452696968
 30
0.0
 11
800.6049032631703994
 21
105.736358501456607
 31
0.0
  0
ARC
  5
F0DC
  8
0
 10
799.7461318830703476
 20
105.736358501456607
 30
0.0
 40
0.0197
 50
180.0
 51
270.0000000000064801
  0
ARC
  5
F0DD
  8
0
 10
800.585203263170456
 20
105.736358501456607
 30
0.0
 40
0.0197
 50
270.0
 51
0.0
  0
ARC
  5
F0DE
  8
0
 10
799.7930012333584955
 20
112.6388037587550031
 30
0.0
 40
0.0792147379135629
 50
200.3436203291498998
 51
339.6563796708516065
  0
ARC
  5
F0DF
  8
0
 10
799.3896474958257841
 20
112.6907440695785994
 30
0.0
 40
0.4841951133862587
 50
350.5523017073076062
 51
354.3333998232757835
  0
ARC
  5
F0E0
  8
0
 10
799.7883814645637131
 20
112.6353296807769055
 30
0.0
 40
0.083442323917643
 50
5.2293218597341022
 51
83.5024735736280519
  0
ARC
  5
F0E1
  8
0
 10
799.7893521293401591
 20
112.6438523674677015
 30
0.0
 40
0.074864539906781
 50
83.5024735736214154
 51
178.4585463548336008
  0
ARC
  5
F0E2
  8
0
 10
800.0337526818600509
 20
112.6671787650803935
 30
0.0
 40
0.3199486285821063
 50
183.8194341026776897
 51
190.0646455375182029
  0
ARC
  5
F0E3
  8
0
 10
799.7930012333584955
 20
112.5932400140298029
 30
0.0
 40
0.0764295249413677
 50
13.6408614618134294
 51
166.3591385381849932
  0
ARC
  5
F0E4
  8
0
 10
799.7929638022400241
 20
112.6141273436381027
 30
0.0
 40
0.0237722863354045
 50
224.2028373649555988
 51
316.9866635450488843
  0
ARC
  5
F0E5
  8
0
 10
799.8033626580196369
 20
112.6044257274518969
 30
0.0
 40
0.0095505579542233
 50
316.9866635450396757
 51
55.043662288748969
  0
ARC
  5
F0E6
  8
0
 10
799.7933080987912717
 20
112.5944652847833964
 30
0.0
 40
0.0236111503263204
 50
48.8833007424487818
 51
141.5224213429717963
  0
ARC
  5
F0E7
  8
0
 10
799.7838883495591062
 20
112.6041605839507014
 30
0.0
 40
0.0103498185303035
 50
151.138752918401309
 51
219.6723886353354089
  0
ARC
  5
F0E8
  8
0
 10
799.7890668783146566
 20
110.6700651057577005
 30
0.0
 40
0.072560226982316
 50
195.9750673802842016
 51
273.6618810470002927
  0
ARC
  5
F0E9
  8
0
 10
799.8001973885226334
 20
110.6671667475927023
 30
0.0
 40
0.0698166071555217
 50
264.6610930641219284
 51
347.0553622775776716
  0
ARC
  5
F0EA
  8
0
 10
799.7403978036060153
 20
110.677400116800996
 30
0.0
 40
0.0250225321543152
 50
124.6688323617782999
 51
182.6786758848006968
  0
ARC
  5
F0EB
  8
0
 10
799.7928686695939859
 20
110.5893940816247039
 30
0.0
 40
0.1274377804664113
 50
55.3705848461858992
 51
121.5624696181420035
  0
ARC
  5
F0EC
  8
0
 10
799.8508744782036501
 20
110.6785939228254989
 30
0.0
 40
0.0212841739290108
 50
347.9234349216679902
 51
47.3779200598684795
  0
ARC
  5
F0ED
  8
0
 10
799.7936637513615779
 20
110.6522714377859984
 30
0.0
 40
0.0237722863354045
 50
224.2028373649555988
 51
316.9866635450488843
  0
ARC
  5
F0EE
  8
0
 10
799.8040626071411907
 20
110.6425698215998068
 30
0.0
 40
0.0095505579542233
 50
316.9866635450396757
 51
55.043662288748969
  0
ARC
  5
F0EF
  8
0
 10
799.7940080479128255
 20
110.6326093789313063
 30
0.0
 40
0.0236111503263204
 50
48.8833007424487818
 51
141.5224213429717963
  0
ARC
  5
F0F0
  8
0
 10
799.78458829868066
 20
110.642304678098597
 30
0.0
 40
0.0103498185303035
 50
151.138752918401309
 51
219.6723886353354089
  0
LINE
  5
F0F1
  8
0
 10
799.7193088148115976
 20
110.6500951504242067
 30
0.0
 11
799.7154026126297595
 21
110.6762306966528939
 31
0.0
  0
LINE
  5
F0F2
  8
0
 10
799.8682397441288003
 20
110.6515271670912028
 30
0.0
 11
799.8716876097898876
 21
110.6741408774162068
 31
0.0
  0
ARC
  5
F0F3
  8
0
 10
799.7619975512327528
 20
110.6539506154500998
 30
0.0
 40
0.042862487419949
 50
135.9978489484369959
 51
185.1607095392870121
  0
ARC
  5
F0F4
  8
0
 10
799.7924805698564796
 20
110.617669933412003
 30
0.0
 40
0.0901274495565696
 50
37.2201911877337466
 51
132.8678624906177106
  0
ARC
  5
F0F5
  8
0
 10
799.8292185799319896
 20
110.6547070127463996
 30
0.0
 40
0.0391505130704867
 50
355.3412450117157846
 51
26.5168756122326883
  0
ARC
  5
F0F6
  8
0
 10
799.7972165348462568
 20
110.8726652192572004
 30
0.0
 40
0.072560226982316
 50
195.9750673802842016
 51
273.6618810470002927
  0
ARC
  5
F0F7
  8
0
 10
799.8083470450543473
 20
110.8697668610923017
 30
0.0
 40
0.0698166071555217
 50
264.6610930641219284
 51
347.0553622775776716
  0
ARC
  5
F0F8
  8
0
 10
799.7485474601375017
 20
110.8800002303004959
 30
0.0
 40
0.0250225321543152
 50
124.6688323617782999
 51
182.6786758848006968
  0
ARC
  5
F0F9
  8
0
 10
799.8010183261256998
 20
110.7919941951243032
 30
0.0
 40
0.1274377804664113
 50
55.3705848461858992
 51
121.5624696181420035
  0
ARC
  5
F0FA
  8
0
 10
799.859024134735364
 20
110.8811940363250983
 30
0.0
 40
0.0212841739290108
 50
347.9234349216679902
 51
47.3779200598684795
  0
ARC
  5
F0FB
  8
0
 10
799.801813407893178
 20
110.8548715512855978
 30
0.0
 40
0.0237722863354045
 50
224.2028373649555988
 51
316.9866635450488843
  0
ARC
  5
F0FC
  8
0
 10
799.8122122636725635
 20
110.8451699350994062
 30
0.0
 40
0.0095505579542233
 50
316.9866635450396757
 51
55.043662288748969
  0
ARC
  5
F0FD
  8
0
 10
799.8021577044441983
 20
110.8352094924309057
 30
0.0
 40
0.0236111503263204
 50
48.8833007424487818
 51
141.5224213429717963
  0
ARC
  5
F0FE
  8
0
 10
799.7927379552121465
 20
110.8449047915981964
 30
0.0
 40
0.0103498185303035
 50
151.138752918401309
 51
219.6723886353354089
  0
LINE
  5
F0FF
  8
0
 10
799.7274584713430841
 20
110.8526952639238061
 30
0.0
 11
799.723552269161587
 21
110.8788308101524933
 31
0.0
  0
LINE
  5
F100
  8
0
 10
799.8763894006605142
 20
110.8541272805908022
 30
0.0
 11
799.8798372663217151
 21
110.8767409909158062
 31
0.0
  0
ARC
  5
F101
  8
0
 10
799.7701472077644667
 20
110.8565507289496992
 30
0.0
 40
0.042862487419949
 50
135.9978489484369959
 51
185.1607095392870121
  0
ARC
  5
F102
  8
0
 10
799.8006302263879661
 20
110.8202700469116024
 30
0.0
 40
0.0901274495565696
 50
37.2201911877337466
 51
132.8678624906177106
  0
ARC
  5
F103
  8
0
 10
799.8373682364633623
 20
110.857307126245999
 30
0.0
 40
0.0391505130704867
 50
355.3412450117157846
 51
26.5168756122326883
  0
ARC
  5
F104
  8
0
 10
799.815314389594846
 20
111.1066285032681975
 30
0.0
 40
0.072560226982316
 50
195.9750673802842016
 51
273.6618810470002927
  0
ARC
  5
F105
  8
0
 10
799.8264448998028229
 20
111.1037301451032988
 30
0.0
 40
0.0698166071555217
 50
264.6610930641219284
 51
347.0553622775776716
  0
ARC
  5
F106
  8
0
 10
799.7666453148862047
 20
111.113963514311493
 30
0.0
 40
0.0250225321543152
 50
124.6688323617782999
 51
182.6786758848006968
  0
ARC
  5
F107
  8
0
 10
799.8191161808744027
 20
111.0259574791352009
 30
0.0
 40
0.1274377804664113
 50
55.3705848461858992
 51
121.5624696181420035
  0
ARC
  5
F108
  8
0
 10
799.8771219894841806
 20
111.1151573203359959
 30
0.0
 40
0.0212841739290108
 50
347.9234349216679902
 51
47.3779200598684795
  0
ARC
  5
F109
  8
0
 10
799.8199112626417673
 20
111.0888348352964954
 30
0.0
 40
0.0237722863354045
 50
224.2028373649555988
 51
316.9866635450488843
  0
ARC
  5
F10A
  8
0
 10
799.8303101184212665
 20
111.0791332191103038
 30
0.0
 40
0.0095505579542233
 50
316.9866635450396757
 51
55.043662288748969
  0
ARC
  5
F10B
  8
0
 10
799.820255559193015
 20
111.0691727764419028
 30
0.0
 40
0.0236111503263204
 50
48.8833007424487818
 51
141.5224213429717963
  0
ARC
  5
F10C
  8
0
 10
799.8108358099608495
 20
111.0788680756091935
 30
0.0
 40
0.0103498185303035
 50
151.138752918401309
 51
219.6723886353354089
  0
LINE
  5
F10D
  8
0
 10
799.745556326091787
 20
111.0866585479348032
 30
0.0
 11
799.7416501239101763
 21
111.1127940941634051
 31
0.0
  0
LINE
  5
F10E
  8
0
 10
799.8944872554091035
 20
111.0880905646017993
 30
0.0
 11
799.897935121070077
 21
111.1107042749268032
 31
0.0
  0
ARC
  5
F10F
  8
0
 10
799.7882450625132833
 20
111.0905140129606963
 30
0.0
 40
0.042862487419949
 50
135.9978489484369959
 51
185.1607095392870121
  0
ARC
  5
F110
  8
0
 10
799.8187280811366691
 20
111.0542333309225995
 30
0.0
 40
0.0901274495565696
 50
37.2201911877337466
 51
132.8678624906177106
  0
ARC
  5
F111
  8
0
 10
799.8554660912120653
 20
111.0912704102569961
 30
0.0
 40
0.0391505130704867
 50
355.3412450117157846
 51
26.5168756122326883
  0
ARC
  5
F112
  8
0
 10
799.8891965399244555
 20
111.3898671900504951
 30
0.0
 40
0.072560226982316
 50
195.9750673802842016
 51
273.6618810470002927
  0
ARC
  5
F113
  8
0
 10
799.9003270501324323
 20
111.3869688318855964
 30
0.0
 40
0.0698166071555217
 50
264.6610930641219284
 51
347.0553622775776716
  0
ARC
  5
F114
  8
0
 10
799.8562884890726536
 20
111.3939027226974048
 30
0.0
 40
0.0408118389152638
 50
138.8527064146300916
 51
177.0082498815233123
  0
ARC
  5
F115
  8
0
 10
799.8920555281937368
 20
111.3457745537147048
 30
0.0
 40
0.1002221454961678
 50
42.9466965278952486
 51
131.5687257969703978
  0
ARC
  5
F116
  8
0
 10
799.933802864880704
 20
111.3929226912659942
 30
0.0
 40
0.0380280955976737
 50
1.537395043729145
 51
33.7639599377967699
  0
ARC
  5
F117
  8
0
 10
799.893793412971263
 20
111.372073522078793
 30
0.0
 40
0.0237722863354045
 50
224.2028373649555988
 51
316.9866635450488843
  0
ARC
  5
F118
  8
0
 10
799.9041922687509896
 20
111.3623719058926014
 30
0.0
 40
0.0095505579542233
 50
316.9866635450396757
 51
55.043662288748969
  0
ARC
  5
F119
  8
0
 10
799.8941377095226244
 20
111.3524114632241009
 30
0.0
 40
0.0236111503263204
 50
48.8833007424487818
 51
141.5224213429717963
  0
ARC
  5
F11A
  8
0
 10
799.8847179602903452
 20
111.3621067623915053
 30
0.0
 40
0.0103498185303035
 50
151.138752918401309
 51
219.6723886353354089
  0
LINE
  5
F11B
  8
0
 10
799.8194384764213964
 20
111.3698972347171008
 30
0.0
 11
799.8155322742398994
 21
111.3960327809458022
 31
0.0
  0
LINE
  5
F11C
  8
0
 10
799.9683694057388266
 20
111.3713292513840969
 30
0.0
 11
799.9718172713998001
 21
111.3939429617091008
 31
0.0
  0
ARC
  5
F11D
  8
0
 10
799.8621272128428927
 20
111.3737526997428944
 30
0.0
 40
0.042862487419949
 50
135.9978489484369959
 51
185.1607095392870121
  0
ARC
  5
F11E
  8
0
 10
799.8926102314663922
 20
111.3374720177048971
 30
0.0
 40
0.0901274495565696
 50
37.2201911877337466
 51
132.8678624906177106
  0
ARC
  5
F11F
  8
0
 10
799.9293482415417884
 20
111.3745090970392937
 30
0.0
 40
0.0391505130704867
 50
355.3412450117157846
 51
26.5168756122326883
  0
ARC
  5
F120
  8
0
 10
799.8881032904836275
 20
111.6116945949350026
 30
0.0
 40
0.072560226982316
 50
195.9750673802842016
 51
273.6618810470002927
  0
ARC
  5
F121
  8
0
 10
799.8992338006916043
 20
111.6087962367701039
 30
0.0
 40
0.0698166071555217
 50
264.6610930641219284
 51
347.0553622775776716
  0
ARC
  5
F122
  8
0
 10
799.8551952396318256
 20
111.6157301275817986
 30
0.0
 40
0.0408118389152638
 50
138.8527064146300916
 51
177.0082498815233123
  0
ARC
  5
F123
  8
0
 10
799.8909622787525677
 20
111.567601958599198
 30
0.0
 40
0.1002221454961678
 50
42.9466965278952486
 51
131.5687257969703978
  0
ARC
  5
F124
  8
0
 10
799.9327096154396486
 20
111.6147500961505017
 30
0.0
 40
0.0380280955976737
 50
1.537395043729145
 51
33.7639599377967699
  0
ARC
  5
F125
  8
0
 10
799.8927001635305487
 20
111.5939009269633004
 30
0.0
 40
0.0237722863354045
 50
224.2028373649555988
 51
316.9866635450488843
  0
ARC
  5
F126
  8
0
 10
799.9030990193099342
 20
111.5841993107770946
 30
0.0
 40
0.0095505579542233
 50
316.9866635450396757
 51
55.043662288748969
  0
ARC
  5
F127
  8
0
 10
799.893044460081569
 20
111.5742388681085941
 30
0.0
 40
0.0236111503263204
 50
48.8833007424487818
 51
141.5224213429717963
  0
ARC
  5
F128
  8
0
 10
799.8836247108494035
 20
111.5839341672758991
 30
0.0
 40
0.0103498185303035
 50
151.138752918401309
 51
219.6723886353354089
  0
LINE
  5
F129
  8
0
 10
799.8183452269803411
 20
111.591724639601594
 30
0.0
 11
799.814439024798844
 21
111.617860185830196
 31
0.0
  0
LINE
  5
F12A
  8
0
 10
799.9672761562976575
 20
111.5931566562686044
 30
0.0
 11
799.9707240219588584
 21
111.6157703665935941
 31
0.0
  0
ARC
  5
F12B
  8
0
 10
799.8610339634018374
 20
111.5955801046274019
 30
0.0
 40
0.042862487419949
 50
135.9978489484369959
 51
185.1607095392870121
  0
ARC
  5
F12C
  8
0
 10
799.8915169820253368
 20
111.5592994225893051
 30
0.0
 40
0.0901274495565696
 50
37.2201911877337466
 51
132.8678624906177106
  0
ARC
  5
F12D
  8
0
 10
799.928254992100733
 20
111.5963365019238012
 30
0.0
 40
0.0391505130704867
 50
355.3412450117157846
 51
26.5168756122326883
  0
ARC
  5
F12E
  8
0
 10
799.4431533234270546
 20
110.7705247433077034
 30
0.0
 40
0.072560226982316
 50
195.9750673802842016
 51
273.6618810470002927
  0
ARC
  5
F12F
  8
0
 10
799.4542838336350314
 20
110.7676263851427052
 30
0.0
 40
0.0698166071555217
 50
264.6610930641219284
 51
347.0553622775776716
  0
ARC
  5
F130
  8
0
 10
799.3905494369686267
 20
110.7883318399616002
 30
0.0
 40
0.0232125878305968
 50
122.0475690477999962
 51
181.3525361919614056
  0
ARC
  5
F131
  8
0
 10
799.4336116270993671
 20
110.6957659701029968
 30
0.0
 40
0.1251595830343308
 50
49.3631392834682003
 51
116.2615660989157931
  0
ARC
  5
F132
  8
0
 10
799.4937774295874533
 20
110.7686352347619021
 30
0.0
 40
0.0307315896634947
 50
7.1190436879979684
 51
46.0052065368568179
  0
ARC
  5
F133
  8
0
 10
799.4477501964738622
 20
110.7527310753359018
 30
0.0
 40
0.0237722863354045
 50
224.2028373649555988
 51
316.9866635450488843
  0
ARC
  5
F134
  8
0
 10
799.458149052253475
 20
110.743029459149696
 30
0.0
 40
0.0095505579542233
 50
316.9866635450396757
 51
55.043662288748969
  0
ARC
  5
F135
  8
0
 10
799.4480944930252235
 20
110.733069016481295
 30
0.0
 40
0.0236111503263204
 50
48.8833007424487818
 51
141.5224213429717963
  0
ARC
  5
F136
  8
0
 10
799.4386747437929444
 20
110.7427643156485999
 30
0.0
 40
0.0103498185303035
 50
151.138752918401309
 51
219.6723886353354089
  0
LINE
  5
F137
  8
0
 10
799.3733952599239956
 20
110.7505547879741954
 30
0.0
 11
799.3673433164810831
 21
110.7877839296339033
 31
0.0
  0
LINE
  5
F138
  8
0
 10
799.5223261892414257
 20
110.7519868046412057
 30
0.0
 11
799.5242721033115458
 21
110.7724438405059999
 31
0.0
  0
ARC
  5
F139
  8
0
 10
799.4160839963454919
 20
110.7544102530000032
 30
0.0
 40
0.042862487419949
 50
135.9978489484369959
 51
185.1607095392870121
  0
ARC
  5
F13A
  8
0
 10
799.4465670149686503
 20
110.7181295709620059
 30
0.0
 40
0.0901274495565696
 50
37.2201911877337466
 51
132.8678624906177106
  0
ARC
  5
F13B
  8
0
 10
799.4833050250442739
 20
110.7551666502964025
 30
0.0
 40
0.0391505130704867
 50
355.3412450117157846
 51
26.5168756122326883
  0
ARC
  5
F13C
  8
0
 10
799.4780536740456682
 20
111.0035483749066003
 30
0.0
 40
0.072560226982316
 50
195.9750673802842016
 51
273.6618810470002927
  0
ARC
  5
F13D
  8
0
 10
799.4891841842536451
 20
111.0006500167417016
 30
0.0
 40
0.0698166071555217
 50
264.6610930641219284
 51
347.0553622775776716
  0
ARC
  5
F13E
  8
0
 10
799.4254497875871266
 20
111.0213554715604971
 30
0.0
 40
0.0232125878305968
 50
122.0475690477999962
 51
181.3525361919614056
  0
ARC
  5
F13F
  8
0
 10
799.4685119777180944
 20
110.9287896017018937
 30
0.0
 40
0.1251595830343308
 50
49.3631392834682003
 51
116.2615660989157931
  0
ARC
  5
F140
  8
0
 10
799.5286777802061806
 20
111.0016588663608985
 30
0.0
 40
0.0307315896634947
 50
7.1190436879979684
 51
46.0052065368568179
  0
ARC
  5
F141
  8
0
 10
799.4826505470927032
 20
110.9857547069348982
 30
0.0
 40
0.0237722863354045
 50
224.2028373649555988
 51
316.9866635450488843
  0
ARC
  5
F142
  8
0
 10
799.4930494028720886
 20
110.9760530907487066
 30
0.0
 40
0.0095505579542233
 50
316.9866635450396757
 51
55.043662288748969
  0
ARC
  5
F143
  8
0
 10
799.4829948436439508
 20
110.9660926480802061
 30
0.0
 40
0.0236111503263204
 50
48.8833007424487818
 51
141.5224213429717963
  0
ARC
  5
F144
  8
0
 10
799.4735750944116717
 20
110.9757879472474968
 30
0.0
 40
0.0103498185303035
 50
151.138752918401309
 51
219.6723886353354089
  0
LINE
  5
F145
  8
0
 10
799.4082956105423818
 20
110.983578419573206
 30
0.0
 11
799.4022436671001515
 21
111.0208075612328997
 31
0.0
  0
LINE
  5
F146
  8
0
 10
799.5572265398599257
 20
110.9850104362402021
 30
0.0
 11
799.5591724539302732
 21
111.0054674721049963
 31
0.0
  0
ARC
  5
F147
  8
0
 10
799.4509843469638781
 20
110.9874338845989996
 30
0.0
 40
0.042862487419949
 50
135.9978489484369959
 51
185.1607095392870121
  0
ARC
  5
F148
  8
0
 10
799.4814673655877186
 20
110.9511532025609029
 30
0.0
 40
0.0901274495565696
 50
37.2201911877337466
 51
132.8678624906177106
  0
ARC
  5
F149
  8
0
 10
799.5182053756628875
 20
110.9881902818953989
 30
0.0
 40
0.0391505130704867
 50
355.3412450117157846
 51
26.5168756122326883
  0
ARC
  5
F14A
  8
0
 10
799.564631084776579
 20
111.2845751796126024
 30
0.0
 40
0.072560226982316
 50
195.9750673802842016
 51
273.6618810470002927
  0
ARC
  5
F14B
  8
0
 10
799.5757615949845558
 20
111.2816768214477037
 30
0.0
 40
0.0698166071555217
 50
264.6610930641219284
 51
347.0553622775776716
  0
ARC
  5
F14C
  8
0
 10
799.512027198318151
 20
111.3023822762664992
 30
0.0
 40
0.0232125878305968
 50
122.0475690477999962
 51
181.3525361919614056
  0
ARC
  5
F14D
  8
0
 10
799.5550893884487778
 20
111.2098164064078958
 30
0.0
 40
0.1251595830343308
 50
49.3631392834682003
 51
116.2615660989157931
  0
ARC
  5
F14E
  8
0
 10
799.6152551909370914
 20
111.2826856710669006
 30
0.0
 40
0.0307315896634947
 50
7.1190436879979684
 51
46.0052065368568179
  0
ARC
  5
F14F
  8
0
 10
799.5692279578235002
 20
111.2667815116409002
 30
0.0
 40
0.0237722863354045
 50
224.2028373649555988
 51
316.9866635450488843
  0
ARC
  5
F150
  8
0
 10
799.5796268136031131
 20
111.2570798954546945
 30
0.0
 40
0.0095505579542233
 50
316.9866635450396757
 51
55.043662288748969
  0
ARC
  5
F151
  8
0
 10
799.5695722543747479
 20
111.247119452786194
 30
0.0
 40
0.0236111503263204
 50
48.8833007424487818
 51
141.5224213429717963
  0
ARC
  5
F152
  8
0
 10
799.5601525051425824
 20
111.2568147519534989
 30
0.0
 40
0.0103498185303035
 50
151.138752918401309
 51
219.6723886353354089
  0
LINE
  5
F153
  8
0
 10
799.49487302127352
 20
111.2646052242791939
 30
0.0
 11
799.4888210778309485
 21
111.3018343659389018
 31
0.0
  0
LINE
  5
F154
  8
0
 10
799.6438039505909501
 20
111.2660372409461047
 30
0.0
 11
799.6457498646609565
 21
111.2864942768109984
 31
0.0
  0
ARC
  5
F155
  8
0
 10
799.5375617576950162
 20
111.2684606893050017
 30
0.0
 40
0.042862487419949
 50
135.9978489484369959
 51
185.1607095392870121
  0
ARC
  5
F156
  8
0
 10
799.5680447763185157
 20
111.2321800072669049
 30
0.0
 40
0.0901274495565696
 50
37.2201911877337466
 51
132.8678624906177106
  0
ARC
  5
F157
  8
0
 10
799.6047827863939119
 20
111.269217086601401
 30
0.0
 40
0.0391505130704867
 50
355.3412450117157846
 51
26.5168756122326883
  0
ARC
  5
F158
  8
0
 10
799.1440645759799963
 20
110.9323640806233016
 30
0.0
 40
0.072560226982316
 50
195.9750673802842016
 51
273.6618810470002927
  0
ARC
  5
F159
  8
0
 10
799.1551950861879732
 20
110.9294657224583034
 30
0.0
 40
0.0698166071555217
 50
264.6610930641219284
 51
347.0553622775776716
  0
ARC
  5
F15A
  8
0
 10
799.091460689521341
 20
110.9501711772771984
 30
0.0
 40
0.0232125878305968
 50
122.0475690477999962
 51
181.3525361919614056
  0
ARC
  5
F15B
  8
0
 10
799.1345228796521951
 20
110.857605307418595
 30
0.0
 40
0.1251595830343308
 50
49.3631392834682003
 51
116.2615660989157931
  0
ARC
  5
F15C
  8
0
 10
799.1946886821405087
 20
110.9304745720775003
 30
0.0
 40
0.0307315896634947
 50
7.1190436879979684
 51
46.0052065368568179
  0
ARC
  5
F15D
  8
0
 10
799.1486614490269176
 20
110.9145704126515994
 30
0.0
 40
0.0237722863354045
 50
224.2028373649555988
 51
316.9866635450488843
  0
ARC
  5
F15E
  8
0
 10
799.1590603048065304
 20
110.9048687964653936
 30
0.0
 40
0.0095505579542233
 50
316.9866635450396757
 51
55.043662288748969
  0
ARC
  5
F15F
  8
0
 10
799.1490057455779379
 20
110.8949083537968932
 30
0.0
 40
0.0236111503263204
 50
48.8833007424487818
 51
141.5224213429717963
  0
ARC
  5
F160
  8
0
 10
799.1395859963456587
 20
110.9046036529641981
 30
0.0
 40
0.0103498185303035
 50
151.138752918401309
 51
219.6723886353354089
  0
LINE
  5
F161
  8
0
 10
799.0743065124769373
 20
110.9123941252897936
 30
0.0
 11
799.0682545690341385
 21
110.949623266949601
 31
0.0
  0
LINE
  5
F162
  8
0
 10
799.2232374417941401
 20
110.9138261419568039
 30
0.0
 11
799.2251833558641465
 21
110.9342831778216976
 31
0.0
  0
ARC
  5
F163
  8
0
 10
799.1169952488982062
 20
110.9162495903157009
 30
0.0
 40
0.042862487419949
 50
135.9978489484369959
 51
185.1607095392870121
  0
ARC
  5
F164
  8
0
 10
799.1474782675217057
 20
110.8799689082776041
 30
0.0
 40
0.0901274495565696
 50
37.2201911877337466
 51
132.8678624906177106
  0
ARC
  5
F165
  8
0
 10
799.1842162775971019
 20
110.9170059876120007
 30
0.0
 40
0.0391505130704867
 50
355.3412450117157846
 51
26.5168756122326883
  0
ARC
  5
F166
  8
0
 10
798.9155624334799768
 20
111.1423470846559951
 30
0.0
 40
0.072560226982316
 50
195.9750673802842016
 51
273.6618810470002927
  0
ARC
  5
F167
  8
0
 10
798.9266929436879536
 20
111.1394487264909969
 30
0.0
 40
0.0698166071555217
 50
264.6610930641219284
 51
347.0553622775776716
  0
ARC
  5
F168
  8
0
 10
798.8629585470215488
 20
111.1601541813099061
 30
0.0
 40
0.0232125878305968
 50
122.0475690477999962
 51
181.3525361919614056
  0
ARC
  5
F169
  8
0
 10
798.9060207371525166
 20
111.0675883114513027
 30
0.0
 40
0.1251595830343308
 50
49.3631392834682003
 51
116.2615660989157931
  0
ARC
  5
F16A
  8
0
 10
798.9661865396404892
 20
111.1404575761101938
 30
0.0
 40
0.0307315896634947
 50
7.1190436879979684
 51
46.0052065368568179
  0
ARC
  5
F16B
  8
0
 10
798.920159306526898
 20
111.1245534166841935
 30
0.0
 40
0.0237722863354045
 50
224.2028373649555988
 51
316.9866635450488843
  0
ARC
  5
F16C
  8
0
 10
798.9305581623065109
 20
111.1148518004980019
 30
0.0
 40
0.0095505579542233
 50
316.9866635450396757
 51
55.043662288748969
  0
ARC
  5
F16D
  8
0
 10
798.9205036030781457
 20
111.1048913578296009
 30
0.0
 40
0.0236111503263204
 50
48.8833007424487818
 51
141.5224213429717963
  0
ARC
  5
F16E
  8
0
 10
798.9110838538459802
 20
111.1145866569968064
 30
0.0
 40
0.0103498185303035
 50
151.138752918401309
 51
219.6723886353354089
  0
LINE
  5
F16F
  8
0
 10
798.8458043699769178
 20
111.1223771293225013
 30
0.0
 11
798.8397524265343463
 21
111.159606270982195
 31
0.0
  0
LINE
  5
F170
  8
0
 10
798.9947352992943479
 20
111.1238091459894974
 30
0.0
 11
798.9966812133643543
 21
111.1442661818543058
 31
0.0
  0
ARC
  5
F171
  8
0
 10
798.8884931063984141
 20
111.1262325943482949
 30
0.0
 40
0.042862487419949
 50
135.9978489484369959
 51
185.1607095392870121
  0
ARC
  5
F172
  8
0
 10
798.9189761250217998
 20
111.0899519123102976
 30
0.0
 40
0.0901274495565696
 50
37.2201911877337466
 51
132.8678624906177106
  0
ARC
  5
F173
  8
0
 10
798.9557141350973097
 20
111.1269889916446942
 30
0.0
 40
0.0391505130704867
 50
355.3412450117157846
 51
26.5168756122326883
  0
ARC
  5
F174
  8
0
 10
799.2405808925399242
 20
111.2038416460607948
 30
0.0
 40
0.072560226982316
 50
195.9750673802842016
 51
273.6618810470002927
  0
ARC
  5
F175
  8
0
 10
799.251711402747901
 20
111.2009432878958961
 30
0.0
 40
0.0698166071555217
 50
264.6610930641219284
 51
347.0553622775776716
  0
ARC
  5
F176
  8
0
 10
799.1879770060812689
 20
111.2216487427147058
 30
0.0
 40
0.0232125878305968
 50
122.0475690477999962
 51
181.3525361919614056
  0
ARC
  5
F177
  8
0
 10
799.2310391962122367
 20
111.1290828728561024
 30
0.0
 40
0.1251595830343308
 50
49.3631392834682003
 51
116.2615660989157931
  0
ARC
  5
F178
  8
0
 10
799.2912049987004366
 20
111.201952137515093
 30
0.0
 40
0.0307315896634947
 50
7.1190436879979684
 51
46.0052065368568179
  0
ARC
  5
F179
  8
0
 10
799.2451777655868455
 20
111.1860479780891069
 30
0.0
 40
0.0237722863354045
 50
224.2028373649555988
 51
316.9866635450488843
  0
ARC
  5
F17A
  8
0
 10
799.2555766213663446
 20
111.1763463619029011
 30
0.0
 40
0.0095505579542233
 50
316.9866635450396757
 51
55.043662288748969
  0
ARC
  5
F17B
  8
0
 10
799.2455220621380931
 20
111.1663859192344006
 30
0.0
 40
0.0236111503263204
 50
48.8833007424487818
 51
141.5224213429717963
  0
ARC
  5
F17C
  8
0
 10
799.2361023129059276
 20
111.1760812184017055
 30
0.0
 40
0.0103498185303035
 50
151.138752918401309
 51
219.6723886353354089
  0
LINE
  5
F17D
  8
0
 10
799.1708228290367515
 20
111.1838716907274005
 30
0.0
 11
799.1647708855942938
 21
111.2211008323870942
 31
0.0
  0
LINE
  5
F17E
  8
0
 10
799.3197537583539543
 20
111.1853037073943966
 30
0.0
 11
799.3216996724243018
 21
111.205760743259205
 31
0.0
  0
ARC
  5
F17F
  8
0
 10
799.2135115654581341
 20
111.1877271557531941
 30
0.0
 40
0.042862487419949
 50
135.9978489484369959
 51
185.1607095392870121
  0
ARC
  5
F180
  8
0
 10
799.2439945840818609
 20
111.1514464737150973
 30
0.0
 40
0.0901274495565696
 50
37.2201911877337466
 51
132.8678624906177106
  0
ARC
  5
F181
  8
0
 10
799.2807325941570298
 20
111.1884835530495934
 30
0.0
 40
0.0391505130704867
 50
355.3412450117157846
 51
26.5168756122326883
  0
ARC
  5
F182
  8
0
 10
799.4727481851522271
 20
111.5288840496588989
 30
0.0
 40
0.072560226982316
 50
195.9750673802842016
 51
273.6618810470002927
  0
ARC
  5
F183
  8
0
 10
799.4838786953604313
 20
111.5259856914939007
 30
0.0
 40
0.0698166071555217
 50
264.6610930641219284
 51
347.0553622775776716
  0
ARC
  5
F184
  8
0
 10
799.4201442986937991
 20
111.5466911463127957
 30
0.0
 40
0.0232125878305968
 50
122.0475690477999962
 51
181.3525361919614056
  0
ARC
  5
F185
  8
0
 10
799.4660715769942954
 20
111.4768441746417977
 30
0.0
 40
0.1068018071661921
 50
42.5760890406292276
 51
123.0486163417609049
  0
ARC
  5
F186
  8
0
 10
799.5233722913129668
 20
111.5269945411130976
 30
0.0
 40
0.0307315896634947
 50
7.1190436879979684
 51
46.0052065368568179
  0
ARC
  5
F187
  8
0
 10
799.4773450581991483
 20
111.5110903816871968
 30
0.0
 40
0.0237722863354045
 50
224.2028373649555988
 51
316.9866635450488843
  0
ARC
  5
F188
  8
0
 10
799.4877439139786475
 20
111.5013887655010052
 30
0.0
 40
0.0095505579542233
 50
316.9866635450396757
 51
55.043662288748969
  0
ARC
  5
F189
  8
0
 10
799.477689354750396
 20
111.4914283228325047
 30
0.0
 40
0.0236111503263204
 50
48.8833007424487818
 51
141.5224213429717963
  0
ARC
  5
F18A
  8
0
 10
799.4682696055182305
 20
111.5011236219997954
 30
0.0
 40
0.0103498185303035
 50
151.138752918401309
 51
219.6723886353354089
  0
LINE
  5
F18B
  8
0
 10
799.4029901216490543
 20
111.5089140943254051
 30
0.0
 11
799.3969381782065966
 21
111.5461432359851983
 31
0.0
  0
LINE
  5
F18C
  8
0
 10
799.5519210509665982
 20
111.5103461109924012
 30
0.0
 11
799.5538669650366046
 21
111.5308031468571954
 31
0.0
  0
ARC
  5
F18D
  8
0
 10
799.4456788580705506
 20
111.5127695593512982
 30
0.0
 40
0.042862487419949
 50
135.9978489484369959
 51
185.1607095392870121
  0
ARC
  5
F18E
  8
0
 10
799.4761618766941638
 20
111.4764888773132014
 30
0.0
 40
0.0901274495565696
 50
37.2201911877337466
 51
132.8678624906177106
  0
ARC
  5
F18F
  8
0
 10
799.5128998867694463
 20
111.513525956647598
 30
0.0
 40
0.0391505130704867
 50
355.3412450117157846
 51
26.5168756122326883
  0
ARC
  5
F190
  8
0
 10
799.1138817384079402
 20
111.4479360443375953
 30
0.0
 40
0.072560226982316
 50
195.9750673802842016
 51
273.6618810470002927
  0
ARC
  5
F191
  8
0
 10
799.1250122486158034
 20
111.4450376861726966
 30
0.0
 40
0.0698166071555217
 50
264.6610930641219284
 51
347.0553622775776716
  0
ARC
  5
F192
  8
0
 10
799.0612778519491712
 20
111.4657431409916057
 30
0.0
 40
0.0232125878305968
 50
122.0475690477999962
 51
181.3525361919614056
  0
ARC
  5
F193
  8
0
 10
799.1043400420802527
 20
111.3731772711329029
 30
0.0
 40
0.1251595830343308
 50
49.3631392834682003
 51
116.2615660989157931
  0
ARC
  5
F194
  8
0
 10
799.1645058445682253
 20
111.4460465357918935
 30
0.0
 40
0.0307315896634947
 50
7.1190436879979684
 51
46.0052065368568179
  0
ARC
  5
F195
  8
0
 10
799.1184786114548615
 20
111.4301423763658931
 30
0.0
 40
0.0237722863354045
 50
224.2028373649555988
 51
316.9866635450488843
  0
ARC
  5
F196
  8
0
 10
799.128877467234247
 20
111.4204407601797016
 30
0.0
 40
0.0095505579542233
 50
316.9866635450396757
 51
55.043662288748969
  0
ARC
  5
F197
  8
0
 10
799.1188229080058818
 20
111.4104803175112011
 30
0.0
 40
0.0236111503263204
 50
48.8833007424487818
 51
141.5224213429717963
  0
ARC
  5
F198
  8
0
 10
799.1094031587737163
 20
111.420175616678506
 30
0.0
 40
0.0103498185303035
 50
151.138752918401309
 51
219.6723886353354089
  0
LINE
  5
F199
  8
0
 10
799.0441236749046539
 20
111.427966089004201
 30
0.0
 11
799.0380717314620824
 21
111.4651952306638947
 31
0.0
  0
LINE
  5
F19A
  8
0
 10
799.193054604222084
 20
111.4293981056711971
 30
0.0
 11
799.1950005182922041
 21
111.4498551415360055
 31
0.0
  0
ARC
  5
F19B
  8
0
 10
799.0868124113261501
 20
111.4318215540299946
 30
0.0
 40
0.042862487419949
 50
135.9978489484369959
 51
185.1607095392870121
  0
ARC
  5
F19C
  8
0
 10
799.1172954299496496
 20
111.3955408719918978
 30
0.0
 40
0.0901274495565696
 50
37.2201911877337466
 51
132.8678624906177106
  0
ARC
  5
F19D
  8
0
 10
799.1540334400250458
 20
111.4325779513263939
 30
0.0
 40
0.0391505130704867
 50
355.3412450117157846
 51
26.5168756122326883
  0
ARC
  5
F19E
  8
0
 10
798.7732741370327858
 20
111.3889498184231002
 30
0.0
 40
0.072560226982316
 50
195.9750673802842016
 51
273.6618810470002927
  0
ARC
  5
F19F
  8
0
 10
798.7844046472407626
 20
111.3860514602582015
 30
0.0
 40
0.0698166071555217
 50
264.6610930641219284
 51
347.0553622775776716
  0
ARC
  5
F1A0
  8
0
 10
798.7206702505743579
 20
111.406756915076997
 30
0.0
 40
0.0232125878305968
 50
122.0475690477999962
 51
181.3525361919614056
  0
ARC
  5
F1A1
  8
0
 10
798.763732440705212
 20
111.3141910452183936
 30
0.0
 40
0.1251595830343308
 50
49.3631392834682003
 51
116.2615660989157931
  0
ARC
  5
F1A2
  8
0
 10
798.8238982431932982
 20
111.3870603098773984
 30
0.0
 40
0.0307315896634947
 50
7.1190436879979684
 51
46.0052065368568179
  0
ARC
  5
F1A3
  8
0
 10
798.7778710100798207
 20
111.371156150451398
 30
0.0
 40
0.0237722863354045
 50
224.2028373649555988
 51
316.9866635450488843
  0
ARC
  5
F1A4
  8
0
 10
798.7882698658594336
 20
111.3614545342652065
 30
0.0
 40
0.0095505579542233
 50
316.9866635450396757
 51
55.043662288748969
  0
ARC
  5
F1A5
  8
0
 10
798.7782153066309547
 20
111.351494091596706
 30
0.0
 40
0.0236111503263204
 50
48.8833007424487818
 51
141.5224213429717963
  0
ARC
  5
F1A6
  8
0
 10
798.7687955573989029
 20
111.3611893907639967
 30
0.0
 40
0.0103498185303035
 50
151.138752918401309
 51
219.6723886353354089
  0
LINE
  5
F1A7
  8
0
 10
798.7035160735298405
 20
111.3689798630897059
 30
0.0
 11
798.6974641300871554
 21
111.4062090047493996
 31
0.0
  0
LINE
  5
F1A8
  8
0
 10
798.8524470028471569
 20
111.370411879756702
 30
0.0
 11
798.8543929169173907
 21
111.3908689156214962
 31
0.0
  0
ARC
  5
F1A9
  8
0
 10
798.7462048099513368
 20
111.3728353281154995
 30
0.0
 40
0.042862487419949
 50
135.9978489484369959
 51
185.1607095392870121
  0
ARC
  5
F1AA
  8
0
 10
798.7766878285748362
 20
111.3365546460774027
 30
0.0
 40
0.0901274495565696
 50
37.2201911877337466
 51
132.8678624906177106
  0
ARC
  5
F1AB
  8
0
 10
798.8134258386502324
 20
111.3735917254118988
 30
0.0
 40
0.0391505130704867
 50
355.3412450117157846
 51
26.5168756122326883
  0
ARC
  5
F1AC
  8
0
 10
798.7242131164350667
 20
111.6515026327398061
 30
0.0
 40
0.072560226982316
 50
195.9750673802842016
 51
273.6618810470002927
  0
ARC
  5
F1AD
  8
0
 10
798.7353436266430435
 20
111.6486042745748932
 30
0.0
 40
0.0698166071555217
 50
264.6610930641219284
 51
347.0553622775776716
  0
ARC
  5
F1AE
  8
0
 10
798.6856637352324242
 20
111.6786360950861052
 30
0.0
 40
0.0385467969834106
 50
104.6726520913265972
 51
194.8425290707955924
  0
ARC
  5
F1AF
  8
0
 10
798.7006785315586512
 20
111.5975982359992003
 30
0.0
 40
0.1208941564756426
 50
37.8158377701160404
 51
101.8272002518010027
  0
ARC
  5
F1B0
  8
0
 10
798.7748372225953517
 20
111.6496131241941043
 30
0.0
 40
0.0307315896634947
 50
7.1190436879979684
 51
46.0052065368568179
  0
ARC
  5
F1B1
  8
0
 10
798.7288099894819879
 20
111.633708964768104
 30
0.0
 40
0.0237722863354045
 50
224.2028373649555988
 51
316.9866635450488843
  0
ARC
  5
F1B2
  8
0
 10
798.7392088452613734
 20
111.6240073485818982
 30
0.0
 40
0.0095505579542233
 50
316.9866635450396757
 51
55.043662288748969
  0
ARC
  5
F1B3
  8
0
 10
798.7291542860331219
 20
111.6140469059133977
 30
0.0
 40
0.0236111503263204
 50
48.8833007424487818
 51
141.5224213429717963
  0
ARC
  5
F1B4
  8
0
 10
798.7197345368009564
 20
111.6237422050807027
 30
0.0
 40
0.0103498185303035
 50
151.138752918401309
 51
219.6723886353354089
  0
LINE
  5
F1B5
  8
0
 10
798.654455052931894
 20
111.6315326774063976
 30
0.0
 11
798.6484031094893226
 21
111.6687618190661055
 31
0.0
  0
LINE
  5
F1B6
  8
0
 10
798.8033859822493241
 20
111.6329646940733937
 30
0.0
 11
798.8053318963194442
 21
111.6534217299382021
 31
0.0
  0
ARC
  5
F1B7
  8
0
 10
798.6971437893533903
 20
111.6353881424322054
 30
0.0
 40
0.042862487419949
 50
135.9978489484369959
 51
185.1607095392870121
  0
ARC
  5
F1B8
  8
0
 10
798.727626807976776
 20
111.5991074603941939
 30
0.0
 40
0.0901274495565696
 50
37.2201911877337466
 51
132.8678624906177106
  0
ARC
  5
F1B9
  8
0
 10
798.7643648180521723
 20
111.6361445397286047
 30
0.0
 40
0.0391505130704867
 50
355.3412450117157846
 51
26.5168756122326883
  0
ARC
  5
F1BA
  8
0
 10
799.1159439516010252
 20
111.709565105057294
 30
0.0
 40
0.072560226982316
 50
195.9750673802842016
 51
273.6618810470002927
  0
ARC
  5
F1BB
  8
0
 10
799.1270744618088884
 20
111.7066667468922958
 30
0.0
 40
0.0698166071555217
 50
264.6610930641219284
 51
347.0553622775776716
  0
ARC
  5
F1BC
  8
0
 10
799.0773945703981553
 20
111.7366985674034936
 30
0.0
 40
0.0385467969834106
 50
104.6726520913265972
 51
194.8425290707955924
  0
ARC
  5
F1BD
  8
0
 10
799.0924093667246098
 20
111.6556607083167023
 30
0.0
 40
0.1208941564756426
 50
37.8158377701160404
 51
101.8272002518010027
  0
ARC
  5
F1BE
  8
0
 10
799.1665680577615376
 20
111.7076755965115069
 30
0.0
 40
0.0307315896634947
 50
7.1190436879979684
 51
46.0052065368568179
  0
ARC
  5
F1BF
  8
0
 10
799.1205408246479465
 20
111.6917714370856061
 30
0.0
 40
0.0237722863354045
 50
224.2028373649555988
 51
316.9866635450488843
  0
ARC
  5
F1C0
  8
0
 10
799.1309396804274456
 20
111.6820698208994003
 30
0.0
 40
0.0095505579542233
 50
316.9866635450396757
 51
55.043662288748969
  0
ARC
  5
F1C1
  8
0
 10
799.1208851211990805
 20
111.6721093782308998
 30
0.0
 40
0.0236111503263204
 50
48.8833007424487818
 51
141.5224213429717963
  0
ARC
  5
F1C2
  8
0
 10
799.1114653719670287
 20
111.6818046773982047
 30
0.0
 40
0.0103498185303035
 50
151.138752918401309
 51
219.6723886353354089
  0
LINE
  5
F1C3
  8
0
 10
799.0461858880978525
 20
111.6895951497238002
 30
0.0
 11
799.0401339446551674
 21
111.7268242913835934
 31
0.0
  0
LINE
  5
F1C4
  8
0
 10
799.1951168174152826
 20
111.6910271663907963
 30
0.0
 11
799.1970627314855165
 21
111.7114842022556047
 31
0.0
  0
ARC
  5
F1C5
  8
0
 10
799.0888746245193488
 20
111.6934506147496933
 30
0.0
 40
0.042862487419949
 50
135.9978489484369959
 51
185.1607095392870121
  0
ARC
  5
F1C6
  8
0
 10
799.1193576431427346
 20
111.6571699327115965
 30
0.0
 40
0.0901274495565696
 50
37.2201911877337466
 51
132.8678624906177106
  0
ARC
  5
F1C7
  8
0
 10
799.1560956532182445
 20
111.6942070120459931
 30
0.0
 40
0.0391505130704867
 50
355.3412450117157846
 51
26.5168756122326883
  0
ARC
  5
F1C8
  8
0
 10
798.773893010069628
 20
111.9146854511196949
 30
0.0
 40
0.072560226982316
 50
195.9750673802842016
 51
273.6618810470002927
  0
ARC
  5
F1C9
  8
0
 10
798.7850235202776048
 20
111.9117870929546967
 30
0.0
 40
0.0698166071555217
 50
264.6610930641219284
 51
347.0553622775776716
  0
ARC
  5
F1CA
  8
0
 10
798.7353436288667581
 20
111.9418189134658945
 30
0.0
 40
0.0385467969834106
 50
104.6726520913265972
 51
194.8425290707955924
  0
ARC
  5
F1CB
  8
0
 10
798.7503584251932125
 20
111.8607810543790038
 30
0.0
 40
0.1208941564756426
 50
37.8158377701160404
 51
101.8272002518010027
  0
ARC
  5
F1CC
  8
0
 10
798.8245171162301403
 20
111.9127959425738936
 30
0.0
 40
0.0307315896634947
 50
7.1190436879979684
 51
46.0052065368568179
  0
ARC
  5
F1CD
  8
0
 10
798.7784898831165492
 20
111.8968917831478933
 30
0.0
 40
0.0237722863354045
 50
224.2028373649555988
 51
316.9866635450488843
  0
ARC
  5
F1CE
  8
0
 10
798.7888887388961621
 20
111.8871901669618012
 30
0.0
 40
0.0095505579542233
 50
316.9866635450396757
 51
55.043662288748969
  0
ARC
  5
F1CF
  8
0
 10
798.7788341796677969
 20
111.8772297242933007
 30
0.0
 40
0.0236111503263204
 50
48.8833007424487818
 51
141.5224213429717963
  0
ARC
  5
F1D0
  8
0
 10
798.7694144304356314
 20
111.8869250234606056
 30
0.0
 40
0.0103498185303035
 50
151.138752918401309
 51
219.6723886353354089
  0
LINE
  5
F1D1
  8
0
 10
798.7041349465664553
 20
111.8947154957862011
 30
0.0
 11
798.6980830031236565
 21
111.9319446374459943
 31
0.0
  0
LINE
  5
F1D2
  8
0
 10
798.8530658758839991
 20
111.8961475124531972
 30
0.0
 11
798.8550117899541192
 21
111.9166045483180056
 31
0.0
  0
ARC
  5
F1D3
  8
0
 10
798.7468236829879515
 20
111.8985709608120942
 30
0.0
 40
0.042862487419949
 50
135.9978489484369959
 51
185.1607095392870121
  0
ARC
  5
F1D4
  8
0
 10
798.7773067016113373
 20
111.8622902787739974
 30
0.0
 40
0.0901274495565696
 50
37.2201911877337466
 51
132.8678624906177106
  0
ARC
  5
F1D5
  8
0
 10
798.8140447116869609
 20
111.899327358108394
 30
0.0
 40
0.0391505130704867
 50
355.3412450117157846
 51
26.5168756122326883
  0
ARC
  5
F1D6
  8
0
 10
798.9162739980863535
 20
112.1592336686322966
 30
0.0
 40
0.072560226982316
 50
195.9750673802842016
 51
273.6618810470002927
  0
ARC
  5
F1D7
  8
0
 10
798.927404508294444
 20
112.1563353104673979
 30
0.0
 40
0.0698166071555217
 50
264.6610930641219284
 51
347.0553622775776716
  0
ARC
  5
F1D8
  8
0
 10
798.877724616883711
 20
112.1863671309785957
 30
0.0
 40
0.0385467969834106
 50
104.6726520913265972
 51
194.8425290707955924
  0
ARC
  5
F1D9
  8
0
 10
798.9017831613997487
 20
112.1299379766338973
 30
0.0
 40
0.0996352297312329
 50
29.7989821676657591
 51
109.8440558542478982
  0
ARC
  5
F1DA
  8
0
 10
798.9668981042467522
 20
112.1573441600865948
 30
0.0
 40
0.0307315896634947
 50
7.1190436879979684
 51
46.0052065368568179
  0
ARC
  5
F1DB
  8
0
 10
798.9208708711332747
 20
112.1414400006605945
 30
0.0
 40
0.0237722863354045
 50
224.2028373649555988
 51
316.9866635450488843
  0
ARC
  5
F1DC
  8
0
 10
798.9312697269126602
 20
112.1317383844744029
 30
0.0
 40
0.0095505579542233
 50
316.9866635450396757
 51
55.043662288748969
  0
ARC
  5
F1DD
  8
0
 10
798.9212151676846361
 20
112.1217779418059024
 30
0.0
 40
0.0236111503263204
 50
48.8833007424487818
 51
141.5224213429717963
  0
ARC
  5
F1DE
  8
0
 10
798.9117954184523569
 20
112.1314732409731931
 30
0.0
 40
0.0103498185303035
 50
151.138752918401309
 51
219.6723886353354089
  0
LINE
  5
F1DF
  8
0
 10
798.8465159345831808
 20
112.1392637132989023
 30
0.0
 11
798.8404639911406093
 21
112.176492854958596
 31
0.0
  0
LINE
  5
F1E0
  8
0
 10
798.9954468639006109
 20
112.1406957299658984
 30
0.0
 11
798.9973927779708447
 21
112.1611527658307068
 31
0.0
  0
ARC
  5
F1E1
  8
0
 10
798.889204671004677
 20
112.1431191783246959
 30
0.0
 40
0.042862487419949
 50
135.9978489484369959
 51
185.1607095392870121
  0
ARC
  5
F1E2
  8
0
 10
798.9196876896280628
 20
112.1068384962865991
 30
0.0
 40
0.0901274495565696
 50
37.2201911877337466
 51
132.8678624906177106
  0
ARC
  5
F1E3
  8
0
 10
798.956425699703459
 20
112.1438755756210952
 30
0.0
 40
0.0391505130704867
 50
355.3412450117157846
 51
26.5168756122326883
  0
ARC
  5
F1E4
  8
0
 10
799.4446721222262795
 20
112.5385176029648022
 30
0.0
 40
0.0792147379135629
 50
200.3436203291498998
 51
339.6563796708516065
  0
ARC
  5
F1E5
  8
0
 10
799.0413183846935681
 20
112.5904579137883985
 30
0.0
 40
0.4841951133862587
 50
350.5523017073076062
 51
354.3333998232757835
  0
ARC
  5
F1E6
  8
0
 10
799.4400523534314971
 20
112.5350435249867047
 30
0.0
 40
0.083442323917643
 50
5.2293218597341022
 51
83.5024735736280519
  0
ARC
  5
F1E7
  8
0
 10
799.4410230182078294
 20
112.5435662116774012
 30
0.0
 40
0.074864539906781
 50
83.5024735736214154
 51
178.4585463548336008
  0
ARC
  5
F1E8
  8
0
 10
799.6854235707279486
 20
112.5668926092902069
 30
0.0
 40
0.3199486285821063
 50
183.8194341026776897
 51
190.0646455375182029
  0
ARC
  5
F1E9
  8
0
 10
799.4446721222262795
 20
112.492953858239602
 30
0.0
 40
0.0764295249413677
 50
13.6408614618134294
 51
166.3591385381849932
  0
ARC
  5
F1EA
  8
0
 10
799.4446346911080354
 20
112.5138411878479019
 30
0.0
 40
0.0237722863354045
 50
224.2028373649555988
 51
316.9866635450488843
  0
ARC
  5
F1EB
  8
0
 10
799.4550335468874209
 20
112.5041395716616961
 30
0.0
 40
0.0095505579542233
 50
316.9866635450396757
 51
55.043662288748969
  0
ARC
  5
F1EC
  8
0
 10
799.4449789876590557
 20
112.4941791289931956
 30
0.0
 40
0.0236111503263204
 50
48.8833007424487818
 51
141.5224213429717963
  0
ARC
  5
F1ED
  8
0
 10
799.4355592384268903
 20
112.5038744281605005
 30
0.0
 40
0.0103498185303035
 50
151.138752918401309
 51
219.6723886353354089
  0
ARC
  5
F1EE
  8
0
 10
799.8018194772022298
 20
112.290850946456203
 30
0.0
 40
0.0792147379135629
 50
200.3436203291498998
 51
339.6563796708516065
  0
ARC
  5
F1EF
  8
0
 10
799.3984657396696321
 20
112.3427912572797993
 30
0.0
 40
0.4841951133862587
 50
350.5523017073076062
 51
354.3333998232757835
  0
ARC
  5
F1F0
  8
0
 10
799.7971997084074474
 20
112.2873768684781055
 30
0.0
 40
0.083442323917643
 50
5.2293218597341022
 51
83.5024735736280519
  0
ARC
  5
F1F1
  8
0
 10
799.7981703731837797
 20
112.2958995551689014
 30
0.0
 40
0.074864539906781
 50
83.5024735736214154
 51
178.4585463548336008
  0
ARC
  5
F1F2
  8
0
 10
800.0425709257037852
 20
112.3192259527815935
 30
0.0
 40
0.3199486285821063
 50
183.8194341026776897
 51
190.0646455375182029
  0
ARC
  5
F1F3
  8
0
 10
799.8018194772022298
 20
112.2452872017310028
 30
0.0
 40
0.0764295249413677
 50
13.6408614618134294
 51
166.3591385381849932
  0
ARC
  5
F1F4
  8
0
 10
799.801782046083872
 20
112.2661745313394022
 30
0.0
 40
0.0237722863354045
 50
224.2028373649555988
 51
316.9866635450488843
  0
ARC
  5
F1F5
  8
0
 10
799.8121809018632575
 20
112.2564729151531964
 30
0.0
 40
0.0095505579542233
 50
316.9866635450396757
 51
55.043662288748969
  0
ARC
  5
F1F6
  8
0
 10
799.802126342635006
 20
112.2465124724846959
 30
0.0
 40
0.0236111503263204
 50
48.8833007424487818
 51
141.5224213429717963
  0
ARC
  5
F1F7
  8
0
 10
799.7927065934028406
 20
112.2562077716520008
 30
0.0
 40
0.0103498185303035
 50
151.138752918401309
 51
219.6723886353354089
  0
ARC
  5
F1F8
  8
0
 10
799.4797810869541763
 20
112.1606659334610043
 30
0.0
 40
0.0792147379135629
 50
200.3436203291498998
 51
339.6563796708516065
  0
ARC
  5
F1F9
  8
0
 10
799.0764273494215786
 20
112.2126062442847001
 30
0.0
 40
0.4841951133862587
 50
350.5523017073076062
 51
354.3333998232757835
  0
ARC
  5
F1FA
  8
0
 10
799.4751613181593939
 20
112.1571918554830063
 30
0.0
 40
0.083442323917643
 50
5.2293218597341022
 51
83.5024735736280519
  0
ARC
  5
F1FB
  8
0
 10
799.4761319829357262
 20
112.1657145421737027
 30
0.0
 40
0.074864539906781
 50
83.5024735736214154
 51
178.4585463548336008
  0
ARC
  5
F1FC
  8
0
 10
799.7205325354558454
 20
112.1890409397863948
 30
0.0
 40
0.3199486285821063
 50
183.8194341026776897
 51
190.0646455375182029
  0
ARC
  5
F1FD
  8
0
 10
799.4797810869541763
 20
112.1151021887359036
 30
0.0
 40
0.0764295249413677
 50
13.6408614618134294
 51
166.3591385381849932
  0
ARC
  5
F1FE
  8
0
 10
799.4797436558359323
 20
112.1359895183442035
 30
0.0
 40
0.0237722863354045
 50
224.2028373649555988
 51
316.9866635450488843
  0
ARC
  5
F1FF
  8
0
 10
799.4901425116153177
 20
112.1262879021579977
 30
0.0
 40
0.0095505579542233
 50
316.9866635450396757
 51
55.043662288748969
  0
ARC
  5
F200
  8
0
 10
799.4800879523869526
 20
112.1163274594894972
 30
0.0
 40
0.0236111503263204
 50
48.8833007424487818
 51
141.5224213429717963
  0
ARC
  5
F201
  8
0
 10
799.4706682031547871
 20
112.1260227586568021
 30
0.0
 40
0.0103498185303035
 50
151.138752918401309
 51
219.6723886353354089
  0
ARC
  5
F202
  8
0
 10
799.8210654064806704
 20
111.9550548872382052
 30
0.0
 40
0.0792147379135629
 50
200.3436203291498998
 51
339.6563796708516065
  0
ARC
  5
F203
  8
0
 10
799.417711668947959
 20
112.006995198061901
 30
0.0
 40
0.4841951133862587
 50
350.5523017073076062
 51
354.3333998232757835
  0
ARC
  5
F204
  8
0
 10
799.816445637685888
 20
111.951580809260193
 30
0.0
 40
0.083442323917643
 50
5.2293218597341022
 51
83.5024735736280519
  0
ARC
  5
F205
  8
0
 10
799.8174163024622203
 20
111.9601034959510031
 30
0.0
 40
0.074864539906781
 50
83.5024735736214154
 51
178.4585463548336008
  0
ARC
  5
F206
  8
0
 10
800.0618168549824532
 20
111.9834298935636951
 30
0.0
 40
0.3199486285821063
 50
183.8194341026776897
 51
190.0646455375182029
  0
ARC
  5
F207
  8
0
 10
799.8210654064806704
 20
111.9094911425131045
 30
0.0
 40
0.0764295249413677
 50
13.6408614618134294
 51
166.3591385381849932
  0
ARC
  5
F208
  8
0
 10
799.8210279753624263
 20
111.9303784721214043
 30
0.0
 40
0.0237722863354045
 50
224.2028373649555988
 51
316.9866635450488843
  0
ARC
  5
F209
  8
0
 10
799.8314268311418118
 20
111.9206768559351985
 30
0.0
 40
0.0095505579542233
 50
316.9866635450396757
 51
55.043662288748969
  0
ARC
  5
F20A
  8
0
 10
799.8213722719134466
 20
111.9107164132666981
 30
0.0
 40
0.0236111503263204
 50
48.8833007424487818
 51
141.5224213429717963
  0
ARC
  5
F20B
  8
0
 10
799.8119525226812812
 20
111.920411712434003
 30
0.0
 40
0.0103498185303035
 50
151.138752918401309
 51
219.6723886353354089
  0
ARC
  5
F20C
  8
0
 10
799.5639824760985448
 20
111.7715710242665068
 30
0.0
 40
0.072560226982316
 50
195.9750673802842016
 51
273.6618810470002927
  0
ARC
  5
F20D
  8
0
 10
799.5751129863066353
 20
111.7686726661014944
 30
0.0
 40
0.0698166071555217
 50
264.6610930641219284
 51
347.0553622775776716
  0
ARC
  5
F20E
  8
0
 10
799.5398328986168508
 20
111.7825606552298012
 30
0.0
 40
0.0520394782533489
 50
135.7082980830361976
 51
173.0803729942053053
  0
ARC
  5
F20F
  8
0
 10
799.5604956291523422
 20
111.744380855254704
 30
0.0
 40
0.094376892124958
 50
33.9602335366123782
 51
127.8522703587182008
  0
ARC
  5
F210
  8
0
 10
799.6136532020384493
 20
111.7777164783982045
 30
0.0
 40
0.0317307766974256
 50
352.3457850735654802
 51
37.6560138441149519
  0
ARC
  5
F211
  8
0
 10
799.568579349145466
 20
111.7537773562948047
 30
0.0
 40
0.0237722863354045
 50
224.2028373649555988
 51
316.9866635450488843
  0
ARC
  5
F212
  8
0
 10
799.5789782049248515
 20
111.7440757401085989
 30
0.0
 40
0.0095505579542233
 50
316.9866635450396757
 51
55.043662288748969
  0
ARC
  5
F213
  8
0
 10
799.5689236456966
 20
111.7341152974400984
 30
0.0
 40
0.0236111503263204
 50
48.8833007424487818
 51
141.5224213429717963
  0
ARC
  5
F214
  8
0
 10
799.5595038964644345
 20
111.7438105966074033
 30
0.0
 40
0.0103498185303035
 50
151.138752918401309
 51
219.6723886353354089
  0
LINE
  5
F215
  8
0
 10
799.4942244125953721
 20
111.7516010689329988
 30
0.0
 11
799.4881724691528007
 21
111.7888302105928062
 31
0.0
  0
LINE
  5
F216
  8
0
 10
799.6431553419128022
 20
111.7530330855999949
 30
0.0
 11
799.6451012559829223
 21
111.7734901214648033
 31
0.0
  0
ARC
  5
F217
  8
0
 10
799.5369131490168684
 20
111.7554565339589061
 30
0.0
 40
0.042862487419949
 50
135.9978489484369959
 51
185.1607095392870121
  0
ARC
  5
F218
  8
0
 10
799.5673961676402541
 20
111.7191758519207951
 30
0.0
 40
0.0901274495565696
 50
37.2201911877337466
 51
132.8678624906177106
  0
ARC
  5
F219
  8
0
 10
799.6041341777156504
 20
111.7562129312553054
 30
0.0
 40
0.0391505130704867
 50
355.3412450117157846
 51
26.5168756122326883
  0
ARC
  5
F21A
  8
0
 10
799.2401244039823496
 20
111.9540372894614961
 30
0.0
 40
0.072560226982316
 50
195.9750673802842016
 51
273.6618810470002927
  0
ARC
  5
F21B
  8
0
 10
799.2512549141905538
 20
111.9511389312965974
 30
0.0
 40
0.0698166071555217
 50
264.6610930641219284
 51
347.0553622775776716
  0
ARC
  5
F21C
  8
0
 10
799.2159748265009966
 20
111.9650269204248048
 30
0.0
 40
0.0520394782533489
 50
135.7082980830361976
 51
173.0803729942053053
  0
ARC
  5
F21D
  8
0
 10
799.236637557036147
 20
111.9268471204496933
 30
0.0
 40
0.094376892124958
 50
33.9602335366123782
 51
127.8522703587182008
  0
ARC
  5
F21E
  8
0
 10
799.2897951299224815
 20
111.9601827435931938
 30
0.0
 40
0.0317307766974256
 50
352.3457850735654802
 51
37.6560138441149519
  0
ARC
  5
F21F
  8
0
 10
799.2447212770292708
 20
111.936243621489794
 30
0.0
 40
0.0237722863354045
 50
224.2028373649555988
 51
316.9866635450488843
  0
ARC
  5
F220
  8
0
 10
799.2551201328088837
 20
111.9265420053036024
 30
0.0
 40
0.0095505579542233
 50
316.9866635450396757
 51
55.043662288748969
  0
ARC
  5
F221
  8
0
 10
799.2450655735805185
 20
111.9165815626351019
 30
0.0
 40
0.0236111503263204
 50
48.8833007424487818
 51
141.5224213429717963
  0
ARC
  5
F222
  8
0
 10
799.235645824348353
 20
111.9262768618024069
 30
0.0
 40
0.0103498185303035
 50
151.138752918401309
 51
219.6723886353354089
  0
LINE
  5
F223
  8
0
 10
799.1703663404791769
 20
111.9340673341281018
 30
0.0
 11
799.1643143970367191
 21
111.9712964757877955
 31
0.0
  0
LINE
  5
F224
  8
0
 10
799.3192972697967207
 20
111.9354993507950979
 30
0.0
 11
799.3212431838668408
 21
111.9559563866599063
 31
0.0
  0
ARC
  5
F225
  8
0
 10
799.2130550769006732
 20
111.9379227991538954
 30
0.0
 40
0.042862487419949
 50
135.9978489484369959
 51
185.1607095392870121
  0
ARC
  5
F226
  8
0
 10
799.2435380955241726
 20
111.9016421171158981
 30
0.0
 40
0.0901274495565696
 50
37.2201911877337466
 51
132.8678624906177106
  0
ARC
  5
F227
  8
0
 10
799.2802761055996825
 20
111.9386791964502947
 30
0.0
 40
0.0391505130704867
 50
355.3412450117157846
 51
26.5168756122326883
  0
ARC
  5
F228
  8
0
 10
799.1450293581574442
 20
112.3706702786061982
 30
0.0
 40
0.072560226982316
 50
195.9750673802842016
 51
273.6618810470002927
  0
ARC
  5
F229
  8
0
 10
799.1561598683655347
 20
112.3677719204412995
 30
0.0
 40
0.0698166071555217
 50
264.6610930641219284
 51
347.0553622775776716
  0
ARC
  5
F22A
  8
0
 10
799.1208797806760913
 20
112.3816599095696063
 30
0.0
 40
0.0520394782533489
 50
135.7082980830361976
 51
173.0803729942053053
  0
ARC
  5
F22B
  8
0
 10
799.1415425112112416
 20
112.3434801095943953
 30
0.0
 40
0.094376892124958
 50
33.9602335366123782
 51
127.8522703587182008
  0
ARC
  5
F22C
  8
0
 10
799.1947000840975761
 20
112.3768157327379953
 30
0.0
 40
0.0317307766974256
 50
352.3457850735654802
 51
37.6560138441149519
  0
ARC
  5
F22D
  8
0
 10
799.1496262312043655
 20
112.352876610634496
 30
0.0
 40
0.0237722863354045
 50
224.2028373649555988
 51
316.9866635450488843
  0
ARC
  5
F22E
  8
0
 10
799.160025086984092
 20
112.3431749944483045
 30
0.0
 40
0.0095505579542233
 50
316.9866635450396757
 51
55.043662288748969
  0
ARC
  5
F22F
  8
0
 10
799.1499705277557268
 20
112.3332145517799034
 30
0.0
 40
0.0236111503263204
 50
48.8833007424487818
 51
141.5224213429717963
  0
ARC
  5
F230
  8
0
 10
799.1405507785234477
 20
112.3429098509470947
 30
0.0
 40
0.0103498185303035
 50
151.138752918401309
 51
219.6723886353354089
  0
LINE
  5
F231
  8
0
 10
799.0752712946543852
 20
112.3507003232728039
 30
0.0
 11
799.0692193512119275
 21
112.3879294649324976
 31
0.0
  0
LINE
  5
F232
  8
0
 10
799.224202223971929
 20
112.3521323399398
 30
0.0
 11
799.2261481380420491
 21
112.3725893758045942
 31
0.0
  0
ARC
  5
F233
  8
0
 10
799.1179600310759952
 20
112.3545557882986969
 30
0.0
 40
0.042862487419949
 50
135.9978489484369959
 51
185.1607095392870121
  0
ARC
  5
F234
  8
0
 10
799.1484430496994946
 20
112.3182751062606002
 30
0.0
 40
0.0901274495565696
 50
37.2201911877337466
 51
132.8678624906177106
  0
ARC
  5
F235
  8
0
 10
799.1851810597748909
 20
112.3553121855949968
 30
0.0
 40
0.0391505130704867
 50
355.3412450117157846
 51
26.5168756122326883
  0
ARC
  5
F236
  8
0
 10
800.5389729129174157
 20
112.6388037587550031
 30
0.0
 40
0.0792147379135629
 50
200.3436203291483082
 51
339.6563796708475138
  0
ARC
  5
F237
  8
0
 10
800.9423266504501271
 20
112.6907440695785994
 30
0.0
 40
0.4841951133862587
 50
185.6666001767241028
 51
189.4476982926923938
  0
ARC
  5
F238
  8
0
 10
800.5435926817121981
 20
112.6353296807769055
 30
0.0
 40
0.083442323917643
 50
96.4975264263719623
 51
174.7706781402658862
  0
ARC
  5
F239
  8
0
 10
800.5426220169357521
 20
112.6438523674677015
 30
0.0
 40
0.074864539906781
 50
1.5414536451663681
 51
96.4975264263785988
  0
ARC
  5
F23A
  8
0
 10
800.2982214644158603
 20
112.6671787650803935
 30
0.0
 40
0.3199486285821063
 50
349.9353544624818255
 51
356.1805658973223103
  0
ARC
  5
F23B
  8
0
 10
800.5389729129174157
 20
112.5932400140298029
 30
0.0
 40
0.0764295249413677
 50
13.6408614618150192
 51
166.3591385381866132
  0
ARC
  5
F23C
  8
0
 10
800.5390103440357734
 20
112.6141273436381027
 30
0.0
 40
0.0237722863354045
 50
223.013336454951002
 51
315.7971626350445149
  0
ARC
  5
F23D
  8
0
 10
800.5286114882562742
 20
112.6044257274518969
 30
0.0
 40
0.0095505579542233
 50
124.9563377112509954
 51
223.0133364549602106
  0
ARC
  5
F23E
  8
0
 10
800.5386660474846394
 20
112.5944652847833964
 30
0.0
 40
0.0236111503263204
 50
38.4775786570281468
 51
131.116699257551204
  0
ARC
  5
F23F
  8
0
 10
800.5480857967166912
 20
112.6041605839507014
 30
0.0
 40
0.0103498185303035
 50
320.3276113646646195
 51
28.8612470815986413
  0
ARC
  5
F240
  8
0
 10
800.5429072679613682
 20
110.6700651057577005
 30
0.0
 40
0.072560226982316
 50
266.3381189529995936
 51
344.0249326197156847
  0
ARC
  5
F241
  8
0
 10
800.5317767577532777
 20
110.6671667475927023
 30
0.0
 40
0.0698166071555217
 50
192.9446377224221862
 51
275.3389069358780716
  0
ARC
  5
F242
  8
0
 10
800.5915763426698959
 20
110.677400116800996
 30
0.0
 40
0.0250225321543152
 50
357.3213241151992747
 51
55.3311676382216291
  0
ARC
  5
F243
  8
0
 10
800.5391054766818115
 20
110.5893940816247039
 30
0.0
 40
0.1274377804664113
 50
58.4375303818579965
 51
124.6294151538140937
  0
ARC
  5
F244
  8
0
 10
800.4810996680721473
 20
110.6785939228254989
 30
0.0
 40
0.0212841739290108
 50
132.6220799401314991
 51
192.0765650783320098
  0
ARC
  5
F245
  8
0
 10
800.538310394914447
 20
110.6522714377859984
 30
0.0
 40
0.0237722863354045
 50
223.013336454951002
 51
315.7971626350445149
  0
ARC
  5
F246
  8
0
 10
800.5279115391347204
 20
110.6425698215998068
 30
0.0
 40
0.0095505579542233
 50
124.9563377112509954
 51
223.0133364549602106
  0
ARC
  5
F247
  8
0
 10
800.5379660983630856
 20
110.6326093789313063
 30
0.0
 40
0.0236111503263204
 50
38.4775786570281468
 51
131.116699257551204
  0
ARC
  5
F248
  8
0
 10
800.5473858475952511
 20
110.642304678098597
 30
0.0
 40
0.0103498185303035
 50
320.3276113646646195
 51
28.8612470815986413
  0
LINE
  5
F249
  8
0
 10
800.6126653314645409
 20
110.6500951504242067
 30
0.0
 11
800.6165715336459243
 21
110.6762306966528939
 31
0.0
  0
LINE
  5
F24A
  8
0
 10
800.4637344021468834
 20
110.6515271670912028
 30
0.0
 11
800.4602865364860236
 21
110.6741408774162068
 31
0.0
  0
ARC
  5
F24B
  8
0
 10
800.5699765950430447
 20
110.6539506154500998
 30
0.0
 40
0.042862487419949
 50
354.8392904607130163
 51
44.0021510515629828
  0
ARC
  5
F24C
  8
0
 10
800.5394935764194315
 20
110.617669933412003
 30
0.0
 40
0.0901274495565696
 50
47.1321375093833765
 51
142.7798088122661966
  0
ARC
  5
F24D
  8
0
 10
800.5027555663440353
 20
110.6547070127463996
 30
0.0
 40
0.0391505130704867
 50
153.4831243877673046
 51
184.6587549882841017
  0
ARC
  5
F24E
  8
0
 10
800.5347576114296544
 20
110.8726652192572004
 30
0.0
 40
0.072560226982316
 50
266.3381189529995936
 51
344.0249326197156847
  0
ARC
  5
F24F
  8
0
 10
800.5236271012216775
 20
110.8697668610923017
 30
0.0
 40
0.0698166071555217
 50
192.9446377224221862
 51
275.3389069358780716
  0
ARC
  5
F250
  8
0
 10
800.583426686138182
 20
110.8800002303004959
 30
0.0
 40
0.0250225321543152
 50
357.3213241151992747
 51
55.3311676382216291
  0
ARC
  5
F251
  8
0
 10
800.5309558201503251
 20
110.7919941951243032
 30
0.0
 40
0.1274377804664113
 50
58.4375303818579965
 51
124.6294151538140937
  0
ARC
  5
F252
  8
0
 10
800.4729500115405472
 20
110.8811940363250983
 30
0.0
 40
0.0212841739290108
 50
132.6220799401314991
 51
192.0765650783320098
  0
ARC
  5
F253
  8
0
 10
800.5301607383827331
 20
110.8548715512855978
 30
0.0
 40
0.0237722863354045
 50
223.013336454951002
 51
315.7971626350445149
  0
ARC
  5
F254
  8
0
 10
800.5197618826031203
 20
110.8451699350994062
 30
0.0
 40
0.0095505579542233
 50
124.9563377112509954
 51
223.0133364549602106
  0
ARC
  5
F255
  8
0
 10
800.5298164418315991
 20
110.8352094924309057
 30
0.0
 40
0.0236111503263204
 50
38.4775786570281468
 51
131.116699257551204
  0
ARC
  5
F256
  8
0
 10
800.5392361910637646
 20
110.8449047915981964
 30
0.0
 40
0.0103498185303035
 50
320.3276113646646195
 51
28.8612470815986413
  0
LINE
  5
F257
  8
0
 10
800.6045156749325997
 20
110.8526952639238061
 30
0.0
 11
800.6084218771144378
 21
110.8788308101524933
 31
0.0
  0
LINE
  5
F258
  8
0
 10
800.455584745615397
 20
110.8541272805908022
 30
0.0
 11
800.452136879954196
 21
110.8767409909158062
 31
0.0
  0
ARC
  5
F259
  8
0
 10
800.5618269385114445
 20
110.8565507289496992
 30
0.0
 40
0.042862487419949
 50
354.8392904607130163
 51
44.0021510515629828
  0
ARC
  5
F25A
  8
0
 10
800.531343919887945
 20
110.8202700469116024
 30
0.0
 40
0.0901274495565696
 50
47.1321375093833765
 51
142.7798088122661966
  0
ARC
  5
F25B
  8
0
 10
800.4946059098125488
 20
110.857307126245999
 30
0.0
 40
0.0391505130704867
 50
153.4831243877673046
 51
184.6587549882841017
  0
ARC
  5
F25C
  8
0
 10
800.5166597566810651
 20
111.1066285032681975
 30
0.0
 40
0.072560226982316
 50
266.3381189529995936
 51
344.0249326197156847
  0
ARC
  5
F25D
  8
0
 10
800.5055292464729746
 20
111.1037301451032988
 30
0.0
 40
0.0698166071555217
 50
192.9446377224221862
 51
275.3389069358780716
  0
ARC
  5
F25E
  8
0
 10
800.5653288313894791
 20
111.113963514311493
 30
0.0
 40
0.0250225321543152
 50
357.3213241151992747
 51
55.3311676382216291
  0
ARC
  5
F25F
  8
0
 10
800.5128579654016221
 20
111.0259574791352009
 30
0.0
 40
0.1274377804664113
 50
58.4375303818579965
 51
124.6294151538140937
  0
ARC
  5
F260
  8
0
 10
800.4548521567918442
 20
111.1151573203359959
 30
0.0
 40
0.0212841739290108
 50
132.6220799401314991
 51
192.0765650783320098
  0
ARC
  5
F261
  8
0
 10
800.5120628836341439
 20
111.0888348352964954
 30
0.0
 40
0.0237722863354045
 50
223.013336454951002
 51
315.7971626350445149
  0
ARC
  5
F262
  8
0
 10
800.5016640278546447
 20
111.0791332191103038
 30
0.0
 40
0.0095505579542233
 50
124.9563377112509954
 51
223.0133364549602106
  0
ARC
  5
F263
  8
0
 10
800.5117185870830099
 20
111.0691727764419028
 30
0.0
 40
0.0236111503263204
 50
38.4775786570281468
 51
131.116699257551204
  0
ARC
  5
F264
  8
0
 10
800.5211383363150617
 20
111.0788680756091935
 30
0.0
 40
0.0103498185303035
 50
320.3276113646646195
 51
28.8612470815986413
  0
LINE
  5
F265
  8
0
 10
800.5864178201843515
 20
111.0866585479348032
 30
0.0
 11
800.5903240223657349
 21
111.1127940941634051
 31
0.0
  0
LINE
  5
F266
  8
0
 10
800.4374868908668077
 20
111.0880905646017993
 30
0.0
 11
800.4340390252059478
 21
111.1107042749268032
 31
0.0
  0
ARC
  5
F267
  8
0
 10
800.5437290837628552
 20
111.0905140129606963
 30
0.0
 40
0.042862487419949
 50
354.8392904607130163
 51
44.0021510515629828
  0
ARC
  5
F268
  8
0
 10
800.5132460651392421
 20
111.0542333309225995
 30
0.0
 40
0.0901274495565696
 50
47.1321375093833765
 51
142.7798088122694935
  0
ARC
  5
F269
  8
0
 10
800.4765080550638459
 20
111.0912704102569961
 30
0.0
 40
0.0391505130704867
 50
153.4831243877673046
 51
184.6587549882841017
  0
ARC
  5
F26A
  8
0
 10
800.4427776063514557
 20
111.3898671900504951
 30
0.0
 40
0.072560226982316
 50
266.3381189529995936
 51
344.0249326197156847
  0
ARC
  5
F26B
  8
0
 10
800.4316470961433652
 20
111.3869688318855964
 30
0.0
 40
0.0698166071555217
 50
192.9446377224221862
 51
275.3389069358780716
  0
ARC
  5
F26C
  8
0
 10
800.4756856572032575
 20
111.3939027226974048
 30
0.0
 40
0.0408118389152638
 50
2.9917501184766389
 51
41.1472935853698587
  0
ARC
  5
F26D
  8
0
 10
800.439918618082288
 20
111.3457745537147048
 30
0.0
 40
0.1002221454961678
 50
48.4312742030295382
 51
137.0533034721046874
  0
ARC
  5
F26E
  8
0
 10
800.4381807333046481
 20
111.372073522078793
 30
0.0
 40
0.0237722863354045
 50
223.013336454951002
 51
315.7971626350445149
  0
ARC
  5
F26F
  8
0
 10
800.4277818775250353
 20
111.3623719058926014
 30
0.0
 40
0.0095505579542233
 50
124.9563377112509954
 51
223.0133364549602106
  0
ARC
  5
F270
  8
0
 10
800.4378364367534004
 20
111.3524114632241009
 30
0.0
 40
0.0236111503263204
 50
38.4775786570281468
 51
131.116699257551204
  0
ARC
  5
F271
  8
0
 10
800.4472561859855659
 20
111.3621067623915053
 30
0.0
 40
0.0103498185303035
 50
320.3276113646646195
 51
28.8612470815986413
  0
LINE
  5
F272
  8
0
 10
800.5125356698545147
 20
111.3698972347171008
 30
0.0
 11
800.5164418720362391
 21
111.3960327809458022
 31
0.0
  0
ARC
  5
F273
  8
0
 10
800.4698469334330184
 20
111.3737526997428944
 30
0.0
 40
0.042862487419949
 50
354.8392904607130163
 51
44.0021510515629828
  0
ARC
  5
F274
  8
0
 10
800.4393639148096327
 20
111.3374720177048971
 30
0.0
 40
0.0901274495565696
 50
47.1321375093833765
 51
142.7798088122694935
  0
ARC
  5
F275
  8
0
 10
800.4438708557922837
 20
111.6116945949350026
 30
0.0
 40
0.072560226982316
 50
266.3381189529995936
 51
344.0249326197156847
  0
ARC
  5
F276
  8
0
 10
800.4327403455844205
 20
111.6087962367701039
 30
0.0
 40
0.0698166071555217
 50
192.9446377224221862
 51
275.3389069358780716
  0
ARC
  5
F277
  8
0
 10
800.4767789066440855
 20
111.6157301275817986
 30
0.0
 40
0.0408118389152638
 50
2.9917501184766389
 51
41.1472935853698587
  0
ARC
  5
F278
  8
0
 10
800.4410118675231161
 20
111.567601958599198
 30
0.0
 40
0.1002221454961678
 50
48.4312742030295382
 51
137.0533034721046874
  0
ARC
  5
F279
  8
0
 10
800.3992645308362626
 20
111.6147500961505017
 30
0.0
 40
0.0380280955976737
 50
146.2360400622031875
 51
178.462604956270809
  0
ARC
  5
F27A
  8
0
 10
800.4392739827454761
 20
111.5939009269633004
 30
0.0
 40
0.0237722863354045
 50
223.013336454951002
 51
315.7971626350445149
  0
ARC
  5
F27B
  8
0
 10
800.4288751269657496
 20
111.5841993107770946
 30
0.0
 40
0.0095505579542233
 50
124.9563377112509954
 51
223.0133364549602106
  0
ARC
  5
F27C
  8
0
 10
800.4389296861944558
 20
111.5742388681085941
 30
0.0
 40
0.0236111503263204
 50
38.4775786570281468
 51
131.116699257551204
  0
ARC
  5
F27D
  8
0
 10
800.4483494354266213
 20
111.5839341672758991
 30
0.0
 40
0.0103498185303035
 50
320.3276113646646195
 51
28.8612470815986413
  0
LINE
  5
F27E
  8
0
 10
800.5136289192954564
 20
111.591724639601594
 30
0.0
 11
800.5175351214771808
 21
111.617860185830196
 31
0.0
  0
LINE
  5
F27F
  8
0
 10
800.3646979899782536
 20
111.5931566562686044
 30
0.0
 11
800.3612501243170527
 21
111.6157703665935941
 31
0.0
  0
ARC
  5
F280
  8
0
 10
800.4709401828741875
 20
111.5955801046274019
 30
0.0
 40
0.042862487419949
 50
354.8392904607130163
 51
44.0021510515629828
  0
ARC
  5
F281
  8
0
 10
800.4404571642505744
 20
111.5592994225893051
 30
0.0
 40
0.0901274495565696
 50
47.1321375093833765
 51
142.7798088122694935
  0
ARC
  5
F282
  8
0
 10
800.4037191541750644
 20
111.5963365019238012
 30
0.0
 40
0.0391505130704867
 50
153.4831243877673046
 51
184.6587549882841017
  0
ARC
  5
F283
  8
0
 10
800.8888208228488566
 20
110.7705247433077034
 30
0.0
 40
0.072560226982316
 50
266.3381189529995936
 51
344.0249326197156847
  0
ARC
  5
F284
  8
0
 10
800.877690312640766
 20
110.7676263851427052
 30
0.0
 40
0.0698166071555217
 50
192.9446377224221862
 51
275.3389069358780716
  0
ARC
  5
F285
  8
0
 10
800.9414247093073982
 20
110.7883318399616002
 30
0.0
 40
0.0232125878305968
 50
358.6474638080384807
 51
57.9524309522000109
  0
ARC
  5
F286
  8
0
 10
800.8983625191766578
 20
110.6957659701029968
 30
0.0
 40
0.1251595830343308
 50
63.7384339010841501
 51
130.6368607165317997
  0
ARC
  5
F287
  8
0
 10
800.8381967166884579
 20
110.7686352347619021
 30
0.0
 40
0.0307315896634947
 50
133.9947934631431963
 51
172.880956312002013
  0
ARC
  5
F288
  8
0
 10
800.884223949802049
 20
110.7527310753359018
 30
0.0
 40
0.0237722863354045
 50
223.013336454951002
 51
315.7971626350445149
  0
ARC
  5
F289
  8
0
 10
800.8738250940224361
 20
110.743029459149696
 30
0.0
 40
0.0095505579542233
 50
124.9563377112509954
 51
223.0133364549602106
  0
ARC
  5
F28A
  8
0
 10
800.8838796532508013
 20
110.733069016481295
 30
0.0
 40
0.0236111503263204
 50
38.4775786570281468
 51
131.116699257551204
  0
ARC
  5
F28B
  8
0
 10
800.8932994024829668
 20
110.7427643156485999
 30
0.0
 40
0.0103498185303035
 50
320.3276113646646195
 51
28.8612470815986413
  0
LINE
  5
F28C
  8
0
 10
800.9585788863519156
 20
110.7505547879741954
 30
0.0
 11
800.964630829794487
 21
110.7877839296339033
 31
0.0
  0
LINE
  5
F28D
  8
0
 10
800.8096479570345991
 20
110.7519868046412057
 30
0.0
 11
800.807702042964479
 21
110.7724438405059999
 31
0.0
  0
ARC
  5
F28E
  8
0
 10
800.9158901499304193
 20
110.7544102530000032
 30
0.0
 40
0.042862487419949
 50
354.8392904607130163
 51
44.0021510515629828
  0
ARC
  5
F28F
  8
0
 10
800.8854071313070335
 20
110.7181295709620059
 30
0.0
 40
0.0901274495565696
 50
47.1321375093833765
 51
142.7798088122661966
  0
ARC
  5
F290
  8
0
 10
800.848669121231751
 20
110.7551666502964025
 30
0.0
 40
0.0391505130704867
 50
153.4831243877673046
 51
184.6587549882841017
  0
ARC
  5
F291
  8
0
 10
800.8539204722302429
 20
111.0035483749066003
 30
0.0
 40
0.072560226982316
 50
266.3381189529995936
 51
344.0249326197156847
  0
ARC
  5
F292
  8
0
 10
800.8427899620221524
 20
111.0006500167417016
 30
0.0
 40
0.0698166071555217
 50
192.9446377224221862
 51
275.3389069358780716
  0
ARC
  5
F293
  8
0
 10
800.9065243586886709
 20
111.0213554715604971
 30
0.0
 40
0.0232125878305968
 50
358.6474638080384807
 51
57.9524309522000109
  0
ARC
  5
F294
  8
0
 10
800.8634621685580441
 20
110.9287896017018937
 30
0.0
 40
0.1251595830343308
 50
63.7384339010841501
 51
130.6368607165317997
  0
ARC
  5
F295
  8
0
 10
800.8032963660697305
 20
111.0016588663608985
 30
0.0
 40
0.0307315896634947
 50
133.9947934631431963
 51
172.880956312002013
  0
ARC
  5
F296
  8
0
 10
800.8493235991833217
 20
110.9857547069348982
 30
0.0
 40
0.0237722863354045
 50
223.013336454951002
 51
315.7971626350445149
  0
ARC
  5
F297
  8
0
 10
800.8389247434037088
 20
110.9760530907487066
 30
0.0
 40
0.0095505579542233
 50
124.9563377112509954
 51
223.0133364549602106
  0
ARC
  5
F298
  8
0
 10
800.848979302632074
 20
110.9660926480802061
 30
0.0
 40
0.0236111503263204
 50
38.4775786570281468
 51
131.116699257551204
  0
ARC
  5
F299
  8
0
 10
800.8583990518642395
 20
110.9757879472474968
 30
0.0
 40
0.0103498185303035
 50
320.3276113646646195
 51
28.8612470815986413
  0
LINE
  5
F29A
  8
0
 10
800.9236785357331883
 20
110.983578419573206
 30
0.0
 11
800.9297304791757597
 21
111.0208075612328997
 31
0.0
  0
LINE
  5
F29B
  8
0
 10
800.7747476064157581
 20
110.9850104362402021
 30
0.0
 11
800.7728016923457517
 21
111.0054674721049963
 31
0.0
  0
ARC
  5
F29C
  8
0
 10
800.880989799311692
 20
110.9874338845989996
 30
0.0
 40
0.042862487419949
 50
354.8392904607130163
 51
44.0021510515629828
  0
ARC
  5
F29D
  8
0
 10
800.8505067806883062
 20
110.9511532025609029
 30
0.0
 40
0.0901274495565696
 50
47.1321375093833765
 51
142.7798088122661966
  0
ARC
  5
F29E
  8
0
 10
800.81376877061291
 20
110.9881902818953989
 30
0.0
 40
0.0391505130704867
 50
153.4831243877673046
 51
184.6587549882841017
  0
ARC
  5
F29F
  8
0
 10
800.7673430614994459
 20
111.2845751796126024
 30
0.0
 40
0.072560226982316
 50
266.3381189529995936
 51
344.0249326197156847
  0
ARC
  5
F2A0
  8
0
 10
800.7562125512912417
 20
111.2816768214477037
 30
0.0
 40
0.0698166071555217
 50
192.9446377224221862
 51
275.3389069358780716
  0
ARC
  5
F2A1
  8
0
 10
800.8199469479577601
 20
111.3023822762664992
 30
0.0
 40
0.0232125878305968
 50
358.6474638080384807
 51
57.9524309522000109
  0
ARC
  5
F2A2
  8
0
 10
800.7768847578271334
 20
111.2098164064078958
 30
0.0
 40
0.1251595830343308
 50
63.7384339010841501
 51
130.6368607165317997
  0
ARC
  5
F2A3
  8
0
 10
800.7167189553388198
 20
111.2826856710669006
 30
0.0
 40
0.0307315896634947
 50
133.9947934631431963
 51
172.880956312002013
  0
ARC
  5
F2A4
  8
0
 10
800.7627461884524109
 20
111.2667815116409002
 30
0.0
 40
0.0237722863354045
 50
223.013336454951002
 51
315.7971626350445149
  0
ARC
  5
F2A5
  8
0
 10
800.7523473326729118
 20
111.2570798954546945
 30
0.0
 40
0.0095505579542233
 50
124.9563377112509954
 51
223.0133364549602106
  0
ARC
  5
F2A6
  8
0
 10
800.7624018919012769
 20
111.247119452786194
 30
0.0
 40
0.0236111503263204
 50
38.4775786570281468
 51
131.116699257551204
  0
ARC
  5
F2A7
  8
0
 10
800.7718216411333287
 20
111.2568147519534989
 30
0.0
 40
0.0103498185303035
 50
320.3276113646646195
 51
28.8612470815986413
  0
LINE
  5
F2A8
  8
0
 10
800.8371011250025049
 20
111.2646052242791939
 30
0.0
 11
800.8431530684449626
 21
111.3018343659389018
 31
0.0
  0
LINE
  5
F2A9
  8
0
 10
800.6881701956850748
 20
111.2660372409461047
 30
0.0
 11
800.6862242816149546
 21
111.2864942768109984
 31
0.0
  0
ARC
  5
F2AA
  8
0
 10
800.7944123885810086
 20
111.2684606893050017
 30
0.0
 40
0.042862487419949
 50
354.8392904607130163
 51
44.0021510515629828
  0
ARC
  5
F2AB
  8
0
 10
800.7639293699575092
 20
111.2321800072669049
 30
0.0
 40
0.0901274495565696
 50
47.1321375093833765
 51
142.7798088122694935
  0
ARC
  5
F2AC
  8
0
 10
800.7271913598819992
 20
111.269217086601401
 30
0.0
 40
0.0391505130704867
 50
153.4831243877673046
 51
184.6587549882841017
  0
ARC
  5
F2AD
  8
0
 10
801.1879095702960285
 20
110.9323640806233016
 30
0.0
 40
0.072560226982316
 50
266.3381189529995936
 51
344.0249326197156847
  0
ARC
  5
F2AE
  8
0
 10
801.1767790600880517
 20
110.9294657224583034
 30
0.0
 40
0.0698166071555217
 50
192.9446377224221862
 51
275.3389069358780716
  0
ARC
  5
F2AF
  8
0
 10
801.2405134567546838
 20
110.9501711772771984
 30
0.0
 40
0.0232125878305968
 50
358.6474638080384807
 51
57.9524309522000109
  0
ARC
  5
F2B0
  8
0
 10
801.1974512666236024
 20
110.857605307418595
 30
0.0
 40
0.1251595830343308
 50
63.7384339010841501
 51
130.6368607165317997
  0
ARC
  5
F2B1
  8
0
 10
801.1372854641354024
 20
110.9304745720775003
 30
0.0
 40
0.0307315896634947
 50
133.9947934631431963
 51
172.880956312002013
  0
ARC
  5
F2B2
  8
0
 10
801.1833126972489936
 20
110.9145704126515994
 30
0.0
 40
0.0237722863354045
 50
223.013336454951002
 51
315.7971626350445149
  0
ARC
  5
F2B3
  8
0
 10
801.1729138414694944
 20
110.9048687964653936
 30
0.0
 40
0.0095505579542233
 50
124.9563377112509954
 51
223.0133364549602106
  0
ARC
  5
F2B4
  8
0
 10
801.1829684006978596
 20
110.8949083537968932
 30
0.0
 40
0.0236111503263204
 50
38.4775786570281468
 51
131.116699257551204
  0
ARC
  5
F2B5
  8
0
 10
801.1923881499299114
 20
110.9046036529641981
 30
0.0
 40
0.0103498185303035
 50
320.3276113646646195
 51
28.8612470815986413
  0
LINE
  5
F2B6
  8
0
 10
801.2576676337990875
 20
110.9123941252897936
 30
0.0
 11
801.2637195772415453
 21
110.949623266949601
 31
0.0
  0
LINE
  5
F2B7
  8
0
 10
801.1087367044818848
 20
110.9138261419568039
 30
0.0
 11
801.1067907904115373
 21
110.9342831778216976
 31
0.0
  0
ARC
  5
F2B8
  8
0
 10
801.2149788973777049
 20
110.9162495903157009
 30
0.0
 40
0.042862487419949
 50
354.8392904607130163
 51
44.0021510515629828
  0
ARC
  5
F2B9
  8
0
 10
801.1844958787540918
 20
110.8799689082776041
 30
0.0
 40
0.0901274495565696
 50
47.1321375093833765
 51
142.7798088122661966
  0
ARC
  5
F2BA
  8
0
 10
801.1477578686790366
 20
110.9170059876120007
 30
0.0
 40
0.0391505130704867
 50
153.4831243877673046
 51
184.6587549882841017
  0
ARC
  5
F2BB
  8
0
 10
801.4164117127959344
 20
111.1423470846559951
 30
0.0
 40
0.072560226982316
 50
266.3381189529995936
 51
344.0249326197156847
  0
ARC
  5
F2BC
  8
0
 10
801.4052812025878438
 20
111.1394487264909969
 30
0.0
 40
0.0698166071555217
 50
192.9446377224221862
 51
275.3389069358780716
  0
ARC
  5
F2BD
  8
0
 10
801.4690155992543623
 20
111.1601541813099061
 30
0.0
 40
0.0232125878305968
 50
358.6474638080384807
 51
57.9524309522000109
  0
ARC
  5
F2BE
  8
0
 10
801.4259534091233945
 20
111.0675883114513027
 30
0.0
 40
0.1251595830343308
 50
63.7384339010841501
 51
130.6368607165317997
  0
ARC
  5
F2BF
  8
0
 10
801.3657876066353083
 20
111.1404575761101938
 30
0.0
 40
0.0307315896634947
 50
133.9947934631431963
 51
172.880956312002013
  0
ARC
  5
F2C0
  8
0
 10
801.4118148397491268
 20
111.1245534166841935
 30
0.0
 40
0.0237722863354045
 50
223.013336454951002
 51
315.7971626350445149
  0
ARC
  5
F2C1
  8
0
 10
801.4014159839694003
 20
111.1148518004980019
 30
0.0
 40
0.0095505579542233
 50
124.9563377112509954
 51
223.0133364549602106
  0
ARC
  5
F2C2
  8
0
 10
801.4114705431977654
 20
111.1048913578296009
 30
0.0
 40
0.0236111503263204
 50
38.4775786570281468
 51
131.116699257551204
  0
ARC
  5
F2C3
  8
0
 10
801.4208902924300446
 20
111.1145866569968064
 30
0.0
 40
0.0103498185303035
 50
320.3276113646646195
 51
28.8612470815986413
  0
LINE
  5
F2C4
  8
0
 10
801.4861697762992208
 20
111.1223771293225013
 30
0.0
 11
801.4922217197416785
 21
111.159606270982195
 31
0.0
  0
LINE
  5
F2C5
  8
0
 10
801.3372388469815633
 20
111.1238091459894974
 30
0.0
 11
801.3352929329115568
 21
111.1442661818543058
 31
0.0
  0
ARC
  5
F2C6
  8
0
 10
801.4434810398777245
 20
111.1262325943482949
 30
0.0
 40
0.042862487419949
 50
354.8392904607130163
 51
44.0021510515629828
  0
ARC
  5
F2C7
  8
0
 10
801.4129980212539976
 20
111.0899519123102976
 30
0.0
 40
0.0901274495565696
 50
47.1321375093833765
 51
142.7798088122661966
  0
ARC
  5
F2C8
  8
0
 10
801.3762600111787151
 20
111.1269889916446942
 30
0.0
 40
0.0391505130704867
 50
153.4831243877673046
 51
184.6587549882841017
  0
ARC
  5
F2C9
  8
0
 10
801.0913932537361006
 20
111.2038416460607948
 30
0.0
 40
0.072560226982316
 50
266.3381189529995936
 51
344.0249326197156847
  0
ARC
  5
F2CA
  8
0
 10
801.0802627435280101
 20
111.2009432878958961
 30
0.0
 40
0.0698166071555217
 50
192.9446377224221862
 51
275.3389069358780716
  0
ARC
  5
F2CB
  8
0
 10
801.1439971401944149
 20
111.2216487427147058
 30
0.0
 40
0.0232125878305968
 50
358.6474638080384807
 51
57.9524309522000109
  0
ARC
  5
F2CC
  8
0
 10
801.1009349500636745
 20
111.1290828728561024
 30
0.0
 40
0.1251595830343308
 50
63.7384339010841501
 51
130.6368607165317997
  0
ARC
  5
F2CD
  8
0
 10
801.0407691475754746
 20
111.201952137515093
 30
0.0
 40
0.0307315896634947
 50
133.9947934631431963
 51
172.880956312002013
  0
ARC
  5
F2CE
  8
0
 10
801.0867963806890657
 20
111.1860479780891069
 30
0.0
 40
0.0237722863354045
 50
223.013336454951002
 51
315.7971626350445149
  0
ARC
  5
F2CF
  8
0
 10
801.0763975249095665
 20
111.1763463619029011
 30
0.0
 40
0.0095505579542233
 50
124.9563377112509954
 51
223.0133364549602106
  0
ARC
  5
F2D0
  8
0
 10
801.086452084137818
 20
111.1663859192344006
 30
0.0
 40
0.0236111503263204
 50
38.4775786570281468
 51
131.116699257551204
  0
ARC
  5
F2D1
  8
0
 10
801.0958718333699835
 20
111.1760812184017055
 30
0.0
 40
0.0103498185303035
 50
320.3276113646646195
 51
28.8612470815986413
  0
LINE
  5
F2D2
  8
0
 10
801.161151317239046
 20
111.1838716907274005
 30
0.0
 11
801.1672032606817311
 21
111.2211008323870942
 31
0.0
  0
LINE
  5
F2D3
  8
0
 10
801.0122203879216158
 20
111.1853037073943966
 30
0.0
 11
801.0102744738516094
 21
111.205760743259205
 31
0.0
  0
ARC
  5
F2D4
  8
0
 10
801.1184625808175497
 20
111.1877271557531941
 30
0.0
 40
0.042862487419949
 50
354.8392904607130163
 51
44.0021510515629828
  0
ARC
  5
F2D5
  8
0
 10
801.0879795621941639
 20
111.1514464737150973
 30
0.0
 40
0.0901274495565696
 50
47.1321375093833765
 51
142.7798088122694935
  0
ARC
  5
F2D6
  8
0
 10
801.051241552118654
 20
111.1884835530495934
 30
0.0
 40
0.0391505130704867
 50
153.4831243877673046
 51
184.6587549882841017
  0
ARC
  5
F2D7
  8
0
 10
800.8592259611234567
 20
111.5288840496588989
 30
0.0
 40
0.072560226982316
 50
266.3381189529995936
 51
344.0249326197156847
  0
ARC
  5
F2D8
  8
0
 10
800.8480954509155936
 20
111.5259856914939007
 30
0.0
 40
0.0698166071555217
 50
192.9446377224221862
 51
275.3389069358780716
  0
ARC
  5
F2D9
  8
0
 10
800.9118298475822257
 20
111.5466911463127957
 30
0.0
 40
0.0232125878305968
 50
358.6474638080384807
 51
57.9524309522000109
  0
ARC
  5
F2DA
  8
0
 10
800.8659025692818432
 20
111.4768441746417977
 30
0.0
 40
0.1068018071661921
 50
56.9513836582390383
 51
137.4239109593706871
  0
ARC
  5
F2DB
  8
0
 10
800.8086018549629443
 20
111.5269945411130976
 30
0.0
 40
0.0307315896634947
 50
133.9947934631431963
 51
172.880956312002013
  0
ARC
  5
F2DC
  8
0
 10
800.8546290880766492
 20
111.5110903816871968
 30
0.0
 40
0.0237722863354045
 50
223.013336454951002
 51
315.7971626350445149
  0
ARC
  5
F2DD
  8
0
 10
800.84423023229715
 20
111.5013887655010052
 30
0.0
 40
0.0095505579542233
 50
124.9563377112509954
 51
223.0133364549602106
  0
ARC
  5
F2DE
  8
0
 10
800.8542847915254015
 20
111.4914283228325047
 30
0.0
 40
0.0236111503263204
 50
38.4775786570281468
 51
131.116699257551204
  0
ARC
  5
F2DF
  8
0
 10
800.863704540757567
 20
111.5011236219997954
 30
0.0
 40
0.0103498185303035
 50
320.3276113646646195
 51
28.8612470815986413
  0
LINE
  5
F2E0
  8
0
 10
800.9289840246267431
 20
111.5089140943254051
 30
0.0
 11
800.9350359680690872
 21
111.5461432359851983
 31
0.0
  0
LINE
  5
F2E1
  8
0
 10
800.7800530953094267
 20
111.5103461109924012
 30
0.0
 11
800.7781071812389655
 21
111.5308031468571954
 31
0.0
  0
ARC
  5
F2E2
  8
0
 10
800.8862952882052468
 20
111.5127695593512982
 30
0.0
 40
0.042862487419949
 50
354.8392904607130163
 51
44.0021510515629828
  0
ARC
  5
F2E3
  8
0
 10
800.8558122695816337
 20
111.4764888773132014
 30
0.0
 40
0.0901274495565696
 50
47.1321375093833765
 51
142.7798088122694935
  0
ARC
  5
F2E4
  8
0
 10
800.8190742595064648
 20
111.513525956647598
 30
0.0
 40
0.0391505130704867
 50
153.4831243877673046
 51
184.6587549882841017
  0
ARC
  5
F2E5
  8
0
 10
801.2180924078679709
 20
111.4479360443375953
 30
0.0
 40
0.072560226982316
 50
266.3381189529995936
 51
344.0249326197156847
  0
ARC
  5
F2E6
  8
0
 10
801.2069618976601078
 20
111.4450376861726966
 30
0.0
 40
0.0698166071555217
 50
192.9446377224221862
 51
275.3389069358780716
  0
ARC
  5
F2E7
  8
0
 10
801.2706962943267399
 20
111.4657431409916057
 30
0.0
 40
0.0232125878305968
 50
358.6474638080384807
 51
57.9524309522000109
  0
ARC
  5
F2E8
  8
0
 10
801.2276341041956584
 20
111.3731772711329029
 30
0.0
 40
0.1251595830343308
 50
63.7384339010841501
 51
130.6368607165317997
  0
ARC
  5
F2E9
  8
0
 10
801.1674683017074585
 20
111.4460465357918935
 30
0.0
 40
0.0307315896634947
 50
133.9947934631431963
 51
172.880956312002013
  0
ARC
  5
F2EA
  8
0
 10
801.2134955348211633
 20
111.4301423763658931
 30
0.0
 40
0.0237722863354045
 50
223.013336454951002
 51
315.7971626350445149
  0
ARC
  5
F2EB
  8
0
 10
801.2030966790415505
 20
111.4204407601797016
 30
0.0
 40
0.0095505579542233
 50
124.9563377112509954
 51
223.0133364549602106
  0
ARC
  5
F2EC
  8
0
 10
801.213151238270143
 20
111.4104803175112011
 30
0.0
 40
0.0236111503263204
 50
38.4775786570281468
 51
131.116699257551204
  0
ARC
  5
F2ED
  8
0
 10
801.2225709875023085
 20
111.420175616678506
 30
0.0
 40
0.0103498185303035
 50
320.3276113646646195
 51
28.8612470815986413
  0
LINE
  5
F2EE
  8
0
 10
801.2878504713711436
 20
111.427966089004201
 30
0.0
 11
801.2939024148138287
 21
111.4651952306638947
 31
0.0
  0
LINE
  5
F2EF
  8
0
 10
801.1389195420539409
 20
111.4293981056711971
 30
0.0
 11
801.1369736279839344
 21
111.4498551415360055
 31
0.0
  0
ARC
  5
F2F0
  8
0
 10
801.245161734949761
 20
111.4318215540299946
 30
0.0
 40
0.042862487419949
 50
354.8392904607130163
 51
44.0021510515629828
  0
ARC
  5
F2F1
  8
0
 10
801.2146787163262616
 20
111.3955408719918978
 30
0.0
 40
0.0901274495565696
 50
47.1321375093833765
 51
142.7798088122694935
  0
ARC
  5
F2F2
  8
0
 10
801.177940706250979
 20
111.4325779513263939
 30
0.0
 40
0.0391505130704867
 50
153.4831243877673046
 51
184.6587549882841017
  0
ARC
  5
F2F3
  8
0
 10
801.5587000092430117
 20
111.3889498184231002
 30
0.0
 40
0.072560226982316
 50
266.3381189529995936
 51
344.0249326197156847
  0
ARC
  5
F2F4
  8
0
 10
801.5475694990350348
 20
111.3860514602582015
 30
0.0
 40
0.0698166071555217
 50
192.9446377224221862
 51
275.3389069358780716
  0
ARC
  5
F2F5
  8
0
 10
801.6113038957015533
 20
111.406756915076997
 30
0.0
 40
0.0232125878305968
 50
358.6474638080384807
 51
57.9524309522000109
  0
ARC
  5
F2F6
  8
0
 10
801.5682417055709266
 20
111.3141910452183936
 30
0.0
 40
0.1251595830343308
 50
63.7384339010841501
 51
130.6368607165317997
  0
ARC
  5
F2F7
  8
0
 10
801.508075903082613
 20
111.3870603098773984
 30
0.0
 40
0.0307315896634947
 50
133.9947934631431963
 51
172.880956312002013
  0
ARC
  5
F2F8
  8
0
 10
801.5541031361962041
 20
111.371156150451398
 30
0.0
 40
0.0237722863354045
 50
223.013336454951002
 51
315.7971626350445149
  0
ARC
  5
F2F9
  8
0
 10
801.5437042804164776
 20
111.3614545342652065
 30
0.0
 40
0.0095505579542233
 50
124.9563377112509954
 51
223.0133364549602106
  0
ARC
  5
F2FA
  8
0
 10
801.5537588396449564
 20
111.351494091596706
 30
0.0
 40
0.0236111503263204
 50
38.4775786570281468
 51
131.116699257551204
  0
ARC
  5
F2FB
  8
0
 10
801.5631785888771219
 20
111.3611893907639967
 30
0.0
 40
0.0103498185303035
 50
320.3276113646646195
 51
28.8612470815986413
  0
LINE
  5
F2FC
  8
0
 10
801.6284580727460707
 20
111.3689798630897059
 30
0.0
 11
801.6345100161887558
 21
111.4062090047493996
 31
0.0
  0
LINE
  5
F2FD
  8
0
 10
801.4795271434287542
 20
111.370411879756702
 30
0.0
 11
801.4775812293587478
 21
111.3908689156214962
 31
0.0
  0
ARC
  5
F2FE
  8
0
 10
801.5857693363245744
 20
111.3728353281154995
 30
0.0
 40
0.042862487419949
 50
354.8392904607130163
 51
44.0021510515629828
  0
ARC
  5
F2FF
  8
0
 10
801.5552863177011886
 20
111.3365546460774027
 30
0.0
 40
0.0901274495565696
 50
47.1321375093833765
 51
142.7798088122694935
  0
ARC
  5
F300
  8
0
 10
801.5185483076257924
 20
111.3735917254118988
 30
0.0
 40
0.0391505130704867
 50
153.4831243877673046
 51
184.6587549882841017
  0
ARC
  5
F301
  8
0
 10
801.6077610298408445
 20
111.6515026327398061
 30
0.0
 40
0.072560226982316
 50
266.3381189529995936
 51
344.0249326197156847
  0
ARC
  5
F302
  8
0
 10
801.5966305196328676
 20
111.6486042745748932
 30
0.0
 40
0.0698166071555217
 50
192.9446377224221862
 51
275.3389069358780716
  0
ARC
  5
F303
  8
0
 10
801.646310411043487
 20
111.6786360950861052
 30
0.0
 40
0.0385467969834106
 50
345.1574709292044076
 51
75.3273479086733744
  0
ARC
  5
F304
  8
0
 10
801.6312956147172599
 20
111.5975982359992003
 30
0.0
 40
0.1208941564756426
 50
78.1727997481990116
 51
142.1841622298838956
  0
ARC
  5
F305
  8
0
 10
801.5571369236804458
 20
111.6496131241941043
 30
0.0
 40
0.0307315896634947
 50
133.9947934631431963
 51
172.880956312002013
  0
ARC
  5
F306
  8
0
 10
801.6031641567940369
 20
111.633708964768104
 30
0.0
 40
0.0237722863354045
 50
223.013336454951002
 51
315.7971626350445149
  0
ARC
  5
F307
  8
0
 10
801.5927653010143104
 20
111.6240073485818982
 30
0.0
 40
0.0095505579542233
 50
124.9563377112509954
 51
223.0133364549602106
  0
ARC
  5
F308
  8
0
 10
801.6028198602429029
 20
111.6140469059133977
 30
0.0
 40
0.0236111503263204
 50
38.4775786570281468
 51
131.116699257551204
  0
ARC
  5
F309
  8
0
 10
801.6122396094749547
 20
111.6237422050807027
 30
0.0
 40
0.0103498185303035
 50
320.3276113646646195
 51
28.8612470815986413
  0
LINE
  5
F30A
  8
0
 10
801.6775190933437898
 20
111.6315326774063976
 30
0.0
 11
801.683571036786816
 21
111.6687618190661055
 31
0.0
  0
LINE
  5
F30B
  8
0
 10
801.5285881640264734
 20
111.6329646940733937
 30
0.0
 11
801.5266422499565806
 21
111.6534217299382021
 31
0.0
  0
ARC
  5
F30C
  8
0
 10
801.6348303569227483
 20
111.6353881424322054
 30
0.0
 40
0.042862487419949
 50
354.8392904607130163
 51
44.0021510515629828
  0
ARC
  5
F30D
  8
0
 10
801.6043473382991351
 20
111.5991074603941939
 30
0.0
 40
0.0901274495565696
 50
47.1321375093833765
 51
142.7798088122694935
  0
ARC
  5
F30E
  8
0
 10
801.5676093282233978
 20
111.6361445397286047
 30
0.0
 40
0.0391505130704867
 50
153.4831243877673046
 51
184.6587549882841017
  0
ARC
  5
F30F
  8
0
 10
801.2160301946748859
 20
111.709565105057294
 30
0.0
 40
0.072560226982316
 50
266.3381189529995936
 51
344.0249326197156847
  0
ARC
  5
F310
  8
0
 10
801.2048996844666817
 20
111.7066667468922958
 30
0.0
 40
0.0698166071555217
 50
192.9446377224221862
 51
275.3389069358780716
  0
ARC
  5
F311
  8
0
 10
801.2545795758777558
 20
111.7366985674034936
 30
0.0
 40
0.0385467969834106
 50
345.1574709292044076
 51
75.3273479086733744
  0
ARC
  5
F312
  8
0
 10
801.2395647795514151
 20
111.6556607083167023
 30
0.0
 40
0.1208941564756426
 50
78.1727997481990116
 51
142.1841622298838956
  0
ARC
  5
F313
  8
0
 10
801.1654060885144872
 20
111.7076755965115069
 30
0.0
 40
0.0307315896634947
 50
133.9947934631431963
 51
172.880956312002013
  0
ARC
  5
F314
  8
0
 10
801.2114333216280784
 20
111.6917714370856061
 30
0.0
 40
0.0237722863354045
 50
223.013336454951002
 51
315.7971626350445149
  0
ARC
  5
F315
  8
0
 10
801.2010344658483518
 20
111.6820698208994003
 30
0.0
 40
0.0095505579542233
 50
124.9563377112509954
 51
223.0133364549602106
  0
ARC
  5
F316
  8
0
 10
801.2110890250768307
 20
111.6721093782308998
 30
0.0
 40
0.0236111503263204
 50
38.4775786570281468
 51
131.116699257551204
  0
ARC
  5
F317
  8
0
 10
801.2205087743089962
 20
111.6818046773982047
 30
0.0
 40
0.0103498185303035
 50
320.3276113646646195
 51
28.8612470815986413
  0
LINE
  5
F318
  8
0
 10
801.285788258177945
 20
111.6895951497238002
 30
0.0
 11
801.2918402016206301
 21
111.7268242913835934
 31
0.0
  0
LINE
  5
F319
  8
0
 10
801.1368573288606285
 20
111.6910271663907963
 30
0.0
 11
801.1349114147903947
 21
111.7114842022556047
 31
0.0
  0
ARC
  5
F31A
  8
0
 10
801.2430995217564487
 20
111.6934506147496933
 30
0.0
 40
0.042862487419949
 50
354.8392904607130163
 51
44.0021510515629828
  0
ARC
  5
F31B
  8
0
 10
801.2126165031330629
 20
111.6571699327115965
 30
0.0
 40
0.0901274495565696
 50
47.1321375093833765
 51
142.7798088122694935
  0
ARC
  5
F31C
  8
0
 10
801.175878493057553
 20
111.6942070120459931
 30
0.0
 40
0.0391505130704867
 50
153.4831243877673046
 51
184.6587549882841017
  0
ARC
  5
F31D
  8
0
 10
801.5580811362062832
 20
111.9146854511196949
 30
0.0
 40
0.072560226982316
 50
266.3381189529995936
 51
344.0249326197156847
  0
ARC
  5
F31E
  8
0
 10
801.5469506259981927
 20
111.9117870929546967
 30
0.0
 40
0.0698166071555217
 50
192.9446377224221862
 51
275.3389069358780716
  0
ARC
  5
F31F
  8
0
 10
801.5966305174091531
 20
111.9418189134658945
 30
0.0
 40
0.0385467969834106
 50
345.1574709292044076
 51
75.3273479086733744
  0
ARC
  5
F320
  8
0
 10
801.5816157210828123
 20
111.8607810543790038
 30
0.0
 40
0.1208941564756426
 50
78.1727997481990116
 51
142.1841622298838956
  0
ARC
  5
F321
  8
0
 10
801.5074570300458845
 20
111.9127959425738936
 30
0.0
 40
0.0307315896634947
 50
133.9947934631431963
 51
172.880956312002013
  0
ARC
  5
F322
  8
0
 10
801.5534842631594756
 20
111.8968917831478933
 30
0.0
 40
0.0237722863354045
 50
223.013336454951002
 51
315.7971626350445149
  0
ARC
  5
F323
  8
0
 10
801.5430854073797491
 20
111.8871901669618012
 30
0.0
 40
0.0095505579542233
 50
124.9563377112509954
 51
223.0133364549602106
  0
ARC
  5
F324
  8
0
 10
801.553139966608228
 20
111.8772297242933007
 30
0.0
 40
0.0236111503263204
 50
38.4775786570281468
 51
131.116699257551204
  0
ARC
  5
F325
  8
0
 10
801.5625597158403934
 20
111.8869250234606056
 30
0.0
 40
0.0103498185303035
 50
320.3276113646646195
 51
28.8612470815986413
  0
LINE
  5
F326
  8
0
 10
801.6278391997094559
 20
111.8947154957862011
 30
0.0
 11
801.6338911431519136
 21
111.9319446374459943
 31
0.0
  0
LINE
  5
F327
  8
0
 10
801.4789082703920258
 20
111.8961475124531972
 30
0.0
 11
801.4769623563219056
 21
111.9166045483180056
 31
0.0
  0
ARC
  5
F328
  8
0
 10
801.5851504632878459
 20
111.8985709608120942
 30
0.0
 40
0.042862487419949
 50
354.8392904607130163
 51
44.0021510515629828
  0
ARC
  5
F329
  8
0
 10
801.5546674446643465
 20
111.8622902787739974
 30
0.0
 40
0.0901274495565696
 50
47.1321375093833765
 51
142.7798088122694935
  0
ARC
  5
F32A
  8
0
 10
801.5179294345890639
 20
111.899327358108394
 30
0.0
 40
0.0391505130704867
 50
153.4831243877673046
 51
184.6587549882841017
  0
ARC
  5
F32B
  8
0
 10
801.4157001481895577
 20
112.1592336686322966
 30
0.0
 40
0.072560226982316
 50
266.3381189529995936
 51
344.0249326197156847
  0
ARC
  5
F32C
  8
0
 10
801.4045696379814672
 20
112.1563353104673979
 30
0.0
 40
0.0698166071555217
 50
192.9446377224221862
 51
275.3389069358780716
  0
ARC
  5
F32D
  8
0
 10
801.4542495293923139
 20
112.1863671309785957
 30
0.0
 40
0.0385467969834106
 50
345.1574709292044076
 51
75.3273479086733744
  0
ARC
  5
F32E
  8
0
 10
801.4301909848762762
 20
112.1299379766338973
 30
0.0
 40
0.0996352297312329
 50
70.1559441457520592
 51
150.2010178323342018
  0
ARC
  5
F32F
  8
0
 10
801.3650760420290453
 20
112.1573441600865948
 30
0.0
 40
0.0307315896634947
 50
133.9947934631431963
 51
172.880956312002013
  0
ARC
  5
F330
  8
0
 10
801.4111032751426364
 20
112.1414400006605945
 30
0.0
 40
0.0237722863354045
 50
223.013336454951002
 51
315.7971626350445149
  0
ARC
  5
F331
  8
0
 10
801.4007044193629099
 20
112.1317383844744029
 30
0.0
 40
0.0095505579542233
 50
124.9563377112509954
 51
223.0133364549602106
  0
ARC
  5
F332
  8
0
 10
801.4107589785912751
 20
112.1217779418059024
 30
0.0
 40
0.0236111503263204
 50
38.4775786570281468
 51
131.116699257551204
  0
ARC
  5
F333
  8
0
 10
801.4201787278235543
 20
112.1314732409731931
 30
0.0
 40
0.0103498185303035
 50
320.3276113646646195
 51
28.8612470815986413
  0
LINE
  5
F334
  8
0
 10
801.4854582116926167
 20
112.1392637132989023
 30
0.0
 11
801.4915101551354155
 21
112.176492854958596
 31
0.0
  0
LINE
  5
F335
  8
0
 10
801.3365272823750729
 20
112.1406957299658984
 30
0.0
 11
801.3345813683049528
 21
112.1611527658307068
 31
0.0
  0
ARC
  5
F336
  8
0
 10
801.4427694752711204
 20
112.1431191783246959
 30
0.0
 40
0.042862487419949
 50
354.8392904607130163
 51
44.0021510515629828
  0
ARC
  5
F337
  8
0
 10
801.4122864566478484
 20
112.1068384962865991
 30
0.0
 40
0.0901274495565696
 50
47.1321375093833765
 51
142.7798088122694935
  0
ARC
  5
F338
  8
0
 10
801.3755484465722247
 20
112.1438755756210952
 30
0.0
 40
0.0391505130704867
 50
153.4831243877673046
 51
184.6587549882841017
  0
ARC
  5
F339
  8
0
 10
800.8873020240496317
 20
112.5385176029648022
 30
0.0
 40
0.0792147379135629
 50
200.3436203291483082
 51
339.6563796708475138
  0
ARC
  5
F33A
  8
0
 10
801.2906557615822294
 20
112.5904579137883985
 30
0.0
 40
0.4841951133862587
 50
185.6666001767241028
 51
189.4476982926923938
  0
ARC
  5
F33B
  8
0
 10
800.8919217928445278
 20
112.5350435249867047
 30
0.0
 40
0.083442323917643
 50
96.4975264263719623
 51
174.7706781402658862
  0
ARC
  5
F33C
  8
0
 10
800.8909511280678544
 20
112.5435662116774012
 30
0.0
 40
0.074864539906781
 50
1.5414536451663681
 51
96.4975264263785988
  0
ARC
  5
F33D
  8
0
 10
800.6465505755479626
 20
112.5668926092902069
 30
0.0
 40
0.3199486285821063
 50
349.9353544624818255
 51
356.1805658973223103
  0
ARC
  5
F33E
  8
0
 10
800.8873020240496317
 20
112.492953858239602
 30
0.0
 40
0.0764295249413677
 50
13.6408614618150192
 51
166.3591385381866132
  0
ARC
  5
F33F
  8
0
 10
800.8873394551678757
 20
112.5138411878479019
 30
0.0
 40
0.0237722863354045
 50
223.013336454951002
 51
315.7971626350445149
  0
ARC
  5
F340
  8
0
 10
800.8769405993883765
 20
112.5041395716616961
 30
0.0
 40
0.0095505579542233
 50
124.9563377112509954
 51
223.0133364549602106
  0
ARC
  5
F341
  8
0
 10
800.8869951586169691
 20
112.4941791289931956
 30
0.0
 40
0.0236111503263204
 50
38.4775786570281468
 51
131.116699257551204
  0
ARC
  5
F342
  8
0
 10
800.8964149078490209
 20
112.5038744281605005
 30
0.0
 40
0.0103498185303035
 50
320.3276113646646195
 51
28.8612470815986413
  0
ARC
  5
F343
  8
0
 10
800.530154669073795
 20
112.290850946456203
 30
0.0
 40
0.0792147379135629
 50
200.3436203291483082
 51
339.6563796708500718
  0
ARC
  5
F344
  8
0
 10
800.9335084066063928
 20
112.3427912572797993
 30
0.0
 40
0.4841951133862587
 50
185.6666001767241028
 51
189.4476982926923938
  0
ARC
  5
F345
  8
0
 10
800.5347744378684638
 20
112.2873768684781055
 30
0.0
 40
0.083442323917643
 50
96.4975264263719623
 51
174.7706781402658862
  0
ARC
  5
F346
  8
0
 10
800.5338037730920178
 20
112.2958995551689014
 30
0.0
 40
0.074864539906781
 50
1.5414536451663681
 51
96.4975264263785988
  0
ARC
  5
F347
  8
0
 10
800.2894032205722397
 20
112.3192259527815935
 30
0.0
 40
0.3199486285821063
 50
349.9353544624818255
 51
356.1805658973223103
  0
ARC
  5
F348
  8
0
 10
800.530154669073795
 20
112.2452872017310028
 30
0.0
 40
0.0764295249413677
 50
13.6408614618150192
 51
166.3591385381866132
  0
ARC
  5
F349
  8
0
 10
800.5301921001921528
 20
112.2661745313394022
 30
0.0
 40
0.0237722863354045
 50
223.013336454951002
 51
315.7971626350445149
  0
ARC
  5
F34A
  8
0
 10
800.5197932444124262
 20
112.2564729151531964
 30
0.0
 40
0.0095505579542233
 50
124.9563377112509954
 51
223.0133364549602106
  0
ARC
  5
F34B
  8
0
 10
800.5298478036410188
 20
112.2465124724846959
 30
0.0
 40
0.0236111503263204
 50
38.4775786570281468
 51
131.116699257551204
  0
ARC
  5
F34C
  8
0
 10
800.5392675528731843
 20
112.2562077716520008
 30
0.0
 40
0.0103498185303035
 50
320.3276113646646195
 51
28.8612470815986413
  0
ARC
  5
F34D
  8
0
 10
800.8521930593218485
 20
112.1606659334610043
 30
0.0
 40
0.0792147379135629
 50
200.3436203291483082
 51
339.6563796708475138
  0
ARC
  5
F34E
  8
0
 10
801.2555467968544463
 20
112.2126062442847001
 30
0.0
 40
0.4841951133862587
 50
185.6666001767241028
 51
189.4476982926923938
  0
ARC
  5
F34F
  8
0
 10
800.8568128281165173
 20
112.1571918554830063
 30
0.0
 40
0.083442323917643
 50
96.4975264263719623
 51
174.7706781402658862
  0
ARC
  5
F350
  8
0
 10
800.8558421633399576
 20
112.1657145421737027
 30
0.0
 40
0.074864539906781
 50
1.5414536451663681
 51
96.4975264263785988
  0
ARC
  5
F351
  8
0
 10
800.6114416108201794
 20
112.1890409397863948
 30
0.0
 40
0.3199486285821063
 50
349.9353544624818255
 51
356.1805658973223103
  0
ARC
  5
F352
  8
0
 10
800.8521930593218485
 20
112.1151021887359036
 30
0.0
 40
0.0764295249413677
 50
13.6408614618150192
 51
166.3591385381866132
  0
ARC
  5
F353
  8
0
 10
800.8522304904400926
 20
112.1359895183442035
 30
0.0
 40
0.0237722863354045
 50
223.013336454951002
 51
315.7971626350445149
  0
ARC
  5
F354
  8
0
 10
800.841831634660366
 20
112.1262879021579977
 30
0.0
 40
0.0095505579542233
 50
124.9563377112509954
 51
223.0133364549602106
  0
ARC
  5
F355
  8
0
 10
800.8518861938889586
 20
112.1163274594894972
 30
0.0
 40
0.0236111503263204
 50
38.4775786570281468
 51
131.116699257551204
  0
ARC
  5
F356
  8
0
 10
800.8613059431212378
 20
112.1260227586568021
 30
0.0
 40
0.0103498185303035
 50
320.3276113646646195
 51
28.8612470815986413
  0
ARC
  5
F357
  8
0
 10
800.5109087397952408
 20
111.9550548872382052
 30
0.0
 40
0.0792147379135629
 50
200.3436203291483082
 51
339.6563796708475138
  0
ARC
  5
F358
  8
0
 10
800.9142624773279522
 20
112.006995198061901
 30
0.0
 40
0.4841951133862587
 50
185.6666001767241028
 51
189.4476982926923938
  0
ARC
  5
F359
  8
0
 10
800.5155285085901369
 20
111.951580809260193
 30
0.0
 40
0.083442323917643
 50
96.4975264263719623
 51
174.7706781402658862
  0
ARC
  5
F35A
  8
0
 10
800.5145578438134635
 20
111.9601034959510031
 30
0.0
 40
0.074864539906781
 50
1.5414536451663681
 51
96.4975264263785988
  0
ARC
  5
F35B
  8
0
 10
800.2701572912935717
 20
111.9834298935636951
 30
0.0
 40
0.3199486285821063
 50
349.9353544624818255
 51
356.1805658973223103
  0
ARC
  5
F35C
  8
0
 10
800.5109087397952408
 20
111.9094911425131045
 30
0.0
 40
0.0764295249413677
 50
13.6408614618150192
 51
166.3591385381866132
  0
ARC
  5
F35D
  8
0
 10
800.5109461709134848
 20
111.9303784721214043
 30
0.0
 40
0.0237722863354045
 50
223.013336454951002
 51
315.7971626350445149
  0
ARC
  5
F35E
  8
0
 10
800.500547315133872
 20
111.9206768559351985
 30
0.0
 40
0.0095505579542233
 50
124.9563377112509954
 51
223.0133364549602106
  0
ARC
  5
F35F
  8
0
 10
800.5106018743625782
 20
111.9107164132666981
 30
0.0
 40
0.0236111503263204
 50
38.4775786570281468
 51
131.116699257551204
  0
ARC
  5
F360
  8
0
 10
800.52002162359463
 20
111.920411712434003
 30
0.0
 40
0.0103498185303035
 50
320.3276113646646195
 51
28.8612470815986413
  0
ARC
  5
F361
  8
0
 10
800.7679916701772527
 20
111.7715710242665068
 30
0.0
 40
0.072560226982316
 50
266.3381189529995936
 51
344.0249326197156847
  0
ARC
  5
F362
  8
0
 10
800.7568611599693895
 20
111.7686726661014944
 30
0.0
 40
0.0698166071555217
 50
192.9446377224221862
 51
275.3389069358780716
  0
ARC
  5
F363
  8
0
 10
800.7921412476587193
 20
111.7825606552298012
 30
0.0
 40
0.0520394782533489
 50
6.9196270057947293
 51
44.2917019169637882
  0
ARC
  5
F364
  8
0
 10
800.771478517123569
 20
111.744380855254704
 30
0.0
 40
0.094376892124958
 50
52.1477296412817921
 51
146.0397664633875934
  0
ARC
  5
F365
  8
0
 10
800.7183209442373482
 20
111.7777164783982045
 30
0.0
 40
0.0317307766974256
 50
142.3439861558850055
 51
187.6542149264344062
  0
ARC
  5
F366
  8
0
 10
800.7633947971304451
 20
111.7537773562948047
 30
0.0
 40
0.0237722863354045
 50
223.013336454951002
 51
315.7971626350445149
  0
ARC
  5
F367
  8
0
 10
800.7529959413508323
 20
111.7440757401085989
 30
0.0
 40
0.0095505579542233
 50
124.9563377112509954
 51
223.0133364549602106
  0
ARC
  5
F368
  8
0
 10
800.7630505005794248
 20
111.7341152974400984
 30
0.0
 40
0.0236111503263204
 50
38.4775786570281468
 51
131.116699257551204
  0
ARC
  5
F369
  8
0
 10
800.7724702498115903
 20
111.7438105966074033
 30
0.0
 40
0.0103498185303035
 50
320.3276113646646195
 51
28.8612470815986413
  0
LINE
  5
F36A
  8
0
 10
800.8377497336804254
 20
111.7516010689329988
 30
0.0
 11
800.8438016771233379
 21
111.7888302105928062
 31
0.0
  0
LINE
  5
F36B
  8
0
 10
800.6888188043632226
 20
111.7530330855999949
 30
0.0
 11
800.6868728902931025
 21
111.7734901214648033
 31
0.0
  0
ARC
  5
F36C
  8
0
 10
800.7950609972591565
 20
111.7554565339589061
 30
0.0
 40
0.042862487419949
 50
354.8392904607130163
 51
44.0021510515629828
  0
ARC
  5
F36D
  8
0
 10
800.7645779786355433
 20
111.7191758519207951
 30
0.0
 40
0.0901274495565696
 50
47.1321375093833765
 51
142.7798088122694935
  0
ARC
  5
F36E
  8
0
 10
800.7278399685602608
 20
111.7562129312553054
 30
0.0
 40
0.0391505130704867
 50
153.4831243877673046
 51
184.6587549882841017
  0
ARC
  5
F36F
  8
0
 10
801.0918497422934479
 20
111.9540372894614961
 30
0.0
 40
0.072560226982316
 50
266.3381189529995936
 51
344.0249326197156847
  0
ARC
  5
F370
  8
0
 10
801.0807192320853574
 20
111.9511389312965974
 30
0.0
 40
0.0698166071555217
 50
192.9446377224221862
 51
275.3389069358780716
  0
ARC
  5
F371
  8
0
 10
801.1159993197749145
 20
111.9650269204248048
 30
0.0
 40
0.0520394782533489
 50
6.9196270057947293
 51
44.2917019169637882
  0
ARC
  5
F372
  8
0
 10
801.0953365892396505
 20
111.9268471204496933
 30
0.0
 40
0.094376892124958
 50
52.1477296412817921
 51
146.0397664633875934
  0
ARC
  5
F373
  8
0
 10
801.0421790163535434
 20
111.9601827435931938
 30
0.0
 40
0.0317307766974256
 50
142.3439861558850055
 51
187.6542149264344062
  0
ARC
  5
F374
  8
0
 10
801.087252869246413
 20
111.936243621489794
 30
0.0
 40
0.0237722863354045
 50
223.013336454951002
 51
315.7971626350445149
  0
ARC
  5
F375
  8
0
 10
801.0768540134671412
 20
111.9265420053036024
 30
0.0
 40
0.0095505579542233
 50
124.9563377112509954
 51
223.0133364549602106
  0
ARC
  5
F376
  8
0
 10
801.0869085726951653
 20
111.9165815626351019
 30
0.0
 40
0.0236111503263204
 50
38.4775786570281468
 51
131.116699257551204
  0
ARC
  5
F377
  8
0
 10
801.0963283219274444
 20
111.9262768618024069
 30
0.0
 40
0.0103498185303035
 50
320.3276113646646195
 51
28.8612470815986413
  0
LINE
  5
F378
  8
0
 10
801.1616078057967343
 20
111.9340673341281018
 30
0.0
 11
801.1676597492390783
 21
111.9712964757877955
 31
0.0
  0
LINE
  5
F379
  8
0
 10
801.0126768764793042
 20
111.9354993507950979
 30
0.0
 11
801.0107309624089567
 21
111.9559563866599063
 31
0.0
  0
ARC
  5
F37A
  8
0
 10
801.118919069375238
 20
111.9379227991538954
 30
0.0
 40
0.042862487419949
 50
354.8392904607130163
 51
44.0021510515629828
  0
ARC
  5
F37B
  8
0
 10
801.0884360507513975
 20
111.9016421171158981
 30
0.0
 40
0.0901274495565696
 50
47.1321375093833765
 51
142.7798088122694935
  0
ARC
  5
F37C
  8
0
 10
801.0516980406762286
 20
111.9386791964502947
 30
0.0
 40
0.0391505130704867
 50
153.4831243877673046
 51
184.6587549882841017
  0
ARC
  5
F37D
  8
0
 10
801.1869447881184669
 20
112.3706702786061982
 30
0.0
 40
0.072560226982316
 50
266.3381189529995936
 51
344.0249326197156847
  0
ARC
  5
F37E
  8
0
 10
801.175814277910149
 20
112.3677719204412995
 30
0.0
 40
0.0698166071555217
 50
192.9446377224221862
 51
275.3389069358780716
  0
ARC
  5
F37F
  8
0
 10
801.2110943655997062
 20
112.3816599095696063
 30
0.0
 40
0.0520394782533489
 50
6.9196270057947293
 51
44.2917019169637882
  0
ARC
  5
F380
  8
0
 10
801.1904316350645558
 20
112.3434801095943953
 30
0.0
 40
0.094376892124958
 50
52.1477296412817921
 51
146.0397664633875934
  0
ARC
  5
F381
  8
0
 10
801.1372740621784487
 20
112.3768157327379953
 30
0.0
 40
0.0317307766974256
 50
142.3439861558850055
 51
187.6542149264344062
  0
ARC
  5
F382
  8
0
 10
801.1823479150715457
 20
112.352876610634496
 30
0.0
 40
0.0237722863354045
 50
223.013336454951002
 51
315.7971626350445149
  0
ARC
  5
F383
  8
0
 10
801.1719490592920465
 20
112.3431749944483045
 30
0.0
 40
0.0095505579542233
 50
124.9563377112509954
 51
223.0133364549602106
  0
ARC
  5
F384
  8
0
 10
801.1820036185201843
 20
112.3332145517799034
 30
0.0
 40
0.0236111503263204
 50
38.4775786570281468
 51
131.116699257551204
  0
ARC
  5
F385
  8
0
 10
801.1914233677523498
 20
112.3429098509470947
 30
0.0
 40
0.0103498185303035
 50
320.3276113646646195
 51
28.8612470815986413
  0
LINE
  5
F386
  8
0
 10
801.256702851621526
 20
112.3507003232728039
 30
0.0
 11
801.2627547950640974
 21
112.3879294649324976
 31
0.0
  0
LINE
  5
F387
  8
0
 10
801.1077719223039821
 20
112.3521323399398
 30
0.0
 11
801.105826008233862
 21
112.3725893758045942
 31
0.0
  0
ARC
  5
F388
  8
0
 10
801.2140141152000297
 20
112.3545557882986969
 30
0.0
 40
0.042862487419949
 50
354.8392904607130163
 51
44.0021510515629828
  0
ARC
  5
F389
  8
0
 10
801.1835310965764165
 20
112.3182751062606002
 30
0.0
 40
0.0901274495565696
 50
47.1321375093833765
 51
142.7798088122694935
  0
ARC
  5
F38A
  8
0
 10
801.146793086501134
 20
112.3553121855949968
 30
0.0
 40
0.0391505130704867
 50
153.4831243877673046
 51
184.6587549882841017
  0
ARC
  5
F38B
  8
0
 10
800.1651897650258434
 20
112.6738987840133035
 30
0.0
 40
0.0792147379135629
 50
200.3436203291498998
 51
339.6563796708516065
  0
ARC
  5
F38C
  8
0
 10
799.7618360274932456
 20
112.7258390948369993
 30
0.0
 40
0.4841951133862587
 50
350.5523017073076062
 51
354.3333998232757835
  0
ARC
  5
F38D
  8
0
 10
800.1605699962310609
 20
112.6704247060353055
 30
0.0
 40
0.083442323917643
 50
5.2293218597341022
 51
83.5024735736280519
  0
ARC
  5
F38E
  8
0
 10
800.1615406610073933
 20
112.6789473927260019
 30
0.0
 40
0.074864539906781
 50
83.5024735736214154
 51
178.4585463548336008
  0
ARC
  5
F38F
  8
0
 10
800.4059412135272851
 20
112.7022737903387934
 30
0.0
 40
0.3199486285821063
 50
183.8194341026776897
 51
190.0646455375182029
  0
ARC
  5
F390
  8
0
 10
800.1651897650258434
 20
112.6283350392882028
 30
0.0
 40
0.0764295249413677
 50
13.6408614618134294
 51
166.3591385381849932
  0
ARC
  5
F391
  8
0
 10
800.165152333907713
 20
112.6492223688965026
 30
0.0
 40
0.0237722863354045
 50
224.2028373649555988
 51
316.9866635450488843
  0
ARC
  5
F392
  8
0
 10
800.1755511896869848
 20
112.6395207527102968
 30
0.0
 40
0.0095505579542233
 50
316.9866635450396757
 51
55.043662288748969
  0
ARC
  5
F393
  8
0
 10
800.1654966304586196
 20
112.6295603100417964
 30
0.0
 40
0.0236111503263204
 50
48.8833007424487818
 51
141.5224213429717963
  0
ARC
  5
F394
  8
0
 10
800.1560768812264541
 20
112.6392556092091013
 30
0.0
 40
0.0103498185303035
 50
151.138752918401309
 51
219.6723886353354089
  0
ARC
  5
F395
  8
0
 10
800.1651897650258434
 20
112.3368897641829989
 30
0.0
 40
0.0792147379135629
 50
200.3436203291498998
 51
339.6563796708516065
  0
ARC
  5
F396
  8
0
 10
799.7618360274932456
 20
112.3888300750065952
 30
0.0
 40
0.4841951133862587
 50
350.5523017073076062
 51
354.3333998232757835
  0
ARC
  5
F397
  8
0
 10
800.1705869280361867
 20
112.3354721659729023
 30
0.0
 40
0.0732884401474489
 50
4.3419959540393878
 51
92.4064028880677455
  0
ARC
  5
F398
  8
0
 10
800.1623779082833607
 20
112.3323019044532032
 30
0.0
 40
0.0765662454786861
 50
86.1568820692116475
 51
171.2478628373145
  0
ARC
  5
F399
  8
0
 10
800.4059412135272851
 20
112.3652647705084036
 30
0.0
 40
0.3199486285821063
 50
183.8194341026776897
 51
190.0646455375182029
  0
ARC
  5
F39A
  8
0
 10
800.1651897650258434
 20
112.2913260194577987
 30
0.0
 40
0.0764295249413677
 50
13.6408614618134294
 51
166.3591385381849932
  0
ARC
  5
F39B
  8
0
 10
800.165152333907713
 20
112.3122133490660985
 30
0.0
 40
0.0237722863354045
 50
224.2028373649555988
 51
316.9866635450488843
  0
ARC
  5
F39C
  8
0
 10
800.1755511896869848
 20
112.302511732879907
 30
0.0
 40
0.0095505579542233
 50
316.9866635450396757
 51
55.043662288748969
  0
ARC
  5
F39D
  8
0
 10
800.1654966304586196
 20
112.2925512902114065
 30
0.0
 40
0.0236111503263204
 50
48.8833007424487818
 51
141.5224213429717963
  0
ARC
  5
F39E
  8
0
 10
800.1560768812264541
 20
112.3022465893786972
 30
0.0
 40
0.0103498185303035
 50
151.138752918401309
 51
219.6723886353354089
  0
ARC
  5
F39F
  8
0
 10
800.1639201395686314
 20
112.0226125212222001
 30
0.0
 40
0.0792147379135629
 50
200.3436203291498998
 51
339.6563796708516065
  0
ARC
  5
F3A0
  8
0
 10
799.7605664020360337
 20
112.0745528320458959
 30
0.0
 40
0.4841951133862587
 50
350.5523017073076062
 51
354.3333998232757835
  0
ARC
  5
F3A1
  8
0
 10
800.174141354906169
 20
112.0188232574759013
 30
0.0
 40
0.0687120488423668
 50
6.6190868001928997
 51
90.2652066979914736
  0
ARC
  5
F3A2
  8
0
 10
800.1627794075702695
 20
112.0079614065329991
 30
0.0
 40
0.080335895375224
 50
82.0984387611532753
 51
164.3187683102665915
  0
ARC
  5
F3A3
  8
0
 10
800.4046715880701868
 20
112.0509875275476048
 30
0.0
 40
0.3199486285821063
 50
183.8194341026776897
 51
190.0646455375182029
  0
ARC
  5
F3A4
  8
0
 10
800.1639201395686314
 20
111.9770487764969999
 30
0.0
 40
0.0764295249413677
 50
13.6408614618134294
 51
166.3591385381849932
  0
ARC
  5
F3A5
  8
0
 10
800.1638827084502736
 20
111.9979361061053993
 30
0.0
 40
0.0237722863354045
 50
224.2028373649555988
 51
316.9866635450488843
  0
ARC
  5
F3A6
  8
0
 10
800.1742815642300002
 20
111.9882344899191935
 30
0.0
 40
0.0095505579542233
 50
316.9866635450396757
 51
55.043662288748969
  0
ARC
  5
F3A7
  8
0
 10
800.164227005001635
 20
111.978274047250693
 30
0.0
 40
0.0236111503263204
 50
48.8833007424487818
 51
141.5224213429717963
  0
ARC
  5
F3A8
  8
0
 10
800.1548072557693558
 20
111.9879693464179979
 30
0.0
 40
0.0103498185303035
 50
151.138752918401309
 51
219.6723886353354089
  0
ARC
  5
F3A9
  8
0
 10
800.160816524006691
 20
111.7234755939579003
 30
0.0
 40
0.072560226982316
 50
195.9750673802842016
 51
273.6618810470002927
  0
ARC
  5
F3AA
  8
0
 10
800.1719470342146678
 20
111.7205772357929021
 30
0.0
 40
0.0698166071555217
 50
264.6610930641219284
 51
347.0553622775776716
  0
ARC
  5
F3AB
  8
0
 10
800.1279084731547755
 20
111.7275111266046963
 30
0.0
 40
0.0408118389152638
 50
138.8527064146300916
 51
177.0082498815233123
  0
ARC
  5
F3AC
  8
0
 10
800.1636755122756313
 20
111.6793829576219963
 30
0.0
 40
0.1002221454961678
 50
42.9466965278952486
 51
131.5687257969703978
  0
ARC
  5
F3AD
  8
0
 10
800.2054228489625984
 20
111.7265310951732999
 30
0.0
 40
0.0380280955976737
 50
1.537395043729145
 51
33.7639599377967699
  0
ARC
  5
F3AE
  8
0
 10
800.1654133970536122
 20
111.7056819259860987
 30
0.0
 40
0.0237722863354045
 50
224.2028373649555988
 51
316.9866635450488843
  0
ARC
  5
F3AF
  8
0
 10
800.175812252832884
 20
111.6959803098000066
 30
0.0
 40
0.0095505579542233
 50
316.9866635450396757
 51
55.043662288748969
  0
ARC
  5
F3B0
  8
0
 10
800.1657576936047462
 20
111.6860198671315061
 30
0.0
 40
0.0236111503263204
 50
48.8833007424487818
 51
141.5224213429717963
  0
ARC
  5
F3B1
  8
0
 10
800.1563379443724671
 20
111.6957151662987968
 30
0.0
 40
0.0103498185303035
 50
151.138752918401309
 51
219.6723886353354089
  0
LINE
  5
F3B2
  8
0
 10
800.0910584605032909
 20
111.7035056386244065
 30
0.0
 11
800.0871522583219075
 21
111.7296411848530937
 31
0.0
  0
LINE
  5
F3B3
  8
0
 10
800.2399893898209484
 20
111.7049376552914026
 30
0.0
 11
800.243437255481922
 21
111.7275513656164065
 31
0.0
  0
ARC
  5
F3B4
  8
0
 10
800.1337471969247872
 20
111.7073611036502996
 30
0.0
 40
0.042862487419949
 50
135.9978489484369959
 51
185.1607095392870121
  0
ARC
  5
F3B5
  8
0
 10
800.1642302155484003
 20
111.6710804216122028
 30
0.0
 40
0.0901274495565696
 50
37.2201911877337466
 51
132.8678624906177106
  0
ARC
  5
F3B6
  8
0
 10
800.2009682256237966
 20
111.7081175009465994
 30
0.0
 40
0.0391505130704867
 50
355.3412450117157846
 51
26.5168756122326883
  0
ARC
  5
F3B7
  8
0
 10
800.1610757816300747
 20
111.2775144826194946
 30
0.0
 40
0.072560226982316
 50
195.9750673802842016
 51
273.6618810470002927
  0
ARC
  5
F3B8
  8
0
 10
800.1722062918380516
 20
111.2746161244545959
 30
0.0
 40
0.0698166071555217
 50
264.6610930641219284
 51
347.0553622775776716
  0
ARC
  5
F3B9
  8
0
 10
800.1281677307782729
 20
111.2815500152664043
 30
0.0
 40
0.0408118389152638
 50
138.8527064146300916
 51
177.0082498815233123
  0
ARC
  5
F3BA
  8
0
 10
800.1639347698993561
 20
111.2334218462837043
 30
0.0
 40
0.1002221454961678
 50
42.9466965278952486
 51
131.5687257969703978
  0
ARC
  5
F3BB
  8
0
 10
800.2056821065859822
 20
111.2805699838349938
 30
0.0
 40
0.0380280955976737
 50
1.537395043729145
 51
33.7639599377967699
  0
ARC
  5
F3BC
  8
0
 10
800.1656726546768823
 20
111.2597208146478067
 30
0.0
 40
0.0237722863354045
 50
224.2028373649555988
 51
316.9866635450488843
  0
ARC
  5
F3BD
  8
0
 10
800.1760715104566088
 20
111.2500191984616009
 30
0.0
 40
0.0095505579542233
 50
316.9866635450396757
 51
55.043662288748969
  0
ARC
  5
F3BE
  8
0
 10
800.1660169512282437
 20
111.2400587557931999
 30
0.0
 40
0.0236111503263204
 50
48.8833007424487818
 51
141.5224213429717963
  0
ARC
  5
F3BF
  8
0
 10
800.1565972019959645
 20
111.2497540549604054
 30
0.0
 40
0.0103498185303035
 50
151.138752918401309
 51
219.6723886353354089
  0
LINE
  5
F3C0
  8
0
 10
800.0913177181271294
 20
111.2575445272861003
 30
0.0
 11
800.0874115159452913
 21
111.2836800735148017
 31
0.0
  0
LINE
  5
F3C1
  8
0
 10
800.2402486474442185
 20
111.2589765439530964
 30
0.0
 11
800.2436965131053057
 21
111.2815902542781004
 31
0.0
  0
ARC
  5
F3C2
  8
0
 10
800.134006454548171
 20
111.2613999923119934
 30
0.0
 40
0.042862487419949
 50
135.9978489484369959
 51
185.1607095392870121
  0
ARC
  5
F3C3
  8
0
 10
800.1644894731720115
 20
111.2251193102738966
 30
0.0
 40
0.0901274495565696
 50
37.2201911877337466
 51
132.8678624906177106
  0
ARC
  5
F3C4
  8
0
 10
800.2012274832471803
 20
111.2621563896082932
 30
0.0
 40
0.0391505130704867
 50
355.3412450117157846
 51
26.5168756122326883
  0
ARC
  5
F3C5
  8
0
 10
800.1611738163227301
 20
111.0420544387409052
 30
0.0
 40
0.072560226982316
 50
195.9750673802842016
 51
273.6618810470002927
  0
ARC
  5
F3C6
  8
0
 10
800.1723043265309343
 20
111.039156080575907
 30
0.0
 40
0.0698166071555217
 50
264.6610930641219284
 51
347.0553622775776716
  0
ARC
  5
F3C7
  8
0
 10
800.1282657654709283
 20
111.0460899713877012
 30
0.0
 40
0.0408118389152638
 50
138.8527064146300916
 51
177.0082498815233123
  0
ARC
  5
F3C8
  8
0
 10
800.1640328045918977
 20
110.9979618024050012
 30
0.0
 40
0.1002221454961678
 50
42.9466965278952486
 51
131.5687257969703978
  0
ARC
  5
F3C9
  8
0
 10
800.2057801412788649
 20
111.0451099399563049
 30
0.0
 40
0.0380280955976737
 50
1.537395043729145
 51
33.7639599377967699
  0
ARC
  5
F3CA
  8
0
 10
800.1657706893696513
 20
111.0242607707692031
 30
0.0
 40
0.0237722863354045
 50
224.2028373649555988
 51
316.9866635450488843
  0
ARC
  5
F3CB
  8
0
 10
800.1761695451491505
 20
111.0145591545829973
 30
0.0
 40
0.0095505579542233
 50
316.9866635450396757
 51
55.043662288748969
  0
ARC
  5
F3CC
  8
0
 10
800.166114985920899
 20
111.0045987119144968
 30
0.0
 40
0.0236111503263204
 50
48.8833007424487818
 51
141.5224213429717963
  0
ARC
  5
F3CD
  8
0
 10
800.1566952366887335
 20
111.0142940110818017
 30
0.0
 40
0.0103498185303035
 50
151.138752918401309
 51
219.6723886353354089
  0
LINE
  5
F3CE
  8
0
 10
800.0914157528195574
 20
111.0220844834073972
 30
0.0
 11
800.087509550638174
 21
111.0482200296360986
 31
0.0
  0
LINE
  5
F3CF
  8
0
 10
800.2403466821371012
 20
111.0235165000743933
 30
0.0
 11
800.2437945477979611
 21
111.0461302103994967
 31
0.0
  0
ARC
  5
F3D0
  8
0
 10
800.1341044892410537
 20
111.0259399484333045
 30
0.0
 40
0.042862487419949
 50
135.9978489484369959
 51
185.1607095392870121
  0
ARC
  5
F3D1
  8
0
 10
800.1645875078646668
 20
110.9896592663951935
 30
0.0
 40
0.0901274495565696
 50
37.2201911877337466
 51
132.8678624906177106
  0
ARC
  5
F3D2
  8
0
 10
800.2013255179399493
 20
111.0266963457296043
 30
0.0
 40
0.0391505130704867
 50
355.3412450117157846
 51
26.5168756122326883
  0
ARC
  5
F3D3
  8
0
 10
800.1613322515371465
 20
110.8262246725370943
 30
0.0
 40
0.072560226982316
 50
195.9750673802842016
 51
273.6618810470002927
  0
ARC
  5
F3D4
  8
0
 10
800.1724627617450096
 20
110.8233263143720961
 30
0.0
 40
0.0698166071555217
 50
264.6610930641219284
 51
347.0553622775776716
  0
ARC
  5
F3D5
  8
0
 10
800.1284242006853447
 20
110.8302602051839045
 30
0.0
 40
0.0408118389152638
 50
138.8527064146300916
 51
177.0082498815233123
  0
ARC
  5
F3D6
  8
0
 10
800.1641912398063141
 20
110.7821320362012045
 30
0.0
 40
0.1002221454961678
 50
42.9466965278952486
 51
131.5687257969703978
  0
ARC
  5
F3D7
  8
0
 10
800.2059385764931676
 20
110.829280173752494
 30
0.0
 40
0.0380280955976737
 50
1.537395043729145
 51
33.7639599377967699
  0
ARC
  5
F3D8
  8
0
 10
800.165929124583954
 20
110.8084310045654064
 30
0.0
 40
0.0237722863354045
 50
224.2028373649555988
 51
316.9866635450488843
  0
ARC
  5
F3D9
  8
0
 10
800.1763279803635669
 20
110.7987293883792006
 30
0.0
 40
0.0095505579542233
 50
316.9866635450396757
 51
55.043662288748969
  0
ARC
  5
F3DA
  8
0
 10
800.1662734211352017
 20
110.7887689457107001
 30
0.0
 40
0.0236111503263204
 50
48.8833007424487818
 51
141.5224213429717963
  0
ARC
  5
F3DB
  8
0
 10
800.1568536719030362
 20
110.798464244878005
 30
0.0
 40
0.0103498185303035
 50
151.138752918401309
 51
219.6723886353354089
  0
LINE
  5
F3DC
  8
0
 10
800.0915741880340875
 20
110.8062547172036005
 30
0.0
 11
800.0876679858522493
 21
110.8323902634323019
 31
0.0
  0
LINE
  5
F3DD
  8
0
 10
800.2405051173511765
 20
110.8076867338705966
 30
0.0
 11
800.2439529830124911
 21
110.8303004441957
 31
0.0
  0
ARC
  5
F3DE
  8
0
 10
800.1342629244553564
 20
110.8101101822294936
 30
0.0
 40
0.042862487419949
 50
135.9978489484369959
 51
185.1607095392870121
  0
ARC
  5
F3DF
  8
0
 10
800.1647459430789695
 20
110.7738295001913968
 30
0.0
 40
0.0901274495565696
 50
37.2201911877337466
 51
132.8678624906177106
  0
ARC
  5
F3E0
  8
0
 10
800.2014839531544794
 20
110.8108665795257934
 30
0.0
 40
0.0391505130704867
 50
355.3412450117157846
 51
26.5168756122326883
  0
ARC
  5
F3E1
  8
0
 10
800.1614581633939451
 20
110.6351413577765044
 30
0.0
 40
0.072560226982316
 50
195.9750673802842016
 51
273.6618810470002927
  0
ARC
  5
F3E2
  8
0
 10
800.1725886736018083
 20
110.6322429996116057
 30
0.0
 40
0.0698166071555217
 50
264.6610930641219284
 51
347.0553622775776716
  0
ARC
  5
F3E3
  8
0
 10
800.128550112541916
 20
110.6391768904233004
 30
0.0
 40
0.0408118389152638
 50
138.8527064146300916
 51
177.0082498815233123
  0
ARC
  5
F3E4
  8
0
 10
800.1618382641071321
 20
110.5392958484808048
 30
0.0
 40
0.1419872798082828
 50
57.7147766661093584
 51
116.8006456587565935
  0
ARC
  5
F3E5
  8
0
 10
800.2060644883497389
 20
110.6381968589920035
 30
0.0
 40
0.0380280955976737
 50
1.537395043729145
 51
33.7639599377967699
  0
ARC
  5
F3E6
  8
0
 10
800.1660550364407527
 20
110.6173476898048023
 30
0.0
 40
0.0237722863354045
 50
224.2028373649555988
 51
316.9866635450488843
  0
ARC
  5
F3E7
  8
0
 10
800.1764538922200245
 20
110.6076460736185965
 30
0.0
 40
0.0095505579542233
 50
316.9866635450396757
 51
55.043662288748969
  0
ARC
  5
F3E8
  8
0
 10
800.166399332991773
 20
110.597685630950096
 30
0.0
 40
0.0236111503263204
 50
48.8833007424487818
 51
141.5224213429717963
  0
ARC
  5
F3E9
  8
0
 10
800.1569795837596075
 20
110.6073809301175004
 30
0.0
 40
0.0103498185303035
 50
151.138752918401309
 51
219.6723886353354089
  0
LINE
  5
F3EA
  8
0
 10
800.0917000998905451
 20
110.6151714024430959
 30
0.0
 11
800.087793897709048
 21
110.6413069486716978
 31
0.0
  0
LINE
  5
F3EB
  8
0
 10
800.2406310292079752
 20
110.6166034191101062
 30
0.0
 11
800.2440788948690624
 21
110.6392171294350959
 31
0.0
  0
ARC
  5
F3EC
  8
0
 10
800.1343888363120413
 20
110.6190268674689037
 30
0.0
 40
0.042862487419949
 50
135.9978489484369959
 51
185.1607095392870121
  0
ARC
  5
F3ED
  8
0
 10
800.1648718549356545
 20
110.5827461854308069
 30
0.0
 40
0.0901274495565696
 50
37.2201911877337466
 51
132.8678624906177106
  0
ARC
  5
F3EE
  8
0
 10
800.201609865010937
 20
110.619783264765303
 30
0.0
 40
0.0391505130704867
 50
355.3412450117157846
 51
26.5168756122326883
  0
LINE
  5
F3EF
  8
0
 10
799.8161603201828029
 20
104.5355543860066945
 30
0.0
 11
800.5248217375826698
 21
104.5355543860066945
 31
0.0
  0
LINE
  5
F3F0
  8
0
 10
799.8161603201828029
 20
104.5638526967066042
 30
0.0
 11
800.5248217375826698
 21
104.5638526967066042
 31
0.0
  0
LINE
  5
F3F1
  8
0
 10
800.4657664944078306
 20
104.5355543860066945
 30
0.0
 11
800.4657664944078306
 21
104.4351606852066965
 31
0.0
  0
LINE
  5
F3F2
  8
0
 10
800.4657664944078306
 20
104.4351606852066965
 30
0.0
 11
799.8752153133078764
 21
104.4351606852066965
 31
0.0
  0
LINE
  5
F3F3
  8
0
 10
799.8752153133078764
 20
104.4351606852066965
 30
0.0
 11
799.8752153133078764
 21
104.5355543860066945
 31
0.0
  0
ARC
  5
F3F4
  8
0
 10
-1799.5612753349139439
 20
194.0693462329352883
 30
0.0
 40
2601.0266691180759153
 50
357.9872926671538949
 51
358.0251346032540027
  0
ARC
  5
F3F5
  8
0
 10
806.9857621739046181
 20
102.4679160072593049
 30
0.0
 40
7.1294383197808804
 50
177.9872926671523032
 51
204.2340756233190859
  0
ARC
  5
F3F6
  8
0
 10
812.5134137605084561
 20
106.2008100884872022
 30
0.0
 40
13.7491258589636498
 50
208.9693849265453025
 51
224.8638044662804134
  0
ARC
  5
F3F7
  8
0
 10
787.9036193524782448
 20
81.1275519911123268
 30
0.0
 40
21.3851734249022307
 50
31.6916354856095417
 51
45.965642009097742
  0
ARC
  5
F3F8
  8
0
 10
798.448616778000428
 20
88.2985595144289732
 30
0.0
 40
8.6635365829928226
 50
357.3391033817571838
 51
27.9726977384908508
  0
ARC
  5
F3F9
  8
0
 10
799.8186322453627781
 20
88.0044812834382242
 30
0.0
 40
7.2849824525945586
 50
321.721814359679172
 51
359.1495826659675004
  0
ARC
  5
F3FA
  8
0
 10
801.516471963747108
 20
86.8394018296355341
 30
0.0
 40
5.2322123001269807
 50
284.4117262224270917
 51
320.2194805385232144
  0
ARC
  5
F3FB
  8
0
 10
801.6768255000037016
 20
85.3608445512761023
 30
0.0
 40
3.766282011477275
 50
256.6222889361018247
 51
287.649029572843915
  0
ARC
  5
F3FC
  8
0
 10
834.694619981245296
 20
102.4460142501235964
 30
0.0
 40
34.329122741221461
 50
176.6782266080971908
 51
181.0019137712934878
  0
ARC
  5
F3FD
  8
0
 10
804.8385348837640549
 20
101.9238768005075002
 30
0.0
 40
4.468472298467387
 50
181.0019137712934878
 51
210.3657040246266092
  0
ARC
  5
F3FE
  8
0
 10
813.5620322371694328
 20
107.0349056984924943
 30
0.0
 40
14.5789630121227205
 50
210.3657040246266092
 51
224.0433886995417083
  0
ARC
  5
F3FF
  8
0
 10
777.1160576197991077
 20
71.7860602435557666
 30
0.0
 40
36.1239971747935229
 50
36.785827121891927
 51
44.043388699541751
  0
ARC
  5
F400
  8
0
 10
798.5969169821784135
 20
88.3465322978917698
 30
0.0
 40
9.0124494045096917
 50
328.9143329329406811
 51
34.2442163959378618
  0
ARC
  5
F401
  8
0
 10
801.4630020156170076
 20
86.920319365028007
 30
0.0
 40
5.8272963008036243
 50
279.3324510576019861
 51
326.3727222069870209
  0
ARC
  5
F402
  8
0
 10
801.6257939650420212
 20
84.8213093811138066
 30
0.0
 40
3.7339986519436761
 50
252.1640289065707066
 51
282.0915712070790278
  0
LINE
  5
F403
  8
0
 10
800.7338091342320467
 20
85.833965626359813
 30
0.0
 11
799.6071712326067882
 21
85.833965626359813
 31
0.0
  0
LINE
  5
F404
  8
0
 10
799.5286136867591722
 20
85.9079325522643842
 30
0.0
 11
799.3422769397872116
 21
89.0006704321600637
 31
0.0
  0
LINE
  5
F405
  8
0
 10
800.812366680077389
 20
85.907932552224338
 30
0.0
 11
800.9987034270518507
 21
89.0006704058893376
 31
0.0
  0
ARC
  5
F406
  8
0
 10
800.7338091342320467
 20
85.912665626359825
 30
0.0
 40
0.0787
 50
269.9999999999935199
 51
356.5521103695056127
  0
ARC
  5
F407
  8
0
 10
799.6071712326067882
 20
85.912665626359825
 30
0.0
 40
0.0787
 50
183.4478896012792006
 51
270.0
  0
ARC
  5
F408
  8
0
 10
800.1704901834194743
 20
89.0006704321598363
 30
0.0
 40
0.8282132436322946
 50
359.9999981826060207
 51
179.9999999999836859
  0
LINE
  5
F409
  8
0
 10
797.2503368175141532
 20
89.8288836757921132
 30
0.0
 11
803.0906435493245681
 21
89.8288836757921132
 31
0.0
  0
ARC
  5
F40A
  8
0
 10
798.3437731331607665
 20
85.1396459416220637
 30
0.0
 40
3.470773246828438
 50
72.7113524766385524
 51
89.2390284156616929
  0
ARC
  5
F40B
  8
0
 10
798.2402228273364244
 20
83.2770314601469863
 30
0.0
 40
5.3351807287815021
 50
88.3927063101888848
 51
90.167306448568084
  0
LINE
  5
F40C
  8
0
 10
797.2503367087321067
 20
88.6121896174700794
 30
0.0
 11
798.2246438635922914
 21
88.6121894432483543
 31
0.0
  0
ARC
  5
F40D
  8
0
 10
797.2177348914141248
 20
89.2206973197598359
 30
0.0
 40
0.6299212598000004
 50
140.3641347860722135
 51
159.6358652034789998
  0
ARC
  5
F40E
  8
0
 10
797.2177348914141248
 20
89.2206973197598359
 30
0.0
 40
0.6299212598000004
 50
200.3641347965208865
 51
219.6358652139290939
  0
ARC
  5
F40F
  8
0
 10
797.2177348914141248
 20
89.2206973197598359
 30
0.0
 40
0.6299212598000004
 50
80.3641347922603018
 51
99.6358652208149351
  0
LINE
  5
F410
  8
0
 10
796.7326236561362975
 20
89.6225279842880553
 30
0.0
 11
797.112294945477629
 21
89.8417313054231954
 31
0.0
  0
LINE
  5
F411
  8
0
 10
796.7326236561362975
 20
88.818866655231588
 30
0.0
 11
796.9083916517819262
 21
88.7173869556629597
 31
0.0
  0
LINE
  5
F412
  8
0
 10
796.9855689862464487
 20
88.6728286008487032
 30
0.0
 11
797.1122949457228515
 21
88.5996633340548385
 31
0.0
  0
ARC
  5
F413
  8
0
 10
797.2503368175141532
 20
89.2205366466311034
 30
0.0
 40
0.6083470291610383
 50
90.0
 51
269.999989754592491
  0
LINE
  5
F414
  8
0
 10
797.3231748372091943
 20
89.841731305447226
 30
0.0
 11
797.3454275776791746
 21
89.8288836757921132
 31
0.0
  0
ARC
  5
F415
  8
0
 10
797.2177348914141248
 20
89.2206973197598359
 30
0.0
 40
0.6299212597999992
 50
260.3641348018273902
 51
279.6358651851040236
  0
LINE
  5
F416
  8
0
 10
797.344870971624573
 20
88.6121896005658414
 30
0.0
 11
797.3231748369637444
 21
88.5996633340307653
 31
0.0
  0
ARC
  5
F417
  8
0
 10
797.2177348519143152
 20
89.220696967359828
 30
0.0
 40
0.6170461096000003
 50
103.1490569906425065
 51
136.8509430162420131
  0
ARC
  5
F418
  8
0
 10
797.2177348519143152
 20
89.220696967359828
 30
0.0
 40
0.6170461096000003
 50
163.1489431332846038
 51
196.8510568667153962
  0
ARC
  5
F419
  8
0
 10
797.2177348519143152
 20
89.220696967359828
 30
0.0
 40
0.6170461096000003
 50
223.1488614677930116
 51
256.8511385479641262
  0
ARC
  5
F41A
  8
0
 10
801.9972072336780684
 20
85.1396459416220637
 30
0.0
 40
3.470773246828438
 50
90.7609715843382929
 51
107.288647523361405
  0
ARC
  5
F41B
  8
0
 10
802.1007575395024105
 20
83.2770314601469863
 30
0.0
 40
5.3351807287815021
 50
89.8326935514254075
 51
91.607293689811101
  0
LINE
  5
F41C
  8
0
 10
803.0906436581070693
 20
88.6121896174700794
 30
0.0
 11
802.1163365032465435
 21
88.6121894432483543
 31
0.0
  0
ARC
  5
F41D
  8
0
 10
803.1232454754247101
 20
89.2206973197598359
 30
0.0
 40
0.6299212598000004
 50
20.3639030014773503
 51
39.6358652139278291
  0
ARC
  5
F41E
  8
0
 10
803.1232454754247101
 20
89.2206973197598359
 30
0.0
 40
0.6299212598000004
 50
320.3641347860709061
 51
339.6360969985225893
  0
ARC
  5
F41F
  8
0
 10
803.1232454754247101
 20
89.2206973197598359
 30
0.0
 40
0.6299212598000004
 50
80.3641347791850649
 51
99.6358652077397267
  0
LINE
  5
F420
  8
0
 10
803.6083567107025374
 20
89.6225279842880553
 30
0.0
 11
803.228685421361547
 21
89.8417313054231954
 31
0.0
  0
LINE
  5
F421
  8
0
 10
803.6083567107025374
 20
88.818866655231588
 30
0.0
 11
803.4325887150572498
 21
88.7173869556629597
 31
0.0
  0
LINE
  5
F422
  8
0
 10
803.3554113805926136
 20
88.6728286008487032
 30
0.0
 11
803.2286854211160971
 21
88.5996633340548385
 31
0.0
  0
ARC
  5
F423
  8
0
 10
803.0906435493245681
 20
89.2205366466311034
 30
0.0
 40
0.6083470291610383
 50
270.0000102454009721
 51
90.0
  0
LINE
  5
F424
  8
0
 10
803.0178055296297543
 20
89.841731305447226
 30
0.0
 11
802.9955527891595466
 21
89.8288836757921132
 31
0.0
  0
ARC
  5
F425
  8
0
 10
803.1232454754247101
 20
89.2206973197598359
 30
0.0
 40
0.6299212597999992
 50
260.3641348148959196
 51
279.6358651981726098
  0
LINE
  5
F426
  8
0
 10
802.9961093952142619
 20
88.6121896005658414
 30
0.0
 11
803.0178055298750905
 21
88.5996633340307653
 31
0.0
  0
ARC
  5
F427
  8
0
 10
803.1232455149248608
 20
89.220696967359828
 30
0.0
 40
0.6170461096000003
 50
43.1490569837579301
 51
76.8509430093574366
  0
ARC
  5
F428
  8
0
 10
803.1232455149248608
 20
89.220696967359828
 30
0.0
 40
0.6170461096000003
 50
343.1492369466845958
 51
16.8507630533154185
  0
ARC
  5
F429
  8
0
 10
803.1232455149248608
 20
89.220696967359828
 30
0.0
 40
0.6170461096000003
 50
283.1488614520358738
 51
316.8511385322070169
  0
ARC
  5
F42A
  8
0
 10
797.2177347441640904
 20
89.2206966690098398
 30
0.0
 40
1.299212598450012
 50
27.9123110107267713
 51
332.000127094824677
  0
ARC
  5
F42B
  8
0
 10
803.1232469343577804
 20
89.2206966690098398
 30
0.0
 40
1.299212598450012
 50
207.9998713928956136
 51
152.0876889892732038
  0
LINE
  5
F42C
  8
0
 10
796.6271837407641669
 20
89.0014939164696557
 30
0.0
 11
796.6271837407641669
 21
89.439900723050016
 31
0.0
  0
LINE
  5
F42D
  8
0
 10
803.7137975433259953
 20
89.4398982518875414
 30
0.0
 11
803.7137975433259953
 21
89.0014963876321445
 31
0.0
  0
ARC
  5
F42E
  8
0
 10
383.0918811243100777
 20
152.7268507714128987
 30
0.0
 40
422.066493923183998
 50
350.6745603171642074
 51
350.8807983139702742
  0
ARC
  5
F42F
  8
0
 10
807.6137139807675567
 20
83.0151756038235931
 30
0.0
 40
8.1410190591875882
 50
170.6745603171642074
 51
180.1946041588576861
  0
ARC
  5
F430
  8
0
 10
801.9440756065296227
 20
82.96569470709656
 30
0.0
 40
2.4714301416527951
 50
179.4939004453956954
 51
199.0315010769704998
  0
ARC
  5
F431
  8
0
 10
800.9525935992471659
 20
82.6020023129660643
 30
0.0
 40
1.415695861274884
 50
198.2017015935551001
 51
250.5889224138090015
  0
ARC
  5
F432
  8
0
 10
800.9677690622110049
 20
82.617604045962338
 30
0.0
 40
0.9350484387937408
 50
201.1591155547953065
 51
260.0014469662817191
  0
ARC
  5
F433
  8
0
 10
802.5131843494222039
 20
83.0842014151285753
 30
0.0
 40
2.5476529800731451
 50
175.4441175258924943
 51
198.3987556210346099
  0
ARC
  5
F434
  8
0
 10
818.4762667113249108
 20
81.8289798630243439
 30
0.0
 40
18.5600088745154785
 50
167.5383693595514103
 51
175.4957153956198113
  0
ENDSEC
  0
EOF
