  0
SECTION
  2
HEADER
  9
$ACADVER
  1
AC1009
  9
$INSBASE
 10
818.2724341786936293
 20
88.5971494481165536
 30
0.0
  9
$EXTMIN
 10
811.900196784883974
 20
80.4602966434835594
 30
-0.0000000000112498
  9
$EXTMAX
 10
818.330668132251958
 20
112.8041548224010029
 30
0.0000000000002956
  9
$LIMMIN
 10
0.0
 20
0.0
  9
$LIMMAX
 10
11.6929133858000007
 20
8.2677165353999982
  9
$ORTHOMODE
 70
     0
  9
$REGENMODE
 70
     1
  9
$FILLMODE
 70
     1
  9
$QTEXTMODE
 70
     0
  9
$MIRRTEXT
 70
     0
  9
$DRAGMODE
 70
     2
  9
$LTSCALE
 40
0.6431102362
  9
$OSMODE
 70
  4095
  9
$ATTMODE
 70
     1
  9
$TEXTSIZE
 40
0.2
  9
$TRACEWID
 40
0.05
  9
$TEXTSTYLE
  7
STANDARD
  9
$CLAYER
  8
0
  9
$CELTYPE
  6
BYLAYER
  9
$CECOLOR
 62
   256
  9
$DIMSCALE
 40
1.0
  9
$DIMASZ
 40
0.1875
  9
$DIMEXO
 40
0.0625
  9
$DIMDLI
 40
0.4443307087
  9
$DIMRND
 40
0.0
  9
$DIMDLE
 40
0.0
  9
$DIMEXE
 40
0.125
  9
$DIMTP
 40
0.01
  9
$DIMTM
 40
0.01
  9
$DIMTXT
 40
1.0
  9
$DIMCEN
 40
0.1052362205
  9
$DIMTSZ
 40
0.0
  9
$DIMTOL
 70
     1
  9
$DIMLIM
 70
     0
  9
$DIMTIH
 70
     0
  9
$DIMTOH
 70
     1
  9
$DIMSE1
 70
     0
  9
$DIMSE2
 70
     0
  9
$DIMTAD
 70
     0
  9
$DIMZIN
 70
     0
  9
$DIMBLK
  1

  9
$DIMASO
 70
     1
  9
$DIMSHO
 70
     1
  9
$DIMPOST
  1
\X
  9
$DIMAPOST
  1

  9
$DIMALT
 70
     1
  9
$DIMALTD
 70
     2
  9
$DIMALTF
 40
25.3999999999999986
  9
$DIMLFAC
 40
1.0
  9
$DIMTOFL
 70
     0
  9
$DIMTVP
 40
0.0
  9
$DIMTIX
 70
     0
  9
$DIMSOXD
 70
     0
  9
$DIMSAH
 70
     0
  9
$DIMBLK1
  1

  9
$DIMBLK2
  1

  9
$DIMSTYLE
  2
STANDARD
  9
$DIMCLRD
 70
     0
  9
$DIMCLRE
 70
     0
  9
$DIMCLRT
 70
     0
  9
$DIMTFAC
 40
1.0
  9
$DIMGAP
 40
0.09
  9
$LUNITS
 70
     2
  9
$LUPREC
 70
     4
  9
$SKETCHINC
 40
0.1
  9
$FILLETRAD
 40
0.02
  9
$AUNITS
 70
     0
  9
$AUPREC
 70
     0
  9
$MENU
  1
.
  9
$ELEVATION
 40
0.0
  9
$PELEVATION
 40
0.0
  9
$THICKNESS
 40
0.0
  9
$LIMCHECK
 70
     0
  9
$BLIPMODE
 70
     0
  9
$CHAMFERA
 40
0.0
  9
$CHAMFERB
 40
0.0
  9
$SKPOLY
 70
     0
  9
$TDCREATE
 40
2458172.5207638889551163
  9
$TDUPDATE
 40
2459145.772476851940155
  9
$TDINDWG
 40
0.3857993287
  9
$TDUSRTIMER
 40
0.3857993287
  9
$USRTIMER
 70
     1
  9
$ANGBASE
 50
0.0
  9
$ANGDIR
 70
     0
  9
$PDMODE
 70
     0
  9
$PDSIZE
 40
0.3125
  9
$PLINEWID
 40
0.0
  9
$COORDS
 70
     1
  9
$SPLFRAME
 70
     0
  9
$SPLINETYPE
 70
     6
  9
$SPLINESEGS
 70
     8
  9
$ATTDIA
 70
     1
  9
$ATTREQ
 70
     1
  9
$HANDLING
 70
     1
  9
$HANDSEED
  5
F422
  9
$SURFTAB1
 70
     6
  9
$SURFTAB2
 70
     6
  9
$SURFTYPE
 70
     6
  9
$SURFU
 70
     6
  9
$SURFV
 70
     6
  9
$UCSNAME
  2

  9
$UCSORG
 10
0.0
 20
0.0
 30
0.0
  9
$UCSXDIR
 10
1.0
 20
0.0
 30
0.0
  9
$UCSYDIR
 10
0.0
 20
1.0
 30
0.0
  9
$PUCSNAME
  2

  9
$PUCSORG
 10
0.0
 20
0.0
 30
0.0
  9
$PUCSXDIR
 10
1.0
 20
0.0
 30
0.0
  9
$PUCSYDIR
 10
0.0
 20
1.0
 30
0.0
  9
$USERI1
 70
     0
  9
$USERI2
 70
     0
  9
$USERI3
 70
     0
  9
$USERI4
 70
     0
  9
$USERI5
 70
     0
  9
$USERR1
 40
0.0
  9
$USERR2
 40
0.0
  9
$USERR3
 40
0.0
  9
$USERR4
 40
0.0
  9
$USERR5
 40
0.0
  9
$WORLDVIEW
 70
     1
  9
$SHADEDGE
 70
     3
  9
$SHADEDIF
 70
    70
  9
$TILEMODE
 70
     1
  9
$MAXACTVP
 70
    64
  9
$PLIMCHECK
 70
     0
  9
$PEXTMIN
 10
1.0000000000000000E+20
 20
1.0000000000000000E+20
 30
1.0000000000000000E+20
  9
$PEXTMAX
 10
-1.0000000000000000E+20
 20
-1.0000000000000000E+20
 30
-1.0000000000000000E+20
  9
$PLIMMIN
 10
0.0
 20
0.0
  9
$PLIMMAX
 10
12.0
 20
9.0
  9
$UNITMODE
 70
     0
  9
$VISRETAIN
 70
     1
  9
$PLINEGEN
 70
     0
  9
$PSLTSCALE
 70
     1
  0
ENDSEC
  0
SECTION
  2
TABLES
  0
TABLE
  2
VPORT
 70
     1
  0
VPORT
  2
*ACTIVE
 70
     0
 10
0.0
 20
0.0
 11
1.0
 21
1.0
 12
348.3732307507378891
 22
7.499078613012526
 13
0.0
 23
0.0
 14
1.0
 24
1.0
 15
0.0
 25
0.0
 16
0.0
 26
0.0
 36
24.1179433675886514
 17
466.74220170783002
 27
89.133147119929788
 37
0.0
 40
32.7258722518968526
 41
2.6055226824457591
 42
50.0
 43
0.0
 44
0.0
 50
0.0
 51
0.0
 71
     0
 72
   100
 73
     1
 74
     1
 75
     0
 76
     0
 77
     0
 78
     0
  0
ENDTAB
  0
TABLE
  2
LTYPE
 70
     2
  0
LTYPE
  2
CONTINUOUS
 70
     0
  3
Solid line
 72
    65
 73
     0
 40
0.0
  0
LTYPE
  2
PHANTOM2
 70
     0
  3
___ _ _ ___ _ _ ___ _ _ ___ _ _
 72
    65
 73
     6
 40
1.25
 49
0.625
 49
-0.125
 49
0.125
 49
-0.125
 49
0.125
 49
-0.125
  0
ENDTAB
  0
TABLE
  2
LAYER
 70
     2
  0
LAYER
  2
0
 70
     0
 62
   255
  6
CONTINUOUS
  0
LAYER
  2
DEFPOINTS
 70
     0
 62
     7
  6
CONTINUOUS
  0
ENDTAB
  0
TABLE
  2
STYLE
 70
     1
  0
STYLE
  2
STANDARD
 70
     0
 40
0.0
 41
0.8
 50
0.0
 71
     0
 42
0.2
  3
txt
  4

  0
ENDTAB
  0
TABLE
  2
VIEW
 70
     0
  0
ENDTAB
  0
TABLE
  2
UCS
 70
     0
  0
ENDTAB
  0
TABLE
  2
APPID
 70
    11
  0
APPID
  2
ACAD
 70
     0
  0
APPID
  2
ACAD_MLEADERVER
 70
     0
  0
APPID
  2
ACAD_EXEMPT_FROM_CAD_STANDARDS
 70
     0
  0
APPID
  2
ACAD_DSTYLE_DIMJAG
 70
     0
  0
APPID
  2
ACAD_DSTYLE_DIMTALN
 70
     0
  0
APPID
  2
ACAD_NAV_VCDISPLAY
 70
     0
  0
APPID
  2
ACAECLAYERSTANDARD
 70
     0
  0
APPID
  2
ACCMTRANSPARENCY
 70
     0
  0
APPID
  2
DCO15
 70
     0
  0
APPID
  2
ACDBATTR
 70
     0
  0
APPID
  2
ACADANNOTATIVE
 70
     0
  0
ENDTAB
  0
TABLE
  2
DIMSTYLE
 70
     1
  0
DIMSTYLE
  2
STANDARD
 70
     0
  3

  4

  5

  6

  7

 40
1.0
 41
0.1875
 42
0.0625
 43
0.38
 44
0.125
 45
0.0
 46
0.0
 47
0.01
 48
0.01
140
0.15625
141
0.09
142
0.0
143
25.3999999999999986
144
1.0
145
0.0
146
1.0
147
0.09
 71
     1
 72
     0
 73
     1
 74
     1
 75
     0
 76
     0
 77
     0
 78
     4
170
     0
171
     2
172
     0
173
     0
174
     0
175
     0
176
     0
177
     0
178
     0
  0
ENDTAB
  0
ENDSEC
  0
SECTION
  2
BLOCKS
  0
BLOCK
  8
0
  2
$MODEL_SPACE
 70
     0
 10
0.0
 20
0.0
 30
0.0
  3
$MODEL_SPACE
  1

  0
ENDBLK
  5
21
  8
0
  0
BLOCK
 67
     1
  8
0
  2
$PAPER_SPACE
 70
     0
 10
0.0
 20
0.0
 30
0.0
  3
$PAPER_SPACE
  1

  0
ENDBLK
  5
1D
 67
     1
  8
0
  0
ENDSEC
  0
SECTION
  2
ENTITIES
  0
ATTDEF
  5
829
  8
DEFPOINTS
 10
818.2760067066475358
 20
88.5972149203843031
 30
0.0
 40
0.001
  1
K-74035T-4
  3

  2
MODELNUMBER
 70
     0
1001
ACDBATTR
1070
     0
1070
     1
  0
ATTDEF
  5
82A
  8
DEFPOINTS
 10
818.2760067066475358
 20
88.595548253717638
 30
0.0
 40
0.001
  1
TAUT
  3

  2
TRADENAME
 70
     0
1001
ACDBATTR
1070
     0
1070
     1
  0
ATTDEF
  5
82B
  8
DEFPOINTS
 10
818.2760067066475358
 20
88.593881587050987
 30
0.0
 40
0.001
  1
BATH AND SHOWER FAUCET
  3

  2
PRODUCT
 70
     0
1001
ACDBATTR
1070
     0
1070
     1
  0
LINE
  5
F173
  8
0
 10
818.2724341830454478
 20
103.0544574291634063
 30
0.0
 11
818.2724337785452917
 21
105.3124810695633045
 31
0.0
  0
LINE
  5
F174
  8
0
 10
818.2724337785452917
 20
105.3124810695633045
 30
0.0
 11
818.162197542345325
 21
105.3103538891633946
 31
0.0
  0
LINE
  5
F175
  8
0
 10
818.162197542345325
 20
105.3103538891633946
 30
0.0
 11
818.1621975430451812
 21
105.3064415082634042
 31
0.0
  0
LINE
  5
F176
  8
0
 10
818.1621975430451812
 20
105.3064415082634042
 30
0.0
 11
817.9653471509451492
 21
105.2979986798633973
 31
0.0
  0
LINE
  5
F177
  8
0
 10
817.9653471509451492
 20
105.2979986798633973
 30
0.0
 11
817.9653472281453332
 21
105.3018962247633965
 31
0.0
  0
ARC
  5
F178
  8
0
 10
818.7660974113085786
 20
91.8363783284873989
 30
0.0
 40
13.4893058780192696
 50
93.4031843069283667
 51
97.1839257361059481
  0
ARC
  5
F179
  8
0
 10
817.0817998880512505
 20
105.2002722313416001
 30
0.0
 40
0.0196917771208168
 50
97.6052936031478566
 51
179.9798737365636043
  0
LINE
  5
F17A
  8
0
 10
817.0621081121453244
 20
105.2002791484632951
 30
0.0
 11
817.0621081285453329
 21
105.1134664030372932
 31
0.0
  0
ARC
  5
F17B
  8
0
 10
817.0318199087105313
 20
105.1851786455461024
 30
0.0
 40
0.0778461430172318
 50
276.0623441862859977
 51
292.8971405921572
  0
ARC
  5
F17C
  8
0
 10
817.8761642280428532
 20
98.9279211693588252
 30
0.0
 40
6.2361531890938968
 50
97.7052342962423239
 51
105.9711917442101026
  0
ARC
  5
F17D
  8
0
 10
816.178156055261752
 20
104.8669978949207007
 30
0.0
 40
0.0591344156111774
 50
107.6140818541665993
 51
134.6288148061277923
  0
ARC
  5
F17E
  8
0
 10
816.6934202223176271
 20
104.356144511320494
 30
0.0
 40
0.784712622077446
 50
135.1997548671809
 51
233.9346330474778881
  0
ARC
  5
F17F
  8
0
 10
816.2671347140967555
 20
103.7718584681112048
 30
0.0
 40
0.0614528302521954
 50
234.5055731085354012
 51
261.693299856881481
  0
ARC
  5
F180
  8
0
 10
815.9316984113430635
 20
100.5808481662172937
 30
0.0
 40
3.147190155169926
 50
52.4310988501492972
 51
84.044167124184014
  0
ARC
  5
F181
  8
0
 10
817.8878468936785566
 20
103.1281594030350988
 30
0.0
 40
0.0646089808048346
 50
234.7819661174488033
 51
267.3399728287031962
  0
LINE
  5
F182
  8
0
 10
817.8848484195451647
 20
103.0636200386634016
 30
0.0
 11
818.2724341830454478
 21
103.0544574291634063
 31
0.0
  0
ARC
  5
F183
  8
0
 10
818.0437823280341263
 20
87.6024520380457261
 30
0.0
 40
17.3595911181875096
 50
89.2453079424154652
 51
96.1968341059399847
  0
ARC
  5
F184
  8
0
 10
815.5589617041753172
 20
104.4765951052579993
 30
0.0
 40
0.7216139551172921
 50
32.1515759429195214
 51
36.8221511611031431
  0
LINE
  5
F185
  8
0
 10
811.9331058603607971
 20
112.4025594491565982
 30
0.0
 11
812.3462460172297597
 21
112.7878189393572939
 31
0.0
  0
ARC
  5
F186
  8
0
 10
812.3865200088025631
 20
112.7446303778262973
 30
0.0
 40
0.0590529105491513
 50
55.7932777118975878
 51
133.0000045390461878
  0
ARC
  5
F187
  8
0
 10
807.5766705559744878
 20
104.483831238024095
 30
0.0
 40
9.6179610880677853
 50
49.4914391774702125
 51
59.7653818694561778
  0
ARC
  5
F188
  8
0
 10
806.814688035777408
 20
103.6471048854336061
 30
0.0
 40
10.7491459644413698
 50
34.6814146250329074
 51
49.3004194995243665
  0
ARC
  5
F189
  8
0
 10
809.0667620967991525
 20
105.3266458674900008
 30
0.0
 40
7.9421460907074044
 50
0.5859004917700446
 51
33.9623210178582227
  0
ARC
  5
F18A
  8
0
 10
816.9494666031682755
 20
105.4058528565159065
 30
0.0
 40
0.0590604525986579
 50
288.0470160363822174
 51
1.9475328366808839
  0
LINE
  5
F18B
  8
0
 10
816.9677633726648764
 20
105.3496980233567939
 30
0.0
 11
816.912058320958522
 21
105.330243610703306
 31
0.0
  0
LINE
  5
F18C
  8
0
 10
816.912058320958522
 20
105.330243610703306
 30
0.0
 11
816.5629876651606764
 21
105.321169729156594
 31
0.0
  0
ARC
  5
F18D
  8
0
 10
816.5153054854464472
 20
106.9758376036249956
 30
0.0
 40
1.655354755048057
 50
253.3521436182402908
 51
271.6506223723700941
  0
ARC
  5
F18E
  8
0
 10
816.0109769035738054
 20
105.289247733735607
 30
0.0
 40
0.1050238143816554
 50
73.3521436182403761
 51
90.0770692410519587
  0
ARC
  5
F18F
  8
0
 10
816.0108627029944728
 20
105.3741481060438048
 30
0.0
 40
0.020123365267149
 50
90.077069241058453
 51
121.3088549481900031
  0
ARC
  5
F190
  8
0
 10
816.0022320238919065
 20
105.3883381386614957
 30
0.0
 40
0.0035147636564664
 50
121.308854948196597
 51
184.4281587621811127
  0
LINE
  5
F191
  8
0
 10
815.9987277520607449
 20
105.3880667671566016
 30
0.0
 11
815.9973957748658222
 21
105.3117076571292046
 31
0.0
  0
LINE
  5
F192
  8
0
 10
815.9973957748658222
 20
105.3117076571292046
 30
0.0
 11
815.9557189030673499
 21
105.3227230590399017
 31
0.0
  0
ARC
  5
F193
  8
0
 10
815.9680259456870317
 20
105.3807560245979005
 30
0.0
 40
0.0593235904980282
 50
187.742319957505913
 51
258.0266834044066968
  0
LINE
  5
F194
  8
0
 10
815.9092431511656969
 20
105.3727640625254054
 30
0.0
 11
815.8926641475455881
 21
105.4782276308998945
 31
0.0
  0
ARC
  5
F195
  8
0
 10
815.9767049466059916
 20
105.485301363340696
 30
0.0
 40
0.0841235298286914
 50
181.5645569320427057
 51
188.3906070790906995
  0
ARC
  5
F196
  8
0
 10
808.4925082559226439
 20
105.4010372890755036
 30
0.0
 40
7.4005584633317909
 50
0.5976253040361607
 51
13.4419467065410405
  0
ARC
  5
F197
  8
0
 10
808.5423112147848315
 20
105.3968098273359004
 30
0.0
 40
7.353119262036464
 50
13.5641949128639201
 51
35.5246586699199725
  0
ARC
  5
F198
  8
0
 10
812.6626416171824303
 20
108.3912324385288031
 30
0.0
 40
2.2602129932103132
 50
34.4364349146227511
 51
46.4777348138070394
  0
LINE
  5
F199
  8
0
 10
814.2191065668607735
 20
110.0301282970566064
 30
0.0
 11
811.9316347402560723
 21
112.3176237944938975
 31
0.0
  0
ARC
  5
F19A
  8
0
 10
811.9734004115410926
 20
112.359380963600799
 30
0.0
 40
0.0590595671311896
 50
133.0212584056853018
 51
224.9941675962328134
  0
LINE
  5
F19B
  8
0
 10
812.3463202636227152
 20
112.787713557283297
 30
0.0
 11
814.5279305844608189
 21
110.6276508694566019
 31
0.0
  0
ARC
  5
F19C
  8
0
 10
812.9622763682807545
 20
109.0463785220699009
 30
0.0
 40
2.225240517618829
 50
38.3648743935169207
 51
45.2843554296450677
  0
ARC
  5
F19D
  8
0
 10
816.3164850302099467
 20
104.9043381764648046
 30
0.0
 40
0.1887892948790717
 50
90.7503881090941036
 51
125.2525918345127991
  0
LINE
  5
F19E
  8
0
 10
816.2075192226660647
 20
105.058506430808194
 30
0.0
 11
816.1201721921540866
 21
104.9898506436498025
 31
0.0
  0
ARC
  5
F19F
  8
0
 10
816.1420303714669444
 20
104.9625069328814959
 30
0.0
 40
0.0350065496935732
 50
128.6383505107069993
 51
183.2318771735882876
  0
LINE
  5
F1A0
  8
0
 10
816.1070794978453478
 20
104.9605333689633966
 30
0.0
 11
816.1070795134047557
 21
104.877660064606701
 31
0.0
  0
ARC
  5
F1A1
  8
0
 10
816.6975145026626706
 20
104.3456199538616005
 30
0.0
 40
0.7199318545642654
 50
85.1816547245630602
 51
119.3658495453502013
  0
LINE
  5
F1A2
  8
0
 10
815.9973957748658222
 20
105.3117076571292046
 30
0.0
 11
816.0221746686953566
 21
105.3049660112132955
 31
0.0
  0
LINE
  5
F1A3
  8
0
 10
816.0221746686953566
 20
105.3049660112132955
 30
0.0
 11
816.2834525790974567
 21
105.3117960806598035
 31
0.0
  0
LINE
  5
F1A4
  8
0
 10
816.2834525790974567
 20
105.3117960806598035
 30
0.0
 11
816.5629876651606764
 21
105.321169729156594
 31
0.0
  0
ARC
  5
F1A5
  8
0
 10
820.3592670136143852
 20
114.4258455698901003
 30
0.0
 40
6.9234712031466419
 50
215.275187237978912
 51
218.8746248519759092
  0
ARC
  5
F1A6
  8
0
 10
815.9872494012264497
 20
108.8473085356928038
 30
0.0
 40
1.599169866346706
 50
116.4756339999836001
 51
129.5409383080645966
  0
LINE
  5
F1A7
  8
0
 10
812.346160417471765
 20
111.6791787521994053
 30
0.0
 11
812.2682419369527906
 21
111.7570972328182961
 31
0.0
  0
LINE
  5
F1A8
  8
0
 10
812.1627091249736168
 20
111.7178544280348973
 30
0.0
 11
812.2859575832833343
 21
111.5946059698252952
 31
0.0
  0
LINE
  5
F1A9
  8
0
 10
812.1613293531252111
 20
111.7441820433438977
 30
0.0
 11
812.1946157583900003
 21
111.785287330499898
 31
0.0
  0
LINE
  5
F1AA
  8
0
 10
812.2062863042978051
 20
111.697499541132899
 30
0.0
 11
812.2379008569555481
 21
111.7419565240653014
 31
0.0
  0
LINE
  5
F1AB
  8
0
 10
812.3122851985866646
 20
111.5932261979924931
 30
0.0
 11
812.3266399416062313
 21
111.6048504397149941
 31
0.0
  0
LINE
  5
F1AC
  8
0
 10
812.2668621651148442
 20
111.7834248481077992
 30
0.0
 11
812.3031317948822334
 21
111.8282141107434029
 31
0.0
  0
LINE
  5
F1AD
  8
0
 10
812.3724880327416713
 20
111.6777989803130993
 30
0.0
 11
812.3900044080371572
 21
111.6919834612859006
 31
0.0
  0
ARC
  5
F1AE
  8
0
 10
812.3600904210700264
 20
111.6931087557798037
 30
0.0
 40
0.0197
 50
224.9999999632258891
 51
308.9999998797521243
  0
ARC
  5
F1AF
  8
0
 10
812.2821719405512795
 20
111.7710272363986945
 30
0.0
 40
0.0197
 50
140.9999999796312977
 51
224.9999999632339893
  0
ARC
  5
F1B0
  8
0
 10
812.2223408051222577
 20
111.686082755102106
 30
0.0
 40
0.0197
 50
144.5823471627226127
 51
225.0000000232697914
  0
ARC
  5
F1B1
  8
0
 10
812.2998875868670439
 20
111.6085359734203024
 30
0.0
 40
0.0197
 50
225.0000000232573996
 51
309.0000000594808967
  0
ARC
  5
F1B2
  8
0
 10
812.1619249363635618
 20
111.6423541058199049
 30
0.0
 40
0.2334166196368558
 50
12.2760141118654893
 51
52.7743014622054929
  0
ARC
  5
F1B3
  8
0
 10
811.7203283669406346
 20
111.3096980941036946
 30
0.0
 40
0.6743356973297017
 50
25.9568091575253703
 51
39.8674512110959114
  0
ARC
  5
F1B4
  8
0
 10
812.1766391285573263
 20
111.7317844316299045
 30
0.0
 40
0.0197
 50
140.9999999612178101
 51
225.0000000232778063
  0
LINE
  5
F1B5
  8
0
 10
811.97062786176798
 20
112.0547113082404991
 30
0.0
 11
812.0787483942812059
 21
111.9465907757273015
 31
0.0
  0
LINE
  5
F1B6
  8
0
 10
811.9692480899213933
 20
112.0810389235392961
 30
0.0
 11
812.008322489069883
 21
112.1292917879041937
 31
0.0
  0
LINE
  5
F1B7
  8
0
 10
812.0038714715764172
 20
112.0464155418838033
 30
0.0
 11
812.0435449589145946
 21
112.0954082185513982
 31
0.0
  0
LINE
  5
F1B8
  8
0
 10
812.211007957964739
 20
111.8392790553937033
 30
0.0
 11
812.2238934911814567
 21
111.8497135543809975
 31
0.0
  0
LINE
  5
F1B9
  8
0
 10
812.1053820903174483
 20
111.944904923134402
 30
0.0
 11
812.1425210230952416
 21
111.990767685613406
 31
0.0
  0
ARC
  5
F1BA
  8
0
 10
811.9340079176009795
 20
111.7764804541203034
 30
0.0
 40
0.2989928640349144
 50
14.1778507711056392
 51
45.7824319320359692
  0
ARC
  5
F1BB
  8
0
 10
811.4286811972409623
 20
111.677092494329699
 30
0.0
 40
0.7436702834928229
 50
22.280006787468519
 51
34.2289771946541279
  0
ARC
  5
F1BC
  8
0
 10
812.0191812470126251
 20
112.0340179301745991
 30
0.0
 40
0.0197
 50
140.999999979391589
 51
225.0000000000158025
  0
ARC
  5
F1BD
  8
0
 10
811.9845578653573739
 20
112.068641311829893
 30
0.0
 40
0.0197
 50
140.9999999785987939
 51
224.9999999999708962
  0
ARC
  5
F1BE
  8
0
 10
812.0926783978705998
 20
111.9605207793166954
 30
0.0
 40
0.0197
 50
224.999999999983288
 51
320.9999999968753741
  0
LINE
  5
F1BF
  8
0
 10
812.1067618621681277
 20
111.9185773078404935
 30
0.0
 11
812.1846803427223449
 21
111.8406588272861057
 31
0.0
  0
ARC
  5
F1C0
  8
0
 10
812.1206918657575216
 20
111.9325073114299016
 30
0.0
 40
0.0197
 50
140.9999999968543136
 51
225.0000000000077875
  0
ARC
  5
F1C1
  8
0
 10
812.1986103463118525
 20
111.8545888308755991
 30
0.0
 40
0.0197
 50
224.9999999999994031
 51
308.9999998099160052
  0
LINE
  5
F1C2
  8
0
 10
812.9867458741681503
 20
111.0385932959405011
 30
0.0
 11
813.0646643547223675
 21
110.9606748153861986
 31
0.0
  0
LINE
  5
F1C3
  8
0
 10
813.0095413298696485
 20
111.0947748310342007
 30
0.0
 11
812.9853661023091718
 21
111.0649209112243057
 31
0.0
  0
LINE
  5
F1C4
  8
0
 10
813.1220509168830404
 20
110.9844460827648049
 30
0.0
 11
813.0909919700061437
 21
110.9592950435273053
 31
0.0
  0
ARC
  5
F1C5
  8
0
 10
812.9810949070828201
 20
110.9532349744058024
 30
0.0
 40
0.1443701145795074
 50
12.4852429353783396
 51
78.636187689539895
  0
ARC
  5
F1C6
  8
0
 10
813.0006758777575442
 20
111.052523299529895
 30
0.0
 40
0.0197
 50
141.0000000347889966
 51
224.999999999983288
  0
ARC
  5
F1C7
  8
0
 10
813.0785943583117614
 20
110.9746048189756067
 30
0.0
 40
0.0197
 50
225.0000000000158025
 51
308.9999999651599865
  0
LINE
  5
F1C8
  8
0
 10
812.8639765471682495
 20
110.9158239689405008
 30
0.0
 11
812.9418950277224667
 21
110.8379054883861983
 31
0.0
  0
LINE
  5
F1C9
  8
0
 10
812.8867720028695203
 20
110.9720055040342004
 30
0.0
 11
812.8625967753092709
 21
110.9421515842243053
 31
0.0
  0
LINE
  5
F1CA
  8
0
 10
812.9954115646885384
 20
110.8595223263134955
 30
0.0
 11
812.9682226430062428
 21
110.8365257165274045
 31
0.0
  0
ARC
  5
F1CB
  8
0
 10
812.6670540085046923
 20
110.6510901707892032
 30
0.0
 40
0.3889249904021436
 50
32.4062334133582368
 51
55.60210535736541
  0
ARC
  5
F1CC
  8
0
 10
812.8779065507576433
 20
110.9297539725298947
 30
0.0
 40
0.0197
 50
141.0000000347889966
 51
224.999999999983288
  0
ARC
  5
F1CD
  8
0
 10
812.9558250313117469
 20
110.8518354919756064
 30
0.0
 40
0.0197
 50
225.0000000000158025
 51
308.9999999651599865
  0
LINE
  5
F1CE
  8
0
 10
812.7838355968680162
 20
111.0967279562404997
 30
0.0
 11
812.8617540774224608
 21
111.0188094756861972
 31
0.0
  0
LINE
  5
F1CF
  8
0
 10
812.8066310525696281
 20
111.1529094913341993
 30
0.0
 11
812.782455825009265
 21
111.1230555715243042
 31
0.0
  0
LINE
  5
F1D0
  8
0
 10
812.9191406395829063
 20
111.0425807430647041
 30
0.0
 11
812.8880816927061232
 21
111.0174297038273039
 31
0.0
  0
ARC
  5
F1D1
  8
0
 10
812.6980977409505158
 20
110.9296996898451937
 30
0.0
 40
0.2481976938080239
 50
27.0522589672799008
 51
64.0691716576348114
  0
ARC
  5
F1D2
  8
0
 10
812.7977656004574101
 20
111.1106579598298936
 30
0.0
 40
0.0197
 50
141.0000000347889966
 51
224.999999999983288
  0
ARC
  5
F1D3
  8
0
 10
812.8756840810118547
 20
111.0327394792756053
 30
0.0
 40
0.0197
 50
225.0000000000158025
 51
308.9999999651599865
  0
LINE
  5
F1D4
  8
0
 10
812.7250606873682273
 20
110.999618906440503
 30
0.0
 11
812.8029791679224445
 21
110.9217004258862005
 31
0.0
  0
LINE
  5
F1D5
  8
0
 10
812.7478561430694981
 20
111.0558004415342026
 30
0.0
 11
812.7236809155092487
 21
111.0259465217242933
 31
0.0
  0
LINE
  5
F1D6
  8
0
 10
812.8603657300830037
 20
110.9454716932648068
 30
0.0
 11
812.8293067832062206
 21
110.920320654027293
 31
0.0
  0
ARC
  5
F1D7
  8
0
 10
812.7194097202827834
 20
110.9142605849058043
 30
0.0
 40
0.1443701145795074
 50
12.4852429353783396
 51
78.636187689539895
  0
ARC
  5
F1D8
  8
0
 10
812.7389906909575075
 20
111.0135489100298969
 30
0.0
 40
0.0197
 50
141.0000000347889966
 51
224.999999999983288
  0
ARC
  5
F1D9
  8
0
 10
812.8169091715118384
 20
110.9356304294755944
 30
0.0
 40
0.0197
 50
225.0000000000158025
 51
308.9999999651599865
  0
LINE
  5
F1DA
  8
0
 10
812.7237551804680606
 20
111.3015839895904975
 30
0.0
 11
812.8016736610223916
 21
111.223665509036195
 31
0.0
  0
LINE
  5
F1DB
  8
0
 10
812.7506903575264232
 20
111.3624815951753959
 30
0.0
 11
812.7223754086093095
 21
111.327911604874302
 31
0.0
  0
LINE
  5
F1DC
  8
0
 10
812.8590602231830644
 20
111.2474367764148013
 30
0.0
 11
812.8280012763062814
 21
111.2222857371773017
 31
0.0
  0
ARC
  5
F1DD
  8
0
 10
812.700031091304254
 20
111.2061980952186957
 30
0.0
 40
0.1642890550609234
 50
14.5374617352674598
 51
72.0399082046529315
  0
ARC
  5
F1DE
  8
0
 10
812.7376851840574545
 20
111.3155139931799056
 30
0.0
 40
0.0197
 50
141.0000000347889966
 51
224.999999999983288
  0
ARC
  5
F1DF
  8
0
 10
812.8156036646116718
 20
111.2375955126256031
 30
0.0
 40
0.0197
 50
225.0000000000158025
 51
308.9999999651599865
  0
LINE
  5
F1E0
  8
0
 10
812.6203862860679692
 20
111.1594142300404968
 30
0.0
 11
812.6983047666225275
 21
111.0814957494861943
 31
0.0
  0
LINE
  5
F1E1
  8
0
 10
812.6431817417695811
 20
111.2155957651341964
 30
0.0
 11
812.6190065142091044
 21
111.1857418453243014
 31
0.0
  0
LINE
  5
F1E2
  8
0
 10
812.7475910633141893
 20
111.0987075512316977
 30
0.0
 11
812.7246323819060763
 21
111.080115977627301
 31
0.0
  0
ARC
  5
F1E3
  8
0
 10
812.4513401233995182
 20
110.9391595648823028
 30
0.0
 40
0.336482063932679
 50
28.3049910853150983
 51
55.2400660857260277
  0
ARC
  5
F1E4
  8
0
 10
812.6343162896573631
 20
111.1733442336299049
 30
0.0
 40
0.0197
 50
141.0000000347889966
 51
224.999999999983288
  0
ARC
  5
F1E5
  8
0
 10
812.712234770211694
 20
111.0954257530756024
 30
0.0
 40
0.0197
 50
225.0000000000158025
 51
308.9999999651599865
  0
LINE
  5
F1E6
  8
0
 10
812.47868654066815
 20
111.5466526294405014
 30
0.0
 11
812.5566050212223672
 21
111.4687341488861989
 31
0.0
  0
LINE
  5
F1E7
  8
0
 10
812.5082064647953075
 20
111.611137459913607
 30
0.0
 11
812.4773067688091714
 21
111.572980244724306
 31
0.0
  0
LINE
  5
F1E8
  8
0
 10
812.6034557960177835
 20
111.4857703859548934
 30
0.0
 11
812.5829326365060297
 21
111.4673543770273056
 31
0.0
  0
ARC
  5
F1E9
  8
0
 10
812.4637419576203001
 20
111.4784879275277945
 30
0.0
 40
0.1399035054615399
 50
2.9837907943084381
 51
71.4686991543243124
  0
ARC
  5
F1EA
  8
0
 10
812.4926165442573165
 20
111.5605826330298953
 30
0.0
 40
0.0197
 50
141.0000000347889966
 51
224.999999999983288
  0
ARC
  5
F1EB
  8
0
 10
812.5705350248117611
 20
111.482664152475607
 30
0.0
 40
0.0197
 50
225.0000000000158025
 51
308.9999999651599865
  0
LINE
  5
F1EC
  8
0
 10
812.5385332713181015
 20
111.3420302817405059
 30
0.0
 11
812.6164517518724324
 21
111.2641118011862034
 31
0.0
  0
LINE
  5
F1ED
  8
0
 10
812.5613287270195997
 20
111.3982118168342055
 30
0.0
 11
812.5371534994592366
 21
111.3683578970242962
 31
0.0
  0
LINE
  5
F1EE
  8
0
 10
812.6738383140328779
 20
111.2878830685647955
 30
0.0
 11
812.6427793671560948
 21
111.2627320293272959
 31
0.0
  0
ARC
  5
F1EF
  8
0
 10
812.532882304232885
 20
111.256671960205793
 30
0.0
 40
0.1443701145795074
 50
12.4852429353783396
 51
78.636187689539895
  0
ARC
  5
F1F0
  8
0
 10
812.5524632749073817
 20
111.3559602853298998
 30
0.0
 40
0.0197
 50
141.0000000347889966
 51
224.999999999983288
  0
ARC
  5
F1F1
  8
0
 10
812.6303817554617126
 20
111.2780418047755973
 30
0.0
 40
0.0197
 50
225.0000000000158025
 51
308.9999999651599865
  0
LINE
  5
F1F2
  8
0
 10
812.3765010065460501
 20
111.4032995095627001
 30
0.0
 11
812.5199848850224953
 21
111.2598156310861981
 31
0.0
  0
LINE
  5
F1F3
  8
0
 10
812.4696292718792847
 20
111.3975266123853061
 30
0.0
 11
812.4406866326092995
 21
111.3640617269243052
 31
0.0
  0
LINE
  5
F1F4
  8
0
 10
812.5654864400781889
 20
111.2739626094889047
 30
0.0
 11
812.5463125003061577
 21
111.2584358592273048
 31
0.0
  0
ARC
  5
F1F5
  8
0
 10
812.0245548263228557
 20
110.9532879631381945
 30
0.0
 40
0.6288395976493827
 50
30.6602762063830987
 51
44.9461521625599332
  0
ARC
  5
F1F6
  8
0
 10
812.4559964080574446
 20
111.3516641152298945
 30
0.0
 40
0.0197
 50
141.0000000347889966
 51
224.999999999983288
  0
ARC
  5
F1F7
  8
0
 10
812.5339148886116618
 20
111.2737456346756062
 30
0.0
 40
0.0197
 50
225.0000000000158025
 51
308.9999999651599865
  0
LINE
  5
F1F8
  8
0
 10
812.4040784879608736
 20
111.4653863546197954
 30
0.0
 11
812.3751212346870716
 21
111.4296271248464052
 31
0.0
  0
ARC
  5
F1F9
  8
0
 10
812.3904310101353303
 20
111.4172295131519945
 30
0.0
 40
0.0197
 50
141.0000000347889966
 51
224.9999999999994031
  0
LINE
  5
F1FA
  8
0
 10
812.338560312318009
 20
111.5420032407404989
 30
0.0
 11
812.4164787928724536
 21
111.4640847601861964
 31
0.0
  0
LINE
  5
F1FB
  8
0
 10
812.3680802364451665
 20
111.6064880712136045
 30
0.0
 11
812.3371805404592578
 21
111.5683308560243034
 31
0.0
  0
LINE
  5
F1FC
  8
0
 10
812.4590634694636719
 20
111.4772929072099998
 30
0.0
 11
812.4428064081563434
 21
111.4627049883273031
 31
0.0
  0
ARC
  5
F1FD
  8
0
 10
812.1729092902165803
 20
111.3724084641434047
 30
0.0
 40
0.3047703409090871
 50
20.12946278157143
 51
50.1793212536390314
  0
ARC
  5
F1FE
  8
0
 10
812.3524903159076302
 20
111.555933244329907
 30
0.0
 40
0.0197
 50
141.0000000347889966
 51
224.999999999983288
  0
ARC
  5
F1FF
  8
0
 10
812.4304087964618475
 20
111.4780147637756045
 30
0.0
 40
0.0197
 50
225.0000000000158025
 51
308.9999999651599865
  0
LINE
  5
F200
  8
0
 10
812.6137052887680738
 20
111.1109743050405001
 30
0.0
 11
812.6916237693224048
 21
111.0330558244861976
 31
0.0
  0
LINE
  5
F201
  8
0
 10
812.7179513845638894
 20
111.0316760525929993
 30
0.0
 11
812.7377243930864097
 21
111.0476879190723025
 31
0.0
  0
LINE
  5
F202
  8
0
 10
812.6123255169483173
 20
111.1373019203724937
 30
0.0
 11
812.6258263971952829
 21
111.1539741189132968
 31
0.0
  0
ARC
  5
F203
  8
0
 10
812.6276352923574677
 20
111.124904308629894
 30
0.0
 40
0.0197
 50
140.999999854113014
 51
224.9999999999913882
  0
ARC
  5
F204
  8
0
 10
812.7055537729117987
 20
111.0469858280755062
 30
0.0
 40
0.0197
 50
225.0000000000281943
 51
308.9999998067705178
  0
ARC
  5
F205
  8
0
 10
815.8282768797604376
 20
113.8435848579409964
 30
0.0
 40
4.167559761498687
 50
218.5300767864630131
 51
219.6325590408781068
  0
ARC
  5
F206
  8
0
 10
815.8282768797604376
 20
113.8435848579409964
 30
0.0
 40
4.167559761498687
 50
221.6166182195628949
 51
222.1728801591814886
  0
ARC
  5
F207
  8
0
 10
815.8282768797604376
 20
113.8435848579409964
 30
0.0
 40
4.167559761498687
 50
224.293510615468989
 51
226.5095327514673897
  0
ARC
  5
F208
  8
0
 10
816.4812050580184177
 20
114.363507225755697
 30
0.0
 40
5.0022060785200599
 50
210.6991937433006967
 51
211.7777298158692076
  0
ARC
  5
F209
  8
0
 10
816.4812050580184177
 20
114.363507225755697
 30
0.0
 40
5.0022060785200599
 50
213.6008699455744875
 51
214.0172702266438023
  0
ARC
  5
F20A
  8
0
 10
816.4812050580184177
 20
114.363507225755697
 30
0.0
 40
5.0022060785200599
 50
214.8810110566165861
 51
216.511655438633511
  0
ARC
  5
F20B
  8
0
 10
816.4812050580184177
 20
114.363507225755697
 30
0.0
 40
5.0022060785200599
 50
218.2759159500245119
 51
218.5300767864630131
  0
ARC
  5
F20C
  8
0
 10
815.8255414594488002
 20
113.9742151488186011
 30
0.0
 40
4.2396819309316598
 50
203.745809209005813
 51
206.5204286719425966
  0
ARC
  5
F20D
  8
0
 10
815.8255414594488002
 20
113.9742151488186011
 30
0.0
 40
4.2396819309316598
 50
208.6098547140483106
 51
208.6252197288634136
  0
ARC
  5
F20E
  8
0
 10
815.8255414594488002
 20
113.9742151488186011
 30
0.0
 40
4.2396819309316598
 50
209.381256213384205
 51
210.6991937433006967
  0
ARC
  5
F20F
  8
0
 10
811.9880076038998595
 20
112.2859948620843937
 30
0.0
 40
0.0472179979890088
 50
189.5755785045460868
 51
203.7458092090055004
  0
ARC
  5
F210
  8
0
 10
811.9606685709625253
 20
112.2813827961439017
 30
0.0
 40
0.0194926688802118
 50
132.6971898108554058
 51
189.57557850454549
  0
LINE
  5
F211
  8
0
 10
811.9474501341744599
 20
112.2957088936252035
 30
0.0
 11
811.9506062858241648
 21
112.2986520526075935
 31
0.0
  0
LINE
  5
F212
  8
0
 10
813.7052498104327469
 20
110.3200893581413027
 30
0.0
 11
813.7831682909886695
 21
110.2421708775596016
 31
0.0
  0
LINE
  5
F213
  8
0
 10
813.7439254861201334
 20
110.1366380656121038
 30
0.0
 11
813.62067702801005
 21
110.2598865240210984
 31
0.0
  0
LINE
  5
F214
  8
0
 10
813.7702531014280112
 20
110.1352582937421971
 30
0.0
 11
813.81135838861087
 21
110.1685446989739035
 31
0.0
  0
LINE
  5
F215
  8
0
 10
813.7235705992534349
 20
110.1802152449525067
 30
0.0
 11
813.7680275822114027
 21
110.2118297975743957
 31
0.0
  0
LINE
  5
F216
  8
0
 10
813.6192972561984789
 20
110.2862141393255939
 30
0.0
 11
813.6309214979324906
 21
110.3005688823356962
 31
0.0
  0
LINE
  5
F217
  8
0
 10
813.8094959062772205
 20
110.2407911057002963
 30
0.0
 11
813.8542851689420559
 21
110.2770607354314052
 31
0.0
  0
LINE
  5
F218
  8
0
 10
813.703870038567743
 20
110.3464169734123033
 30
0.0
 11
813.7180545195545847
 21
110.3639333486964063
 31
0.0
  0
ARC
  5
F219
  8
0
 10
813.7191798140245282
 20
110.3340193617283944
 30
0.0
 40
0.0197
 50
141.0000000739964889
 51
224.9999999905207062
  0
ARC
  5
F21A
  8
0
 10
813.7970982945804508
 20
110.2561008811465939
 30
0.0
 40
0.0197
 50
224.9999999905126913
 51
308.9999999741190209
  0
ARC
  5
F21B
  8
0
 10
813.7121538132355454
 20
110.1962697457863953
 30
0.0
 40
0.0197
 50
224.9999999304777134
 51
305.417652791026228
  0
ARC
  5
F21C
  8
0
 10
813.6346070316162695
 20
110.2738165275935955
 30
0.0
 40
0.0197
 50
140.999999894264505
 51
224.9999999304938001
  0
ARC
  5
F21D
  8
0
 10
813.6684251639045442
 20
110.1358538770628996
 30
0.0
 40
0.2334166196368558
 50
37.2256984915437812
 51
77.7239858418803493
  0
ARC
  5
F21E
  8
0
 10
813.3357691518317552
 20
109.6942573079085008
 30
0.0
 40
0.6743356973297017
 50
50.1325487426552883
 51
64.0431907962224614
  0
ARC
  5
F21F
  8
0
 10
813.7578554897264667
 20
110.1505680691845015
 30
0.0
 40
0.0197
 50
224.9999999304693858
 51
308.9999999925333896
  0
LINE
  5
F220
  8
0
 10
814.0807823661707516
 20
109.9445568021344997
 30
0.0
 11
813.9726618337448372
 21
110.0526773347349945
 31
0.0
  0
LINE
  5
F221
  8
0
 10
814.1071099814683976
 20
109.9431770302664972
 30
0.0
 11
814.1553628458648291
 21
109.982251429376106
 31
0.0
  0
LINE
  5
F222
  8
0
 10
814.0724865998408859
 20
109.9778004119496018
 30
0.0
 11
814.1214792765405264
 21
110.0174738992481025
 31
0.0
  0
LINE
  5
F223
  8
0
 10
813.865350113517934
 20
110.1849368985050006
 30
0.0
 11
813.8757846125155311
 21
110.1978224317133055
 31
0.0
  0
LINE
  5
F224
  8
0
 10
813.9709759811732965
 20
110.0793110307725016
 30
0.0
 11
814.0168387436823423
 21
110.1164499635133041
 31
0.0
  0
ARC
  5
F225
  8
0
 10
813.8025515120209548
 20
109.9079368581920022
 30
0.0
 40
0.2989928640349144
 50
44.2175680217132623
 51
75.8221491826435283
  0
ARC
  5
F226
  8
0
 10
813.703163551822513
 20
109.4026101379123048
 30
0.0
 40
0.7436702834928229
 50
55.7710227590981233
 51
67.7199931662840839
  0
ARC
  5
F227
  8
0
 10
814.0600889881440025
 20
109.9931101873958994
 30
0.0
 40
0.0197
 50
224.9999999537353972
 51
308.9999999743560011
  0
ARC
  5
F228
  8
0
 10
814.0947123697714005
 20
109.9584868057125959
 30
0.0
 40
0.0197
 50
224.9999999537756992
 51
308.99999997514999
  0
ARC
  5
F229
  8
0
 10
813.9865918373453724
 20
110.0666073383131049
 30
0.0
 40
0.0197
 50
128.9999999568717044
 51
224.9999999537641884
  0
LINE
  5
F22A
  8
0
 10
813.9446483658806528
 20
110.0806908026443978
 30
0.0
 11
813.8667298853891907
 21
110.158609283261697
 31
0.0
  0
ARC
  5
F22B
  8
0
 10
813.958578369481188
 20
110.094620806222494
 30
0.0
 40
0.0197
 50
224.9999999537396889
 51
308.9999999568959765
  0
ARC
  5
F22C
  8
0
 10
813.8806598889896122
 20
110.1725392868397932
 30
0.0
 40
0.0197
 50
141.0000001438324944
 51
224.9999999537477038
  0
LINE
  5
F22D
  8
0
 10
813.1227990148271374
 20
110.7577645380078053
 30
0.0
 11
813.0448805343356753
 21
110.835683018625005
 31
0.0
  0
LINE
  5
F22E
  8
0
 10
813.1789805499391832
 20
110.7805599936639993
 30
0.0
 11
813.1491266301097767
 21
110.7563847661276952
 31
0.0
  0
LINE
  5
F22F
  8
0
 10
813.0686518017605522
 20
110.8930695807663938
 30
0.0
 11
813.0435007624980699
 21
110.8620106339099038
 31
0.0
  0
ARC
  5
F230
  8
0
 10
812.9557707483625109
 20
110.6720266822251943
 30
0.0
 40
0.2481976938080239
 50
25.9308282961116987
 51
62.9477409864681192
  0
ARC
  5
F231
  8
0
 10
813.1367290184279
 20
110.7716945415859016
 30
0.0
 40
0.0197
 50
224.9999999537641884
 51
308.9999999189600999
  0
ARC
  5
F232
  8
0
 10
813.0588105379365516
 20
110.8496130222032008
 30
0.0
 40
0.0197
 50
140.9999999885868078
 51
224.9999999537353972
  0
LINE
  5
F233
  8
0
 10
813.0256899649797333
 20
110.6989896285862045
 30
0.0
 11
812.9477714844882712
 21
110.7769081092035037
 31
0.0
  0
LINE
  5
F234
  8
0
 10
813.0818715000917791
 20
110.721785084242299
 30
0.0
 11
813.0520175802623726
 21
110.6976098567060944
 31
0.0
  0
LINE
  5
F235
  8
0
 10
812.9715427519131481
 20
110.834294671344793
 30
0.0
 11
812.9463917126506658
 21
110.803235724488303
 31
0.0
  0
ARC
  5
F236
  8
0
 10
812.940331643440345
 20
110.6933386615698964
 30
0.0
 40
0.1443701145795074
 50
11.3638122642105603
 51
77.5147570183682433
  0
ARC
  5
F237
  8
0
 10
813.0396199685802685
 20
110.7129196321643008
 30
0.0
 40
0.0197
 50
224.9999999537641884
 51
308.9999999189600999
  0
ARC
  5
F238
  8
0
 10
812.9617014880889201
 20
110.7908381127816
 30
0.0
 40
0.0197
 50
140.9999999885868078
 51
224.9999999537353972
  0
LINE
  5
F239
  8
0
 10
813.3276550481286904
 20
110.697684121442407
 30
0.0
 11
813.2497365676371146
 21
110.7756026020597062
 31
0.0
  0
LINE
  5
F23A
  8
0
 10
813.3885526537351325
 20
110.7246192984516995
 30
0.0
 11
813.3539826634113297
 21
110.6963043495622969
 31
0.0
  0
LINE
  5
F23B
  8
0
 10
813.2735078350619915
 20
110.8329891642010949
 30
0.0
 11
813.2483567957995092
 21
110.801930217344605
 31
0.0
  0
ARC
  5
F23C
  8
0
 10
813.232269153737775
 20
110.6739600323555948
 30
0.0
 40
0.1642890550609234
 50
17.9600917490926193
 51
75.4625382184776043
  0
ARC
  5
F23D
  8
0
 10
813.3415850517293393
 20
110.7116141250206027
 30
0.0
 40
0.0197
 50
224.9999999537641884
 51
308.9999999189600999
  0
ARC
  5
F23E
  8
0
 10
813.2636665712378772
 20
110.7895326056378025
 30
0.0
 40
0.0197
 50
140.9999999885868078
 51
224.9999999537353972
  0
LINE
  5
F23F
  8
0
 10
813.1854852884952152
 20
110.5943152271571961
 30
0.0
 11
813.1075668080037531
 21
110.6722337077743958
 31
0.0
  0
LINE
  5
F240
  8
0
 10
813.241666823607261
 20
110.6171106828133048
 30
0.0
 11
813.2118129037778544
 21
110.5929354552771002
 31
0.0
  0
LINE
  5
F241
  8
0
 10
813.1247786097890184
 20
110.7215200044523016
 30
0.0
 11
813.1061870361661477
 21
110.6985613230592946
 31
0.0
  0
ARC
  5
F242
  8
0
 10
812.9652306232004548
 20
110.4252690646664945
 30
0.0
 40
0.336482063932679
 50
34.7599338680249303
 51
61.6950088684366023
  0
ARC
  5
F243
  8
0
 10
813.1994152920957504
 20
110.6082452307353066
 30
0.0
 40
0.0197
 50
224.9999999537641884
 51
308.9999999189600999
  0
ARC
  5
F244
  8
0
 10
813.1214968116045156
 20
110.6861637113526058
 30
0.0
 40
0.0197
 50
140.9999999885868078
 51
224.9999999537353972
  0
LINE
  5
F245
  8
0
 10
813.5727236877809219
 20
110.452615481444596
 30
0.0
 11
813.4948052072893461
 21
110.5305339620618952
 31
0.0
  0
LINE
  5
F246
  8
0
 10
813.6372085182777028
 20
110.4821354055197986
 30
0.0
 11
813.5990513030635611
 21
110.4512357095645001
 31
0.0
  0
LINE
  5
F247
  8
0
 10
813.5118414443960546
 20
110.5773847368434986
 30
0.0
 11
813.4934254354518544
 21
110.5568615773466945
 31
0.0
  0
ARC
  5
F248
  8
0
 10
813.5045589858559651
 20
110.4376708984518984
 30
0.0
 40
0.1399035054615399
 50
18.5313007994270187
 51
87.0162091594380342
  0
ARC
  5
F249
  8
0
 10
813.5866536913813434
 20
110.4665454850227064
 30
0.0
 40
0.0197
 50
224.9999999537641884
 51
308.9999999189600999
  0
ARC
  5
F24A
  8
0
 10
813.508735210889995
 20
110.5444639656400057
 30
0.0
 40
0.0197
 50
140.9999999885868078
 51
224.9999999537353972
  0
LINE
  5
F24B
  8
0
 10
813.3681013401291011
 20
110.5124622122598055
 30
0.0
 11
813.2901828596377527
 21
110.5903806928770052
 31
0.0
  0
LINE
  5
F24C
  8
0
 10
813.4242828752411469
 20
110.5352576679159
 30
0.0
 11
813.3944289554118541
 21
110.5110824403796954
 31
0.0
  0
LINE
  5
F24D
  8
0
 10
813.3139541270626296
 20
110.6477672550183939
 30
0.0
 11
813.2888030878001473
 21
110.616708308161904
 31
0.0
  0
ARC
  5
F24E
  8
0
 10
813.2827430185898265
 20
110.5068112452434974
 30
0.0
 40
0.1443701145795074
 50
11.3638122642105603
 51
77.5147570183682433
  0
ARC
  5
F24F
  8
0
 10
813.3820313437298637
 20
110.5263922158379017
 30
0.0
 40
0.0197
 50
224.9999999537641884
 51
308.9999999189600999
  0
ARC
  5
F250
  8
0
 10
813.3041128632382879
 20
110.604310696455201
 30
0.0
 40
0.0197
 50
140.9999999885868078
 51
224.9999999537353972
  0
LINE
  5
F251
  8
0
 10
813.429370567820456
 20
110.3504299474382009
 30
0.0
 11
813.2858866894598577
 21
110.4939138260304929
 31
0.0
  0
LINE
  5
F252
  8
0
 10
813.4235976707183227
 20
110.4435582127761961
 30
0.0
 11
813.3901327852338454
 21
110.4146155735331973
 31
0.0
  0
LINE
  5
F253
  8
0
 10
813.3000336678993563
 20
110.5394153810749032
 30
0.0
 11
813.2845069176222523
 21
110.520241441315406
 31
0.0
  0
ARC
  5
F254
  8
0
 10
812.9793590211118044
 20
109.9984837675785059
 30
0.0
 40
0.6288395976493827
 50
45.0538477911909894
 51
59.3397237473664916
  0
ARC
  5
F255
  8
0
 10
813.377735173551855
 20
110.4299253489914037
 30
0.0
 40
0.0197
 50
224.9999999537641884
 51
308.9999999189600999
  0
ARC
  5
F256
  8
0
 10
813.2998166930605066
 20
110.5078438296086034
 30
0.0
 40
0.0197
 50
140.9999999885868078
 51
224.9999999537353972
  0
LINE
  5
F257
  8
0
 10
813.4914574128997629
 20
110.3780074288031017
 30
0.0
 11
813.455698183103209
 21
110.349050175558105
 31
0.0
  0
ARC
  5
F258
  8
0
 10
813.4433005714212186
 20
110.3643599510162971
 30
0.0
 40
0.0197
 50
224.9999999537477038
 51
308.9999999189600999
  0
LINE
  5
F259
  8
0
 10
813.5680742989676446
 20
110.3124892530984056
 30
0.0
 11
813.4901558184762962
 21
110.3904077337156053
 31
0.0
  0
LINE
  5
F25A
  8
0
 10
813.6325591294646529
 20
110.3420091771734945
 30
0.0
 11
813.5944019142503976
 21
110.3111094812182955
 31
0.0
  0
LINE
  5
F25B
  8
0
 10
813.5033639655345041
 20
110.432992410296194
 30
0.0
 11
813.4887760466386908
 21
110.4167353490005041
 31
0.0
  0
ARC
  5
F25C
  8
0
 10
813.3984795222369257
 20
110.1468382311336995
 30
0.0
 40
0.3047703409090871
 50
39.8206787001081182
 51
69.8705371721746644
  0
ARC
  5
F25D
  8
0
 10
813.5820043025685209
 20
110.3264192566765018
 30
0.0
 40
0.0197
 50
224.9999999537641884
 51
308.9999999189600999
  0
ARC
  5
F25E
  8
0
 10
813.5040858220769451
 20
110.4043377372937016
 30
0.0
 40
0.0197
 50
140.9999999885868078
 51
224.9999999537353972
  0
LINE
  5
F25F
  8
0
 10
813.1370453634898467
 20
110.5876342298962953
 30
0.0
 11
813.0591268829983846
 21
110.6655527105135945
 31
0.0
  0
LINE
  5
F260
  8
0
 10
813.0577471111265595
 20
110.6918803257561024
 30
0.0
 11
813.0737589776217646
 21
110.711653334265705
 31
0.0
  0
LINE
  5
F261
  8
0
 10
813.1633729788206892
 20
110.5862544580552935
 30
0.0
 11
813.180045177372449
 21
110.5997553382888015
 31
0.0
  0
ARC
  5
F262
  8
0
 10
813.150975367090382
 20
110.6015642334745053
 30
0.0
 40
0.0197
 50
224.999999953755804
 51
309.0000000996354856
  0
ARC
  5
F263
  8
0
 10
813.0730568865990335
 20
110.679482714091705
 30
0.0
 40
0.0197
 50
141.0000001469799997
 51
224.9999999537191968
  0
ARC
  5
F264
  8
0
 10
815.8696559189852451
 20
113.8022058186829071
 30
0.0
 40
4.167559761498687
 50
230.367440912872695
 51
231.4699231672856001
  0
ARC
  5
F265
  8
0
 10
815.8696559189852451
 20
113.8022058186829071
 30
0.0
 40
4.167559761498687
 50
227.8271197945661015
 51
228.383381734187509
  0
ARC
  5
F266
  8
0
 10
816.3895782873270264
 20
114.455133996521198
 30
0.0
 40
5.0022060785200599
 50
238.2222701378796899
 51
239.3008062104468934
  0
ARC
  5
F267
  8
0
 10
816.3895782873270264
 20
114.455133996521198
 30
0.0
 40
5.0022060785200599
 50
235.982729727103191
 51
236.3991300081756037
  0
ARC
  5
F268
  8
0
 10
816.3895782873270264
 20
114.455133996521198
 30
0.0
 40
5.0022060785200599
 50
233.4883445151156991
 51
235.1189888971314019
  0
ARC
  5
F269
  8
0
 10
816.3895782873270264
 20
114.455133996521198
 30
0.0
 40
5.0022060785200599
 50
231.4699231672856001
 51
231.7240840037250109
  0
ARC
  5
F26A
  8
0
 10
816.0002862098607466
 20
113.7994703982656972
 30
0.0
 40
4.2396819309316598
 50
243.4795712818080915
 51
246.2541907447429992
  0
ARC
  5
F26B
  8
0
 10
816.0002862098607466
 20
113.7994703982656972
 30
0.0
 40
4.2396819309316598
 50
241.3747802248853134
 51
241.39014523969891
  0
ARC
  5
F26C
  8
0
 10
816.0002862098607466
 20
113.7994703982656972
 30
0.0
 40
4.2396819309316598
 50
239.3008062104468934
 51
240.6187437403634135
  0
ARC
  5
F26D
  8
0
 10
814.3120659200285445
 20
109.9619365440796059
 30
0.0
 40
0.0472179979890088
 50
246.2541907447429992
 51
260.4244214492046012
  0
ARC
  5
F26E
  8
0
 10
814.3074538540658978
 20
109.9345975111458955
 30
0.0
 40
0.0194926688802118
 50
260.4244214492046012
 51
317.3028101428930086
  0
LINE
  5
F26F
  8
0
 10
814.3217799515366551
 20
109.9213790743463051
 30
0.0
 11
814.3239714096187072
 21
109.9237291254549973
 31
0.0
  0
LINE
  5
F270
  8
0
 10
816.0221746686953566
 20
105.1128112805633066
 30
0.0
 11
816.0221746686953566
 21
105.3049660112132955
 31
0.0
  0
LINE
  5
F271
  8
0
 10
816.9006460488952825
 20
105.1128112805633066
 30
0.0
 11
816.9006460488952825
 21
105.3299469555615957
 31
0.0
  0
LINE
  5
F272
  8
0
 10
816.0091665152026508
 20
105.0808200401367003
 30
0.0
 11
816.0224096649968715
 21
104.762984444478306
 31
0.0
  0
ARC
  5
F273
  8
0
 10
816.6976308311952835
 20
104.3450780312134043
 30
0.0
 40
0.7204724409000003
 50
244.4806412242409976
 51
271.2087184655175065
  0
LINE
  5
F274
  8
0
 10
812.884699708791004
 20
89.1738364548984066
 30
0.0
 11
812.884699708791004
 21
85.2419205426928244
 31
0.0
  0
ARC
  5
F275
  8
0
 10
813.0412210098703554
 20
85.2419223164101538
 30
0.0
 40
0.0315039111748869
 50
269.9930441669330889
 51
356.7675641427355231
  0
LINE
  5
F276
  8
0
 10
813.1518007457605108
 20
88.0445936247064935
 30
0.0
 11
813.0718608532182543
 21
85.2410227292646852
 31
0.0
  0
LINE
  5
F277
  8
0
 10
813.2014553958881606
 20
87.5223957878334886
 30
0.0
 11
813.0726747984151643
 21
85.2401459140084654
 31
0.0
  0
LINE
  5
F278
  8
0
 10
813.8298180815617116
 20
87.5521211591491237
 30
0.0
 11
813.5545378794488443
 21
87.5521211591491237
 31
0.0
  0
LINE
  5
F279
  8
0
 10
813.2763992067860954
 20
87.5521211591491237
 30
0.0
 11
813.232905367160356
 21
87.5521211591491237
 31
0.0
  0
LINE
  5
F27A
  8
0
 10
813.9420378090715076
 20
87.571821159149124
 30
0.0
 11
813.9420378090715076
 21
89.1856364548984004
 31
0.0
  0
LINE
  5
F27B
  8
0
 10
813.849518081561655
 20
88.2742516115854698
 30
0.0
 11
813.849518081561655
 21
87.571821159149124
 31
0.0
  0
LINE
  5
F27C
  8
0
 10
813.461430492998943
 20
89.1937888246962842
 30
0.0
 11
813.8126314154319516
 21
88.440636511057221
 31
0.0
  0
ARC
  5
F27D
  8
0
 10
813.4558180815614605
 20
88.2742516115854414
 30
0.0
 40
0.3937
 50
0.0000000000032569
 51
25.0000144236813995
  0
ARC
  5
F27E
  8
0
 10
813.8298180815617116
 20
87.571821159149124
 30
0.0
 40
0.0197
 50
269.999999999980389
 51
0.0000000000105849
  0
LINE
  5
F27F
  8
0
 10
813.9617378090716784
 20
87.5521211591491237
 30
0.0
 11
815.2168906746361472
 21
87.5521211591491237
 31
0.0
  0
LINE
  5
F280
  8
0
 10
816.5213254376612895
 20
87.5521211591491237
 30
0.0
 11
816.5637585038917905
 21
87.5521211591491237
 31
0.0
  0
ARC
  5
F281
  8
0
 10
813.9617378090716784
 20
87.571821159149124
 30
0.0
 40
0.0197
 50
180.0
 51
269.999999999980389
  0
ARC
  5
F282
  8
0
 10
814.0616390437436394
 20
88.2730159347927383
 30
0.0
 40
0.866141732300088
 50
97.9370521465281882
 51
125.2979914194198017
  0
ARC
  5
F283
  8
0
 10
813.232905367160356
 20
87.5206211591491297
 30
0.0
 40
0.0315
 50
90.0
 51
176.7703937390849944
  0
ARC
  5
F284
  8
0
 10
817.7630635705170334
 20
88.2237928222318573
 30
0.0
 40
4.6147434588907599
 50
182.2254627887593017
 51
188.7174042592230876
  0
ARC
  5
F285
  8
0
 10
812.9162033574899624
 20
85.2419220540334663
 30
0.0
 40
0.0315036487352923
 50
180.0027486796984135
 51
270.0059191794406956
  0
ARC
  5
F286
  8
0
 10
813.040369917951466
 20
85.2419221831336813
 30
0.0
 40
0.031503777888257
 50
270.0067884837970951
 51
358.3639449630733793
  0
ARC
  5
F287
  8
0
 10
813.4154685431175267
 20
86.6809939418451734
 30
0.0
 40
0.8821580975285996
 50
80.9296698843130002
 51
99.0703301156803917
  0
LINE
  5
F288
  8
0
 10
813.2893550827694753
 20
87.5432500459496339
 30
0.0
 11
813.4468855704209318
 21
87.5625924215572979
 31
0.0
  0
LINE
  5
F289
  8
0
 10
813.2768120828199017
 20
87.5509720556579367
 30
0.0
 11
813.2763992067860954
 21
87.5521211591490669
 31
0.0
  0
ARC
  5
F28A
  8
0
 10
813.2879170198405063
 20
87.5549620899647607
 30
0.0
 40
0.0118
 50
199.7635019836187098
 51
277.0000228790058259
  0
LINE
  5
F28B
  8
0
 10
816.0110674996219586
 20
87.3294394512428056
 30
0.0
 11
815.3790609251508386
 21
87.3294394512428056
 31
0.0
  0
ARC
  5
F28C
  8
0
 10
815.3965173407951852
 20
87.317639451242826
 30
0.0
 40
0.0118
 50
90.0
 51
180.0
  0
LINE
  5
F28D
  8
0
 10
815.8276302603005661
 20
86.9198811808133769
 30
0.0
 11
815.8276302603005661
 21
87.2151567714133762
 31
0.0
  0
LINE
  5
F28E
  8
0
 10
815.3847173407953051
 20
86.8390449604133607
 30
0.0
 11
815.3847173407953051
 21
87.317639451242826
 31
0.0
  0
LINE
  5
F28F
  8
0
 10
815.9722725536779535
 20
86.8096449604133937
 30
0.0
 11
815.4141173407953147
 21
86.8096449604133937
 31
0.0
  0
ARC
  5
F290
  8
0
 10
815.4141173407953147
 20
86.8390449604133607
 30
0.0
 40
0.0294
 50
179.9999999999926104
 51
270.0
  0
LINE
  5
F291
  8
0
 10
815.3715935330951652
 20
87.2151567714133762
 30
0.0
 11
816.0027434392321766
 21
87.2151567714133762
 31
0.0
  0
LINE
  5
F292
  8
0
 10
815.9807002398121085
 20
86.9198811808133769
 30
0.0
 11
815.3715935330951652
 21
86.9198811808133769
 31
0.0
  0
LINE
  5
F293
  8
0
 10
815.3715935330951652
 20
86.9198811808133769
 30
0.0
 11
815.3715935330951652
 21
87.2151567714133762
 31
0.0
  0
LINE
  5
F294
  8
0
 10
815.8055915934951372
 20
86.9198811808133769
 30
0.0
 11
815.8055915934951372
 21
87.2151567714133762
 31
0.0
  0
LINE
  5
F295
  8
0
 10
815.7848834190954221
 20
86.9198811808133769
 30
0.0
 11
815.7848834190954221
 21
87.2151567714133762
 31
0.0
  0
LINE
  5
F296
  8
0
 10
815.7617191006952453
 20
86.9198811808133769
 30
0.0
 11
815.7617191006952453
 21
87.2151567714133762
 31
0.0
  0
LINE
  5
F297
  8
0
 10
815.7425352316954559
 20
86.9198811808133769
 30
0.0
 11
815.7425352316954559
 21
87.2151567714133762
 31
0.0
  0
LINE
  5
F298
  8
0
 10
815.7184620069953098
 20
86.9198811808133769
 30
0.0
 11
815.7184620069953098
 21
87.2151567714133762
 31
0.0
  0
LINE
  5
F299
  8
0
 10
815.7009815579951919
 20
86.9198811808133769
 30
0.0
 11
815.7009815579951919
 21
87.2151567714133762
 31
0.0
  0
LINE
  5
F29A
  8
0
 10
815.6762241921952636
 20
86.9198811808133769
 30
0.0
 11
815.6762241921952636
 21
87.2151567714133762
 31
0.0
  0
LINE
  5
F29B
  8
0
 10
815.660610373495274
 20
86.9198811808133769
 30
0.0
 11
815.660610373495274
 21
87.2151567714133762
 31
0.0
  0
LINE
  5
F29C
  8
0
 10
815.6354000193953198
 20
86.9198811808133769
 30
0.0
 11
815.6354000193953198
 21
87.2151567714133762
 31
0.0
  0
LINE
  5
F29D
  8
0
 10
815.6217986129953488
 20
86.9198811808133769
 30
0.0
 11
815.6217986129953488
 21
87.2151567714133762
 31
0.0
  0
LINE
  5
F29E
  8
0
 10
815.5963706529952333
 20
86.9198811808133769
 30
0.0
 11
815.5963706529952333
 21
87.2151567714133762
 31
0.0
  0
LINE
  5
F29F
  8
0
 10
815.5849086514953115
 20
86.9198811808133769
 30
0.0
 11
815.5849086514953115
 21
87.2151567714133762
 31
0.0
  0
LINE
  5
F2A0
  8
0
 10
815.5595004994951296
 20
86.9198811808133769
 30
0.0
 11
815.5595004994951296
 21
87.2151567714133762
 31
0.0
  0
LINE
  5
F2A1
  8
0
 10
815.5502849205953453
 20
86.9198811808133769
 30
0.0
 11
815.5502849205953453
 21
87.2151567714133762
 31
0.0
  0
LINE
  5
F2A2
  8
0
 10
815.5251338057952353
 20
86.9198811808133769
 30
0.0
 11
815.5251338057952353
 21
87.2151567714133762
 31
0.0
  0
LINE
  5
F2A3
  8
0
 10
815.5182506927952772
 20
86.9198811808133769
 30
0.0
 11
815.5182506927952772
 21
87.2151567714133762
 31
0.0
  0
LINE
  5
F2A4
  8
0
 10
815.4935914441953173
 20
86.9198811808133769
 30
0.0
 11
815.4935914441953173
 21
87.2151567714133762
 31
0.0
  0
LINE
  5
F2A5
  8
0
 10
815.489105062995236
 20
86.9198811808133769
 30
0.0
 11
815.489105062995236
 21
87.2151567714133762
 31
0.0
  0
LINE
  5
F2A6
  8
0
 10
815.4651679174952505
 20
86.9198811808133769
 30
0.0
 11
815.4651679174952505
 21
87.2151567714133762
 31
0.0
  0
LINE
  5
F2A7
  8
0
 10
815.4401286082952538
 20
86.9198811808133769
 30
0.0
 11
815.4401286082952538
 21
87.2151567714133762
 31
0.0
  0
LINE
  5
F2A8
  8
0
 10
815.4187073020952994
 20
86.9198811808133769
 30
0.0
 11
815.4187073020952994
 21
87.2151567714133762
 31
0.0
  0
LINE
  5
F2A9
  8
0
 10
815.401104003595151
 20
86.9198811808133769
 30
0.0
 11
815.401104003595151
 21
87.2151567714133762
 31
0.0
  0
LINE
  5
F2AA
  8
0
 10
815.387483070295275
 20
86.9198811808133769
 30
0.0
 11
815.387483070295275
 21
87.2151567714133762
 31
0.0
  0
LINE
  5
F2AB
  8
0
 10
815.3779716769953438
 20
86.9198811808133769
 30
0.0
 11
815.3779716769953438
 21
87.2151567714133762
 31
0.0
  0
LINE
  5
F2AC
  8
0
 10
815.8496689271058813
 20
86.9198811808133769
 30
0.0
 11
815.8496689271058813
 21
87.2151567714133762
 31
0.0
  0
LINE
  5
F2AD
  8
0
 10
815.8703771015058237
 20
86.9198811808133769
 30
0.0
 11
815.8703771015058237
 21
87.2151567714133762
 31
0.0
  0
LINE
  5
F2AE
  8
0
 10
815.8935414199057732
 20
86.9198811808133769
 30
0.0
 11
815.8935414199057732
 21
87.2151567714133762
 31
0.0
  0
LINE
  5
F2AF
  8
0
 10
815.91272528890579
 20
86.9198811808133769
 30
0.0
 11
815.91272528890579
 21
87.2151567714133762
 31
0.0
  0
LINE
  5
F2B0
  8
0
 10
815.9367985136057086
 20
86.9198811808133769
 30
0.0
 11
815.9367985136057086
 21
87.2151567714133762
 31
0.0
  0
LINE
  5
F2B1
  8
0
 10
815.9542789626058266
 20
86.9198811808133769
 30
0.0
 11
815.9542789626058266
 21
87.2151567714133762
 31
0.0
  0
LINE
  5
F2B2
  8
0
 10
815.9790363284057548
 20
86.9198811808133769
 30
0.0
 11
815.9790363284057548
 21
87.2151567714133762
 31
0.0
  0
LINE
  5
F2B3
  8
0
 10
815.9946501471057445
 20
86.9198811808133769
 30
0.0
 11
815.9946501471057445
 21
87.2151567714133762
 31
0.0
  0
LINE
  5
F2B4
  8
0
 10
816.020109741833835
 20
87.4554237597407962
 30
0.0
 11
815.3199913526702858
 21
87.4554237597407962
 31
0.0
  0
ARC
  5
F2B5
  8
0
 10
815.2213470966584055
 20
87.4732856349933741
 30
0.0
 40
0.0789613802194121
 50
1.0675188564429841
 51
93.2353780793616949
  0
ARC
  5
F2B6
  8
0
 10
815.3199913526701721
 20
87.4751237597402564
 30
0.0
 40
0.0197
 50
181.0675188548891867
 51
270.0000000006187975
  0
ARC
  5
F2B7
  8
0
 10
816.3734749186297677
 20
85.7036876447458553
 30
0.0
 40
2.1778680838282072
 50
116.5506056946588984
 51
121.9194847491791052
  0
ARC
  5
F2B8
  8
0
 10
815.8318017416021348
 20
86.6790793457262936
 30
0.0
 40
1.0643281673917531
 50
78.7823194552484551
 51
113.9355863702747058
  0
LINE
  5
F2B9
  8
0
 10
815.3593609251507814
 20
87.3491394512428059
 30
0.0
 11
815.3593609251507814
 21
87.4554237597407962
 31
0.0
  0
ARC
  5
F2BA
  8
0
 10
815.3790609251508386
 20
87.3491394512428059
 30
0.0
 40
0.0197
 50
179.9999999999795932
 51
269.999999999980389
  0
LINE
  5
F2BB
  8
0
 10
818.2724341786936293
 20
89.8766620465665653
 30
0.0
 11
818.2724341786936293
 21
87.3176368496665418
 31
0.0
  0
LINE
  5
F2BC
  8
0
 10
817.5017161575823366
 20
87.9801203748505145
 30
0.0
 11
817.9755715696937841
 21
87.3736131051830682
 31
0.0
  0
LINE
  5
F2BD
  8
0
 10
817.5017161575823366
 20
89.214190801635155
 30
0.0
 11
817.9755715696937841
 21
89.8206980703009776
 31
0.0
  0
LINE
  5
F2BE
  8
0
 10
817.4850326038937283
 20
89.165738243530285
 30
0.0
 11
817.4850326038937283
 21
88.0285729329553561
 31
0.0
  0
ARC
  5
F2BF
  8
0
 10
817.5637326038936408
 20
89.165738243530285
 30
0.0
 40
0.0787
 50
142.0000000030156002
 51
180.0
  0
ARC
  5
F2C0
  8
0
 10
817.5637326038936408
 20
88.0285729329553561
 30
0.0
 40
0.0787
 50
179.9999999999967031
 51
217.9999999969869862
  0
LINE
  5
F2C1
  8
0
 10
817.2409382209733621
 20
89.1117225173928489
 30
0.0
 11
817.4850326038937283
 21
89.1117225173928489
 31
0.0
  0
LINE
  5
F2C2
  8
0
 10
817.4850326038937283
 20
88.0825886590928349
 30
0.0
 11
817.2409382209733621
 21
88.0825886590928349
 31
0.0
  0
LINE
  5
F2C3
  8
0
 10
816.5834585038918476
 20
88.1758958797928187
 30
0.0
 11
816.6503869888423424
 21
88.1758958797928187
 31
0.0
  0
LINE
  5
F2C4
  8
0
 10
816.6126390160818573
 20
89.0184155647928321
 30
0.0
 11
816.6503868801449926
 21
89.0184155647928321
 31
0.0
  0
LINE
  5
F2C5
  8
0
 10
817.2409382209733621
 20
89.1680222601634256
 30
0.0
 11
817.2409382209733621
 21
88.026290187322374
 31
0.0
  0
LINE
  5
F2C6
  8
0
 10
816.6503870765975535
 20
88.0262901533390618
 30
0.0
 11
816.6503870765975535
 21
89.1680227209468512
 31
0.0
  0
LINE
  5
F2C7
  8
0
 10
816.6503870765975535
 20
89.1680227209468512
 30
0.0
 11
816.7094422605127875
 21
89.2270713586665352
 31
0.0
  0
LINE
  5
F2C8
  8
0
 10
816.7094484366748475
 20
87.9672288390665358
 30
0.0
 11
816.6503870765975535
 21
88.0262901533390618
 31
0.0
  0
LINE
  5
F2C9
  8
0
 10
816.5834585038918476
 20
88.5260668223832567
 30
0.0
 11
816.5834585038918476
 21
87.571821159149124
 31
0.0
  0
ARC
  5
F2CA
  8
0
 10
816.5637585038917905
 20
87.571821159149124
 30
0.0
 40
0.0197
 50
270.000000000019611
 51
0.0
  0
LINE
  5
F2CB
  8
0
 10
817.2409382209733621
 20
88.026290187322374
 30
0.0
 11
817.1818769184222901
 21
87.9672288390665358
 31
0.0
  0
LINE
  5
F2CC
  8
0
 10
817.2409382209733621
 20
89.1680222601634256
 30
0.0
 11
817.1818832774742987
 21
89.2270713586665352
 31
0.0
  0
LINE
  5
F2CD
  8
0
 10
816.7094421974639999
 20
87.9761223252644555
 30
0.0
 11
817.1818833405231999
 21
87.9761223252644555
 31
0.0
  0
LINE
  5
F2CE
  8
0
 10
816.7094422605127875
 20
88.1953256782873041
 30
0.0
 11
817.1818832774742987
 21
88.1953256782873041
 31
0.0
  0
LINE
  5
F2CF
  8
0
 10
816.7094422196964842
 20
88.3779530275558898
 30
0.0
 11
817.1818833182907156
 21
88.3779530275558898
 31
0.0
  0
LINE
  5
F2D0
  8
0
 10
816.7094422605127875
 20
88.8163596853329267
 30
0.0
 11
817.1818832774742987
 21
88.8163596853329267
 31
0.0
  0
LINE
  5
F2D1
  8
0
 10
816.7094421847635886
 20
88.9989869948428236
 30
0.0
 11
817.181883353223725
 21
88.9989869948428236
 31
0.0
  0
LINE
  5
F2D2
  8
0
 10
817.1818836482279949
 20
89.2181903348104868
 30
0.0
 11
816.709441889759205
 21
89.2181903348104868
 31
0.0
  0
LINE
  5
F2D3
  8
0
 10
816.7094422605127875
 20
88.9989869033861538
 30
0.0
 11
816.7094422605127875
 21
88.8163596853324435
 31
0.0
  0
LINE
  5
F2D4
  8
0
 10
816.7094422605127875
 20
88.3779529175934044
 30
0.0
 11
816.7094422605127875
 21
88.1953256782875741
 31
0.0
  0
LINE
  5
F2D5
  8
0
 10
816.7094422605127875
 20
87.9761222491407437
 30
0.0
 11
816.7094484366748475
 21
87.9672288390665358
 31
0.0
  0
LINE
  5
F2D6
  8
0
 10
816.7094422605127875
 20
89.2181907824448643
 30
0.0
 11
816.7094422605127875
 21
89.2270713586665352
 31
0.0
  0
ARC
  5
F2D7
  8
0
 10
816.8417720950503735
 20
88.0857239637141731
 30
0.0
 40
0.1718246808409198
 50
140.3668674483866994
 51
219.6331307539118995
  0
ARC
  5
F2D8
  8
0
 10
817.2999953902555035
 20
88.5971563014629169
 30
0.0
 40
0.6299231084416642
 50
159.6359215419514896
 51
200.3640784580485104
  0
ARC
  5
F2D9
  8
0
 10
816.8417711842997733
 20
89.1085888429155091
 30
0.0
 40
0.1718241229257742
 50
140.3666159597227931
 51
219.6333840402772069
  0
LINE
  5
F2DA
  8
0
 10
817.1818832774742987
 20
88.9989869033861538
 30
0.0
 11
817.1818832774742987
 21
88.8163596853324435
 31
0.0
  0
LINE
  5
F2DB
  8
0
 10
817.1818832774742987
 20
88.3779529175934044
 30
0.0
 11
817.1818832774742987
 21
88.1953256782875741
 31
0.0
  0
LINE
  5
F2DC
  8
0
 10
817.1818832774742987
 20
87.9761222491407437
 30
0.0
 11
817.1818769184222901
 21
87.9672288390665358
 31
0.0
  0
LINE
  5
F2DD
  8
0
 10
817.1818832774742987
 20
89.2181907824448643
 30
0.0
 11
817.1818832774742987
 21
89.2270713586665352
 31
0.0
  0
ARC
  5
F2DE
  8
0
 10
817.04955344293694
 20
88.0857239637141731
 30
0.0
 40
0.1718246808409198
 50
320.366869246088072
 51
39.6331325516132722
  0
ARC
  5
F2DF
  8
0
 10
816.5913301477316963
 20
88.5971563014629169
 30
0.0
 40
0.6299231084416642
 50
339.6359215419515181
 51
20.3640784580485104
  0
ARC
  5
F2E0
  8
0
 10
817.0495543536874266
 20
89.1085888429155091
 30
0.0
 40
0.1718241229257742
 50
320.36661595972231
 51
39.6333840402771784
  0
ARC
  5
F2E1
  8
0
 10
815.4790814397978238
 20
89.1251099951697086
 30
0.0
 40
0.087825473000443
 50
18.451671486485651
 51
65.9902143040717704
  0
ARC
  5
F2E2
  8
0
 10
813.4237536600104477
 20
88.579332307494667
 30
0.0
 40
2.214218054872763
 50
348.161872899054174
 51
15.0132089134989801
  0
ARC
  5
F2E3
  8
0
 10
814.9988701654439183
 20
88.2867862363378038
 30
0.0
 40
0.6136922706194098
 50
334.6250878396871258
 51
344.7234103260670963
  0
ARC
  5
F2E4
  8
0
 10
815.4939028057324322
 20
88.051993031064427
 30
0.0
 40
0.0658007081789614
 50
285.7039646819761742
 51
334.62508783968849
  0
ARC
  5
F2E5
  8
0
 10
815.297218563575484
 20
87.6465005144180793
 30
0.0
 40
0.3421835414469892
 50
89.1736133307057486
 51
96.3524770366698249
  0
ARC
  5
F2E6
  8
0
 10
815.2835983540207963
 20
87.7964132560424986
 30
0.0
 40
0.1917085269319341
 50
97.2642035529222255
 51
136.6684200922069863
  0
ARC
  5
F2E7
  8
0
 10
815.4940196048115695
 20
87.5618944650037037
 30
0.0
 40
0.5063770210625747
 50
133.7034477535511883
 51
151.5590394805049073
  0
ARC
  5
F2E8
  8
0
 10
730.8550880621505712
 20
93.664580659747827
 30
0.0
 40
84.3974615601686224
 50
356.0175213993185253
 51
356.3703046337071783
  0
ARC
  5
F2E9
  8
0
 10
810.8436453532935957
 20
88.4242689817221503
 30
0.0
 40
4.2408510820074747
 50
358.612295423919079
 51
10.6131568414938897
  0
ARC
  5
F2EA
  8
0
 10
816.5635829625867927
 20
88.0087957396437446
 30
0.0
 40
0.0201481769393643
 50
269.4578628312970068
 51
350.5645613362939912
  0
LINE
  5
F2EB
  8
0
 10
816.5637736034235559
 20
87.9886484646406046
 30
0.0
 11
816.5637736034235559
 21
88.207393479413895
 31
0.0
  0
LINE
  5
F2EC
  8
0
 10
816.5637736034235559
 20
88.0853442660385895
 30
0.0
 11
816.5834585038918476
 21
88.0853442660385895
 31
0.0
  0
LINE
  5
F2ED
  8
0
 10
816.5736123382658889
 20
88.0912497809308377
 30
0.0
 11
816.5637736034235559
 21
88.0912497809308377
 31
0.0
  0
ARC
  5
F2EE
  8
0
 10
816.5736175629007221
 20
88.1010922998773367
 30
0.0
 40
0.0098425203368007
 50
269.9695860897011812
 51
358.9735722666325728
  0
ARC
  5
F2EF
  8
0
 10
814.061638961743256
 20
88.4847677446905152
 30
0.0
 40
0.8661417322976447
 50
255.8238868930961871
 51
262.0629533302911227
  0
LINE
  5
F2F0
  8
0
 10
815.5117128899920544
 20
87.9886484646406046
 30
0.0
 11
815.302153763260435
 21
87.9886484646406046
 31
0.0
  0
ARC
  5
F2F1
  8
0
 10
1072.0492710578209881
 20
102.4005732210990942
 30
0.0
 40
255.8414474924481112
 50
179.7007067858720006
 51
180.8625982241632926
  0
ARC
  5
F2F2
  8
0
 10
1092.2003026352119832
 20
102.703973534313505
 30
0.0
 40
275.9947629860106986
 50
180.8625982241632926
 51
181.2775725743495912
  0
ARC
  5
F2F3
  8
0
 10
732.2758299120472429
 20
94.6771020537714776
 30
0.0
 40
84.0192044247180974
 50
358.3477741847419225
 51
1.2775725743496249
  0
ARC
  5
F2F4
  8
0
 10
702.5880568841637341
 20
95.5334392253825513
 30
0.0
 40
113.719325311788694
 50
355.4797075093214858
 51
358.3477741847419225
  0
ARC
  5
F2F5
  8
0
 10
1071.62775318350009
 20
66.3578689242473132
 30
0.0
 40
256.4718568456240746
 50
175.4797075093215142
 51
176.6929500778435909
  0
ARC
  5
F2F6
  8
0
 10
822.0221480540321863
 20
80.7808524492434969
 30
0.0
 40
6.4498966785017311
 50
176.6929500778435909
 51
180.8034342372936862
  0
ARC
  5
F2F7
  8
0
 10
815.8326702653032498
 20
80.7256612668957843
 30
0.0
 40
0.2621653854894634
 50
187.7272281637945923
 51
267.4108824700239211
  0
ARC
  5
F2F8
  8
0
 10
815.811361323740698
 20
80.7251310851051755
 30
0.0
 40
0.2615389395106408
 50
272.0742031639160814
 51
354.2299542367796903
  0
ARC
  5
F2F9
  8
0
 10
879.7278626474254679
 20
78.2610037385733932
 30
0.0
 40
63.7029510196722413
 50
175.4656685487458105
 51
177.8068257721371026
  0
ARC
  5
F2FA
  8
0
 10
89.6822404106353446
 20
136.143997391203186
 30
0.0
 40
728.4614918436178641
 50
355.8397737791997884
 51
356.1624112229346792
  0
ARC
  5
F2FB
  8
0
 10
654.013171086157854
 20
98.4083174059065158
 30
0.0
 40
162.8703693975062947
 50
356.1206364733520218
 51
357.4591621711326752
  0
ARC
  5
F2FC
  8
0
 10
722.7884264737053854
 20
94.8664693034448021
 30
0.0
 40
94.0069874363289841
 50
357.7574811209693166
 51
1.684202926451275
  0
ARC
  5
F2FD
  8
0
 10
1021.1062811786709972
 20
102.0579119743196941
 30
0.0
 40
204.3994578661524031
 50
179.5594454030415932
 51
181.2414667239488892
  0
LINE
  5
F2FE
  8
0
 10
815.5830369135951514
 20
86.1462591336133556
 30
0.0
 11
815.5830369135951514
 21
81.153700232635714
 31
0.0
  0
LINE
  5
F2FF
  8
0
 10
815.5365253216951942
 20
86.1462591336133556
 30
0.0
 11
815.9204342292624688
 21
86.1462591336133556
 31
0.0
  0
LINE
  5
F300
  8
0
 10
815.5365253216951942
 20
86.1462591336133556
 30
0.0
 11
815.5365253216951942
 21
86.8096449604133937
 31
0.0
  0
LINE
  5
F301
  8
0
 10
818.2527341786935722
 20
89.8963620465665656
 30
0.0
 11
818.1307212927007413
 21
89.8963620465665656
 31
0.0
  0
LINE
  5
F302
  8
0
 10
818.2527341786935722
 20
87.2979368496665415
 30
0.0
 11
818.1307308870854058
 21
87.2979368496665415
 31
0.0
  0
LINE
  5
F303
  8
0
 10
813.041217185226742
 20
85.2104184054665268
 30
0.0
 11
812.9162066121057251
 21
85.2104184054665268
 31
0.0
  0
ARC
  5
F304
  8
0
 10
818.2527341786935722
 20
89.8766620465665653
 30
0.0
 40
0.0197
 50
0.0
 51
90.0000000000130314
  0
ARC
  5
F305
  8
0
 10
818.2527341786935722
 20
87.3176368496665418
 30
0.0
 40
0.0197
 50
269.999999999980389
 51
0.0
  0
ARC
  5
F306
  8
0
 10
818.1307308870854058
 20
87.4948368496665125
 30
0.0
 40
0.1969
 50
217.9999999969842861
 51
270.0
  0
ARC
  5
F307
  8
0
 10
818.1307212927007413
 20
89.6994620465665662
 30
0.0
 40
0.1969000000000114
 50
90.0
 51
141.9954654960318976
  0
LINE
  5
F308
  8
0
 10
816.1311767316234409
 20
89.2053364548984007
 30
0.0
 11
813.9617378090716784
 21
89.2053364548984007
 31
0.0
  0
ARC
  5
F309
  8
0
 10
813.9617378090716784
 20
89.1856364548984004
 30
0.0
 40
0.0197
 50
90.0
 51
180.0000000000048885
  0
LINE
  5
F30A
  8
0
 10
813.4433043393860316
 20
89.2053364548984007
 30
0.0
 11
812.9161997087908276
 21
89.2053364548984007
 31
0.0
  0
ARC
  5
F30B
  8
0
 10
813.4433043393860316
 20
89.1853364548983905
 30
0.0
 40
0.02
 50
25.0000144236835808
 51
90.0000000000065086
  0
ARC
  5
F30C
  8
0
 10
812.9161997087908276
 20
89.1738364548984066
 30
0.0
 40
0.0315
 50
90.0000000000065086
 51
179.9999999999917861
  0
LINE
  5
F30E
  8
0
 10
817.1818832774742987
 20
89.2270713586665352
 30
0.0
 11
816.7094422605127875
 21
89.2270713586665352
 31
0.0
  0
LINE
  5
F30F
  8
0
 10
817.1818769184222901
 20
87.9672288390665358
 30
0.0
 11
816.7094484366748475
 21
87.9672288390665358
 31
0.0
  0
LINE
  5
F310
  8
0
 10
816.9380610937597567
 20
105.0931112805633063
 30
0.0
 11
816.020956285465104
 21
105.0931112805633063
 31
0.0
  0
ARC
  5
F311
  8
0
 10
816.020956285465104
 20
105.0813112805632983
 30
0.0
 40
0.0118
 50
90.0
 51
182.3859440259226972
  0
ARC
  5
F312
  8
0
 10
816.8809460488953391
 20
105.1128112805633066
 30
0.0
 40
0.0197
 50
269.9999999999869829
 51
0.0
  0
ARC
  5
F313
  8
0
 10
816.0418746686953
 20
105.1128112805633066
 30
0.0
 40
0.0197
 50
180.0
 51
270.0000000000130171
  0
LINE
  5
F314
  8
0
 10
817.9755715696937841
 20
87.3736131051830682
 30
0.0
 11
817.9755715696937841
 21
89.8206980703009776
 31
0.0
  0
ENDSEC
  0
EOF
