  0
SECTION
  2
HEADER
  9
$ACADVER
  1
AC1009
  9
$INSBASE
 10
840.9310563252140582
 20
95.9389136532882674
 30
0.0
  9
$EXTMIN
 10
834.4799922201924574
 20
78.0632949655961141
 30
0.0
  9
$EXTMAX
 10
840.9425279676876244
 20
123.4745951675379985
 30
0.0
  9
$LIMMIN
 10
0.0
 20
0.0
  9
$LIMMAX
 10
11.6929133858000007
 20
8.2677165353999982
  9
$ORTHOMODE
 70
     0
  9
$REGENMODE
 70
     1
  9
$FILLMODE
 70
     1
  9
$QTEXTMODE
 70
     0
  9
$MIRRTEXT
 70
     0
  9
$DRAGMODE
 70
     2
  9
$LTSCALE
 40
0.6431102362
  9
$OSMODE
 70
  4095
  9
$ATTMODE
 70
     1
  9
$TEXTSIZE
 40
0.2
  9
$TRACEWID
 40
0.05
  9
$TEXTSTYLE
  7
STANDARD
  9
$CLAYER
  8
0
  9
$CELTYPE
  6
BYLAYER
  9
$CECOLOR
 62
   256
  9
$DIMSCALE
 40
1.0
  9
$DIMASZ
 40
0.1875
  9
$DIMEXO
 40
0.0625
  9
$DIMDLI
 40
0.4443307087
  9
$DIMRND
 40
0.0
  9
$DIMDLE
 40
0.0
  9
$DIMEXE
 40
0.125
  9
$DIMTP
 40
0.01
  9
$DIMTM
 40
0.01
  9
$DIMTXT
 40
1.0
  9
$DIMCEN
 40
0.1052362205
  9
$DIMTSZ
 40
0.0
  9
$DIMTOL
 70
     1
  9
$DIMLIM
 70
     0
  9
$DIMTIH
 70
     0
  9
$DIMTOH
 70
     1
  9
$DIMSE1
 70
     0
  9
$DIMSE2
 70
     0
  9
$DIMTAD
 70
     0
  9
$DIMZIN
 70
     0
  9
$DIMBLK
  1

  9
$DIMASO
 70
     1
  9
$DIMSHO
 70
     1
  9
$DIMPOST
  1
\X
  9
$DIMAPOST
  1

  9
$DIMALT
 70
     1
  9
$DIMALTD
 70
     2
  9
$DIMALTF
 40
25.3999999999999986
  9
$DIMLFAC
 40
1.0
  9
$DIMTOFL
 70
     0
  9
$DIMTVP
 40
0.0
  9
$DIMTIX
 70
     0
  9
$DIMSOXD
 70
     0
  9
$DIMSAH
 70
     0
  9
$DIMBLK1
  1

  9
$DIMBLK2
  1

  9
$DIMSTYLE
  2
STANDARD
  9
$DIMCLRD
 70
     0
  9
$DIMCLRE
 70
     0
  9
$DIMCLRT
 70
     0
  9
$DIMTFAC
 40
1.0
  9
$DIMGAP
 40
0.09
  9
$LUNITS
 70
     2
  9
$LUPREC
 70
     4
  9
$SKETCHINC
 40
0.1
  9
$FILLETRAD
 40
0.02
  9
$AUNITS
 70
     0
  9
$AUPREC
 70
     0
  9
$MENU
  1
.
  9
$ELEVATION
 40
0.0
  9
$PELEVATION
 40
0.0
  9
$THICKNESS
 40
0.0
  9
$LIMCHECK
 70
     0
  9
$BLIPMODE
 70
     0
  9
$CHAMFERA
 40
0.0
  9
$CHAMFERB
 40
0.0
  9
$SKPOLY
 70
     0
  9
$TDCREATE
 40
2458172.5207638889551163
  9
$TDUPDATE
 40
2459951.4528009258210659
  9
$TDINDWG
 40
0.3923039583
  9
$TDUSRTIMER
 40
0.3923039583
  9
$USRTIMER
 70
     1
  9
$ANGBASE
 50
0.0
  9
$ANGDIR
 70
     0
  9
$PDMODE
 70
     0
  9
$PDSIZE
 40
0.3125
  9
$PLINEWID
 40
0.0
  9
$COORDS
 70
     1
  9
$SPLFRAME
 70
     0
  9
$SPLINETYPE
 70
     6
  9
$SPLINESEGS
 70
     8
  9
$ATTDIA
 70
     1
  9
$ATTREQ
 70
     1
  9
$HANDLING
 70
     1
  9
$HANDSEED
  5
FD36
  9
$SURFTAB1
 70
     6
  9
$SURFTAB2
 70
     6
  9
$SURFTYPE
 70
     6
  9
$SURFU
 70
     6
  9
$SURFV
 70
     6
  9
$UCSNAME
  2

  9
$UCSORG
 10
0.0
 20
0.0
 30
0.0
  9
$UCSXDIR
 10
1.0
 20
0.0
 30
0.0
  9
$UCSYDIR
 10
0.0
 20
1.0
 30
0.0
  9
$PUCSNAME
  2

  9
$PUCSORG
 10
0.0
 20
0.0
 30
0.0
  9
$PUCSXDIR
 10
1.0
 20
0.0
 30
0.0
  9
$PUCSYDIR
 10
0.0
 20
1.0
 30
0.0
  9
$USERI1
 70
     0
  9
$USERI2
 70
     0
  9
$USERI3
 70
     0
  9
$USERI4
 70
     0
  9
$USERI5
 70
     0
  9
$USERR1
 40
0.0
  9
$USERR2
 40
0.0
  9
$USERR3
 40
0.0
  9
$USERR4
 40
0.0
  9
$USERR5
 40
0.0
  9
$WORLDVIEW
 70
     1
  9
$SHADEDGE
 70
     3
  9
$SHADEDIF
 70
    70
  9
$TILEMODE
 70
     1
  9
$MAXACTVP
 70
    64
  9
$PLIMCHECK
 70
     0
  9
$PEXTMIN
 10
1.0000000000000000E+20
 20
1.0000000000000000E+20
 30
1.0000000000000000E+20
  9
$PEXTMAX
 10
-1.0000000000000000E+20
 20
-1.0000000000000000E+20
 30
-1.0000000000000000E+20
  9
$PLIMMIN
 10
0.0
 20
0.0
  9
$PLIMMAX
 10
12.0
 20
9.0
  9
$UNITMODE
 70
     0
  9
$VISRETAIN
 70
     1
  9
$PLINEGEN
 70
     0
  9
$PSLTSCALE
 70
     1
  0
ENDSEC
  0
SECTION
  2
TABLES
  0
TABLE
  2
VPORT
 70
     1
  0
VPORT
  2
*ACTIVE
 70
     0
 10
0.0
 20
0.0
 11
1.0
 21
1.0
 12
370.9867871120690097
 22
11.6332089013618294
 13
0.0
 23
0.0
 14
1.0
 24
1.0
 15
0.0
 25
0.0
 16
0.0
 26
0.0
 36
24.1179433675886514
 17
466.74220170783002
 27
89.133147119929788
 37
0.0
 40
45.7826956526330875
 41
1.6441798941798931
 42
50.0
 43
0.0
 44
0.0
 50
0.0
 51
0.0
 71
     0
 72
   100
 73
     1
 74
     1
 75
     0
 76
     0
 77
     0
 78
     0
  0
ENDTAB
  0
TABLE
  2
LTYPE
 70
     2
  0
LTYPE
  2
CONTINUOUS
 70
     0
  3
Solid line
 72
    65
 73
     0
 40
0.0
  0
LTYPE
  2
PHANTOM2
 70
     0
  3
___ _ _ ___ _ _ ___ _ _ ___ _ _
 72
    65
 73
     6
 40
1.25
 49
0.625
 49
-0.125
 49
0.125
 49
-0.125
 49
0.125
 49
-0.125
  0
ENDTAB
  0
TABLE
  2
LAYER
 70
     2
  0
LAYER
  2
0
 70
     0
 62
   255
  6
CONTINUOUS
  0
LAYER
  2
DEFPOINTS
 70
     0
 62
     7
  6
CONTINUOUS
  0
ENDTAB
  0
TABLE
  2
STYLE
 70
     1
  0
STYLE
  2
STANDARD
 70
     0
 40
0.0
 41
0.8
 50
0.0
 71
     0
 42
0.2
  3
txt
  4

  0
ENDTAB
  0
TABLE
  2
VIEW
 70
     0
  0
ENDTAB
  0
TABLE
  2
UCS
 70
     0
  0
ENDTAB
  0
TABLE
  2
APPID
 70
    11
  0
APPID
  2
ACAD
 70
     0
  0
APPID
  2
ACAD_MLEADERVER
 70
     0
  0
APPID
  2
ACAD_EXEMPT_FROM_CAD_STANDARDS
 70
     0
  0
APPID
  2
ACAD_DSTYLE_DIMJAG
 70
     0
  0
APPID
  2
ACAD_DSTYLE_DIMTALN
 70
     0
  0
APPID
  2
ACAD_NAV_VCDISPLAY
 70
     0
  0
APPID
  2
ACAECLAYERSTANDARD
 70
     0
  0
APPID
  2
ACCMTRANSPARENCY
 70
     0
  0
APPID
  2
DCO15
 70
     0
  0
APPID
  2
ACDBATTR
 70
     0
  0
APPID
  2
ACADANNOTATIVE
 70
     0
  0
ENDTAB
  0
TABLE
  2
DIMSTYLE
 70
     1
  0
DIMSTYLE
  2
STANDARD
 70
     0
  3

  4

  5

  6

  7

 40
1.0
 41
0.1875
 42
0.0625
 43
0.38
 44
0.125
 45
0.0
 46
0.0
 47
0.01
 48
0.01
140
0.15625
141
0.09
142
0.0
143
25.3999999999999986
144
1.0
145
0.0
146
1.0
147
0.09
 71
     1
 72
     0
 73
     1
 74
     1
 75
     0
 76
     0
 77
     0
 78
     4
170
     0
171
     2
172
     0
173
     0
174
     0
175
     0
176
     0
177
     0
178
     0
  0
ENDTAB
  0
ENDSEC
  0
SECTION
  2
BLOCKS
  0
BLOCK
  8
0
  2
$MODEL_SPACE
 70
     0
 10
0.0
 20
0.0
 30
0.0
  3
$MODEL_SPACE
  1

  0
ENDBLK
  5
21
  8
0
  0
BLOCK
 67
     1
  8
0
  2
$PAPER_SPACE
 70
     0
 10
0.0
 20
0.0
 30
0.0
  3
$PAPER_SPACE
  1

  0
ENDBLK
  5
1D
 67
     1
  8
0
  0
BLOCK
  8
0
  2
_FILLED
 70
     0
 10
0.0
 20
0.0
 30
0.0
  3
_FILLED
  1

  0
SOLID
  5
F3A0
  8
0
  6
BYBLOCK
 62
     0
 10
0.0
 20
0.0
 30
0.0
 11
-1.0
 21
0.1666666667
 31
0.0
 12
-1.0
 22
-0.1666666667
 32
0.0
 13
-1.0
 23
-0.1666666667
 33
0.0
  0
ENDBLK
  5
F3A1
  8
0
  6
BYBLOCK
 62
     0
  0
ENDSEC
  0
SECTION
  2
ENTITIES
  0
ATTDEF
  5
829
  8
DEFPOINTS
 10
840.9318613010209447
 20
95.9395239699985751
 30
0.0
 40
0.001
  1
K-74035X-4A
  3

  2
MODELNUMBER
 70
     0
1001
ACDBATTR
1070
     0
1070
     1
  0
ATTDEF
  5
82A
  8
DEFPOINTS
 10
840.9318613010209447
 20
95.9378573033319242
 30
0.0
 40
0.001
  1
TAUT
  3

  2
TRADENAME
 70
     0
1001
ACDBATTR
1070
     0
1070
     1
  0
ATTDEF
  5
82B
  8
DEFPOINTS
 10
840.9318613010209447
 20
95.936190636665259
 30
0.0
 40
0.001
  1
SHOWER FAUCET
  3

  2
PRODUCT
 70
     0
1001
ACDBATTR
1070
     0
1070
     1
  0
LINE
  5
FA82
  8
0
 10
834.9119008385639518
 20
123.4587212016381983
 30
0.0
 11
834.4987744399639951
 21
123.0734746023381945
 31
0.0
  0
LINE
  5
FA83
  8
0
 10
834.7905658490640235
 20
122.5225027756382019
 30
0.0
 11
834.8017756721640126
 21
122.5315803113383026
 31
0.0
  0
LINE
  5
FA84
  8
0
 10
834.9520367034640458
 20
122.3610227007382036
 30
0.0
 11
834.9662457982640262
 21
122.3725289988382059
 31
0.0
  0
LINE
  5
FA85
  8
0
 10
834.8918540859640416
 20
122.2764499181381979
 30
0.0
 11
834.9048527989640434
 21
122.2869760683382054
 31
0.0
  0
LINE
  5
FA86
  8
0
 10
835.0223666495639918
 20
122.1459274493382026
 30
0.0
 11
835.0377554970640404
 21
122.1583890923381972
 31
0.0
  0
LINE
  5
FA87
  8
0
 10
835.1624745591641386
 20
122.1505777698381934
 30
0.0
 11
835.1806443792640948
 21
122.1652914001382015
 31
0.0
  0
LINE
  5
FA88
  8
0
 10
835.125881978664097
 20
121.9416595794381948
 30
0.0
 11
835.1437249368640323
 21
121.9561085221381944
 31
0.0
  0
LINE
  5
FA89
  8
0
 10
835.2223313214640257
 20
121.9459554255382017
 30
0.0
 11
835.2414245705640496
 21
121.9614168338382001
 31
0.0
  0
LINE
  5
FA8A
  8
0
 10
835.4075384239639561
 20
121.9055094573381979
 30
0.0
 11
835.4303965202641393
 21
121.9240195788381982
 31
0.0
  0
LINE
  5
FA8B
  8
0
 10
835.304194373863993
 20
121.7633393712382031
 30
0.0
 11
835.3253199309641559
 21
121.7804465100382032
 31
0.0
  0
LINE
  5
FA8C
  8
0
 10
835.3177348818395558
 20
121.731260120137307
 30
0.0
 11
835.2975315355639623
 21
121.7148997728381943
 31
0.0
  0
LINE
  5
FA8D
  8
0
 10
835.4676294110640811
 20
121.7006534240381939
 30
0.0
 11
835.4913385023638739
 21
121.7198526676381931
 31
0.0
  0
LINE
  5
FA8E
  8
0
 10
835.4088784835639672
 20
121.6035443742382967
 30
0.0
 11
835.4311325616639579
 21
121.6215653713382068
 31
0.0
  0
LINE
  5
FA8F
  8
0
 10
835.6705276004640837
 20
121.6425187637381953
 30
0.0
 11
835.698510258364081
 21
121.6651786733382039
 31
0.0
  0
LINE
  5
FA90
  8
0
 10
835.5477814484639794
 20
121.519749436738195
 30
0.0
 11
835.5734574523640958
 21
121.5405414547382037
 31
0.0
  0
LINE
  5
FA91
  8
0
 10
835.6315892806638885
 20
121.3808335769382012
 30
0.0
 11
835.6579927337638765
 21
121.4022146717381929
 31
0.0
  0
LINE
  5
FA92
  8
0
 10
835.7286743485641409
 20
121.4396084864382033
 30
0.0
 11
835.75738465516406
 21
121.4628576343382065
 31
0.0
  0
LINE
  5
FA93
  8
0
 10
835.759625582803551
 20
121.2829792645921003
 30
0.0
 11
835.7429531297640324
 21
121.2694781783382041
 31
0.0
  0
LINE
  5
FA94
  8
0
 10
835.7913742425639612
 20
121.2761595022382011
 30
0.0
 11
835.8216792018640717
 21
121.3006999744383023
 31
0.0
  0
LINE
  5
FA95
  8
0
 10
835.9335198109639578
 20
121.3795280700382051
 30
0.0
 11
835.9667267184639741
 21
121.4064184935382968
 31
0.0
  0
LINE
  5
FA96
  8
0
 10
835.9739802617641544
 20
121.1943064849381955
 30
0.0
 11
836.007707681444117
 21
121.2216184108946067
 31
0.0
  0
LINE
  5
FA97
  8
0
 10
835.9697022636640895
 20
121.0978392940382946
 30
0.0
 11
836.0034469167640054
 21
121.1251651753381964
 31
0.0
  0
LINE
  5
FA98
  8
0
 10
836.0699973824639528
 20
121.0609239290381964
 30
0.0
 11
836.0349826624640173
 21
121.0325695678381948
 31
0.0
  0
LINE
  5
FA99
  8
0
 10
836.1785925709639287
 20
121.1344597575381954
 30
0.0
 11
836.2167602342327655
 21
121.1653673218379055
 31
0.0
  0
LINE
  5
FA9A
  8
0
 10
834.5883059420639256
 20
122.8130090939382058
 30
0.0
 11
834.5488302324640699
 21
122.7642606524381961
 31
0.0
  0
LINE
  5
FA9B
  8
0
 10
834.583442091364077
 20
122.7296372707381948
 30
0.0
 11
834.6223234427640136
 21
122.7776517410381985
 31
0.0
  0
LINE
  5
FA9C
  8
0
 10
834.6849419726640917
 20
122.6281266520383042
 30
0.0
 11
834.7220895919640498
 21
122.6740001415382011
 31
0.0
  0
LINE
  5
FA9D
  8
0
 10
834.7741096398450509
 20
122.4684000661563061
 30
0.0
 11
834.740911495563978
 21
122.4274037722381934
 31
0.0
  0
LINE
  5
FA9E
  8
0
 10
834.8464128270640003
 20
122.4666465771382065
 30
0.0
 11
834.880829896164073
 21
122.5091481180382971
 31
0.0
  0
LINE
  5
FA9F
  8
0
 10
834.7862302095639961
 20
122.3820737945382007
 30
0.0
 11
834.8186870137640199
 21
122.4221546097382003
 31
0.0
  0
LINE
  5
FAA0
  8
0
 10
834.9167427731639464
 20
122.2515513257382054
 30
0.0
 11
834.947078527564031
 21
122.2890128626382023
 31
0.0
  0
LINE
  5
FAA1
  8
0
 10
835.0568506826640487
 20
122.2562016462381962
 30
0.0
 11
835.0877588810639054
 21
122.294370092638303
 31
0.0
  0
LINE
  5
FAA2
  8
0
 10
834.9833534098640939
 20
122.1475679020382046
 30
0.0
 11
834.9549990487640798
 21
122.1125531821381998
 31
0.0
  0
LINE
  5
FAA3
  8
0
 10
835.0202581021640071
 20
122.0472834558381976
 30
0.0
 11
835.0475841512640045
 21
122.0810283161382017
 31
0.0
  0
LINE
  5
FAA4
  8
0
 10
835.1167074450640939
 20
122.0515793019382045
 30
0.0
 11
835.1438325320639251
 21
122.085075994738304
 31
0.0
  0
LINE
  5
FAA5
  8
0
 10
835.3019145474640936
 20
122.0111333337382007
 30
0.0
 11
835.3288056693638737
 21
122.0443411038382067
 31
0.0
  0
LINE
  5
FAA6
  8
0
 10
835.1985704974640612
 20
121.8689632476382059
 30
0.0
 11
835.2231112564639943
 21
121.8992685612382019
 31
0.0
  0
LINE
  5
FAA7
  8
0
 10
835.2054085599946802
 20
121.8371958732865039
 30
0.0
 11
835.1919076591640305
 21
121.8205236492381971
 31
0.0
  0
LINE
  5
FAA8
  8
0
 10
836.1739596373639642
 20
120.994334461038207
 30
0.0
 11
836.2114207513640167
 21
121.0246698730382064
 31
0.0
  0
LINE
  5
FAA9
  8
0
 10
836.3044920111640295
 20
120.8638119923381993
 30
0.0
 11
836.3446694611900512
 21
120.8963470497790951
 31
0.0
  0
LINE
  5
FAAA
  8
0
 10
836.3890445767641495
 20
120.9240148267382011
 30
0.0
 11
836.431545464263877
 21
120.9584313668382975
 31
0.0
  0
LINE
  5
FAAB
  8
0
 10
836.3908295472976988
 20
120.8516801595606012
 30
0.0
 11
836.3498332524640091
 21
120.8184820145383043
 31
0.0
  0
LINE
  5
FAAC
  8
0
 10
836.5505338720640793
 20
120.7625347518382029
 30
0.0
 11
836.5964068938639002
 21
120.7996819923381935
 31
0.0
  0
LINE
  5
FAAD
  8
0
 10
836.6520552282639756
 20
120.6610241330381967
 30
0.0
 11
836.7000694545640727
 21
120.6999052868382023
 31
0.0
  0
LINE
  5
FAAE
  8
0
 10
836.7354385736421136
 20
120.6658764606775947
 30
0.0
 11
836.6866901325640811
 21
120.6264007513381955
 31
0.0
  0
LINE
  5
FAAF
  8
0
 10
835.3620055346640356
 20
121.8062773004381967
 30
0.0
 11
835.3852551903639778
 21
121.834988234238196
 31
0.0
  0
LINE
  5
FAB0
  8
0
 10
835.303254607063991
 20
121.7091682506382
 30
0.0
 11
835.3246358303640591
 21
121.7355718624382064
 31
0.0
  0
LINE
  5
FAB1
  8
0
 10
835.4421575720640476
 20
121.6253733131381978
 30
0.0
 11
835.4629502666639382
 21
121.6510501519381933
 31
0.0
  0
LINE
  5
FAB2
  8
0
 10
835.5649037240640382
 20
121.7481426401381981
 30
0.0
 11
835.5875643428640842
 21
121.7761261738381933
 31
0.0
  0
LINE
  5
FAB3
  8
0
 10
835.5259654042639568
 20
121.486457453338204
 30
0.0
 11
835.5439865278640355
 21
121.5087116877381987
 31
0.0
  0
LINE
  5
FAB4
  8
0
 10
835.6230504720640511
 20
121.5452323628382061
 30
0.0
 11
835.6422502141640507
 21
121.5689420697381991
 31
0.0
  0
LINE
  5
FAB5
  8
0
 10
835.6536896007638688
 20
121.3953054012383035
 30
0.0
 11
835.6373292533638732
 21
121.3751020547382069
 31
0.0
  0
LINE
  5
FAB6
  8
0
 10
835.6857503661640294
 20
121.3817833786382039
 30
0.0
 11
835.7028577821639601
 21
121.4029092781381962
 31
0.0
  0
LINE
  5
FAB7
  8
0
 10
835.8278959345639123
 20
121.4851519464381937
 30
0.0
 11
835.846406728064153
 21
121.5080108727382964
 31
0.0
  0
LINE
  5
FAB8
  8
0
 10
835.8683563853639953
 20
121.2999303613382978
 30
0.0
 11
835.8838182244638801
 21
121.3190241424381952
 31
0.0
  0
LINE
  5
FAB9
  8
0
 10
835.8640783871639997
 20
121.2034631704381979
 30
0.0
 11
835.8785274879639928
 21
121.2213063239381938
 31
0.0
  0
LINE
  5
FABA
  8
0
 10
836.0729686945639969
 20
121.2400836339382977
 30
0.0
 11
836.0876829168639688
 21
121.2582541852383002
 31
0.0
  0
LINE
  5
FABB
  8
0
 10
836.0683357608638744
 20
121.0999583374381956
 30
0.0
 11
836.0807977191640248
 21
121.1153475743383012
 31
0.0
  0
LINE
  5
FABC
  8
0
 10
836.1988681347638703
 20
120.9694358686382003
 30
0.0
 11
836.2093944511640302
 21
120.9824347869381995
 31
0.0
  0
LINE
  5
FABD
  8
0
 10
836.2834207003639904
 20
121.0296387031382039
 30
0.0
 11
836.2949274746639503
 21
121.0438483859382046
 31
0.0
  0
LINE
  5
FABE
  8
0
 10
836.4449099956640339
 20
120.8681586282382057
 30
0.0
 11
836.453987864264036
 21
120.8793688623381968
 31
0.0
  0
LINE
  5
FABF
  8
0
 10
839.4663180731139391
 20
115.9973544670163932
 30
0.0
 11
839.5357792409126887
 21
116.0214321219588953
 31
0.0
  0
LINE
  5
FAC0
  8
0
 10
837.9864704009240768
 20
94.7971814716382681
 30
0.0
 11
838.7515008821640095
 21
94.7971817679507183
 31
0.0
  0
LINE
  5
FAC1
  8
0
 10
836.1783265001140535
 20
94.8938780270382694
 30
0.0
 11
836.5160242277464704
 21
94.893878092440417
 31
0.0
  0
ARC
  5
FAC2
  8
0
 10
836.5160242254612513
 20
94.9056780924404109
 30
0.0
 40
0.0118
 50
270.0000110965104909
 51
0.0000100820094461
  0
LINE
  5
FAC3
  8
0
 10
836.6282177068242163
 20
94.8938791290382682
 30
0.0
 11
837.8880608903242546
 21
94.8938790916382686
 31
0.0
  0
LINE
  5
FAC4
  8
0
 10
836.628218333324071
 20
96.5474259671817663
 30
0.0
 11
838.7515008821640095
 21
96.5474259671817663
 31
0.0
  0
LINE
  5
FAC5
  8
0
 10
836.4909373672596757
 20
95.7997535911739533
 30
0.0
 11
836.1447950485140836
 21
96.5418544194382662
 31
0.0
  0
LINE
  5
FAC6
  8
0
 10
840.1603008170138764
 20
95.3218676802882641
 30
0.0
 11
840.6341578146140137
 21
94.7153583813882705
 31
0.0
  0
LINE
  5
FAC7
  8
0
 10
835.4845166115760549
 20
96.5198259600224162
 30
0.0
 11
835.4845177003934396
 21
92.3223394152689849
 31
0.0
  0
LINE
  5
FAC8
  8
0
 10
836.5278242254612451
 20
94.9056780945167873
 30
0.0
 11
836.5278240974135997
 21
95.6333688845023318
 31
0.0
  0
LINE
  5
FAC9
  8
0
 10
836.6085326682242567
 20
96.5277373949382707
 30
0.0
 11
836.6085332939242107
 21
94.9135757809382739
 31
0.0
  0
LINE
  5
FACA
  8
0
 10
838.0258561728242057
 20
94.7971814868931943
 30
0.0
 11
838.0258562140240883
 21
94.6908822743382643
 31
0.0
  0
LINE
  5
FACB
  8
0
 10
838.6727518897140499
 20
115.348202141483597
 30
0.0
 11
838.6727518897140499
 21
115.4322805491882065
 31
0.0
  0
LINE
  5
FACC
  8
0
 10
839.6277805491140498
 20
115.6720251547882015
 30
0.0
 11
839.6277805491140498
 21
115.5852294101834019
 31
0.0
  0
LINE
  5
FACD
  8
0
 10
840.1436547504140435
 20
96.5074751443882803
 30
0.0
 11
840.1436547504140435
 21
95.3703521621882686
 31
0.0
  0
LINE
  5
FACE
  8
0
 10
840.5310196063138619
 20
115.7736430514761992
 30
0.0
 11
840.5310196063138619
 21
115.7697452075882012
 31
0.0
  0
LINE
  5
FACF
  8
0
 10
840.6341578146140137
 20
94.7153583813882705
 30
0.0
 11
840.6342038146140112
 21
97.162469061788272
 31
0.0
  0
LINE
  5
FAD0
  8
0
 10
840.7278700000141498
 20
115.7821006831882045
 30
0.0
 11
840.7278700000141498
 21
115.778188291888199
 31
0.0
  0
LINE
  5
FAD1
  8
0
 10
840.9310563252140582
 20
94.6593864743882705
 30
0.0
 11
840.9310563252140582
 21
97.2184408321882643
 31
0.0
  0
LINE
  5
FAD2
  8
0
 10
840.1603008170138764
 20
96.5559598994882862
 30
0.0
 11
840.6342038146271989
 21
97.1624690617925921
 31
0.0
  0
LINE
  5
FAD3
  8
0
 10
835.0337441159640548
 20
122.0793210848381989
 30
0.0
 11
835.0121171224639056
 21
122.1086022729381995
 31
0.0
  0
LINE
  5
FAD4
  8
0
 10
835.0397460710639734
 20
122.0711929565381979
 30
0.0
 11
834.9482351000807512
 21
122.1951301014213982
 31
0.0
  0
LINE
  5
FAD5
  8
0
 10
835.3195032590978144
 20
121.7292336647894047
 30
0.0
 11
835.2935051656406813
 21
121.7590259363607998
 31
0.0
  0
LINE
  5
FAD6
  8
0
 10
840.9310563252140582
 20
113.5262042023882998
 30
0.0
 11
840.4505199173139545
 21
113.5353781663882984
 31
0.0
  0
LINE
  5
FAD7
  8
0
 10
835.3046313597390053
 20
121.6828606290872017
 30
0.0
 11
835.3825697630638842
 21
121.6049241972382049
 31
0.0
  0
LINE
  5
FAD8
  8
0
 10
835.5273441282196245
 20
121.4601498318871933
 30
0.0
 11
835.6052816591195551
 21
121.3822123009872058
 31
0.0
  0
LINE
  5
FAD9
  8
0
 10
835.2778867523196595
 20
121.7647180951872059
 30
0.0
 11
835.1999492214640668
 21
121.8426556261381961
 31
0.0
  0
LINE
  5
FADA
  8
0
 10
835.5212605304640192
 20
121.5213416357381959
 30
0.0
 11
835.4435362960639395
 21
121.5990656916382022
 31
0.0
  0
LINE
  5
FADB
  8
0
 10
835.9437517314405568
 20
121.0988698632090035
 30
0.0
 11
836.0086750409195702
 21
121.0339482917871976
 31
0.0
  0
LINE
  5
FADC
  8
0
 10
835.1960177856151404
 20
121.947334149487304
 30
0.0
 11
835.1180861690639858
 21
122.0252716804381947
 31
0.0
  0
LINE
  5
FADD
  8
0
 10
835.1361669376196915
 20
122.1519564938872975
 30
0.0
 11
835.058229406763985
 21
122.2298940248383019
 31
0.0
  0
LINE
  5
FADE
  8
0
 10
835.9072121895196688
 20
121.3809067940871955
 30
0.0
 11
835.8292746585196937
 21
121.4588443248872949
 31
0.0
  0
LINE
  5
FADF
  8
0
 10
836.6257476067197558
 20
120.6624028570872014
 30
0.0
 11
836.5478373903639522
 21
120.7403131372382035
 31
0.0
  0
LINE
  5
FAE0
  8
0
 10
835.6440066824641235
 20
121.6441109627381962
 30
0.0
 11
835.5662824480195923
 21
121.7218350185871998
 31
0.0
  0
LINE
  5
FAE1
  8
0
 10
836.6257476067197558
 20
120.6624028570872014
 30
0.0
 11
836.6603825110639718
 21
120.6277794754383024
 31
0.0
  0
LINE
  5
FAE2
  8
0
 10
835.6244302306639611
 20
121.5189237067382066
 30
0.0
 11
835.7023656924640136
 21
121.4409882450381986
 31
0.0
  0
LINE
  5
FAE3
  8
0
 10
834.8477919041639552
 20
122.4403386025382048
 30
0.0
 11
834.9257287289640317
 21
122.3624017778383006
 31
0.0
  0
LINE
  5
FAE4
  8
0
 10
834.8480365009639854
 20
122.4400939282381984
 30
0.0
 11
834.8531346539640481
 21
122.4349949897382004
 31
0.0
  0
LINE
  5
FAE5
  8
0
 10
834.764258104863984
 20
122.5238816224382958
 30
0.0
 11
834.6863206966196458
 21
122.6018190304872064
 31
0.0
  0
LINE
  5
FAE6
  8
0
 10
835.1932863831640361
 20
121.794216027738301
 30
0.0
 11
835.2712239140639667
 21
121.7162784968382994
 31
0.0
  0
LINE
  5
FAE7
  8
0
 10
835.6387079773638789
 20
121.3487944332381971
 30
0.0
 11
835.7166455082641505
 21
121.2708569023381955
 31
0.0
  0
LINE
  5
FAE8
  8
0
 10
835.8654571112197118
 20
121.1771555488872991
 30
0.0
 11
835.9433946421196424
 21
121.0992180180871998
 31
0.0
  0
LINE
  5
FAE9
  8
0
 10
835.3633881265640184
 20
121.7799658110381955
 30
0.0
 11
835.4413179216639946
 21
121.7020360159382051
 31
0.0
  0
LINE
  5
FAEA
  8
0
 10
836.0697178821640136
 20
121.0736473187381961
 30
0.0
 11
836.1476520158139465
 21
120.9957131850882064
 31
0.0
  0
LINE
  5
FAEB
  8
0
 10
836.2002468587196518
 20
120.9431282471872038
 30
0.0
 11
836.323525631064058
 21
120.819860738638198
 31
0.0
  0
LINE
  5
FAEC
  8
0
 10
834.9181240164639348
 20
122.2252411850382998
 30
0.0
 11
834.9960565088639441
 21
122.1473086926383047
 31
0.0
  0
LINE
  5
FAED
  8
0
 10
836.4462915334640911
 20
120.8418481928381993
 30
0.0
 11
836.524226250619563
 21
120.7639134757872057
 31
0.0
  0
LINE
  5
FAEE
  8
0
 10
836.2848019395639767
 20
121.0033285664381992
 30
0.0
 11
836.3627344401639903
 21
120.9253960659383011
 31
0.0
  0
LINE
  5
FAEF
  8
0
 10
834.9563777727639717
 20
122.0862455605383019
 30
0.0
 11
835.0995742346640327
 21
121.9430384259381981
 31
0.0
  0
LINE
  5
FAF0
  8
0
 10
835.6871290901195835
 20
121.3554757571873068
 30
0.0
 11
835.7650644350638913
 21
121.2775404123381975
 31
0.0
  0
LINE
  5
FAF1
  8
0
 10
834.7422902195639836
 20
122.4010961507381978
 30
0.0
 11
834.8655433478639907
 21
122.2778317588383032
 31
0.0
  0
LINE
  5
FAF2
  8
0
 10
835.8697372820640794
 20
121.2736205670381935
 30
0.0
 11
835.9476704675640804
 21
121.1956873816381943
 31
0.0
  0
LINE
  5
FAF3
  8
0
 10
834.5502089564640755
 20
122.7379530309383
 30
0.0
 11
834.6627583490640063
 21
122.6253921157381939
 31
0.0
  0
LINE
  5
FAF4
  8
0
 10
836.0743496079639954
 20
121.2137738230381956
 30
0.0
 11
836.1522827600640539
 21
121.1358406710381956
 31
0.0
  0
LINE
  5
FAF5
  8
0
 10
835.3032942949639619
 20
121.9848246888382022
 30
0.0
 11
835.3812297789640979
 21
121.906889204838194
 31
0.0
  0
LINE
  5
FAF6
  8
0
 10
839.6091027013139865
 20
115.5799130814882005
 30
0.0
 11
839.560674596736817
 21
115.5722727977591973
 31
0.0
  0
LINE
  5
FAF7
  8
0
 10
839.4663180731139391
 20
115.9973544670163932
 30
0.0
 11
838.5878483690127041
 21
115.974282863458896
 31
0.0
  0
LINE
  5
FAF8
  8
0
 10
839.5097531266389979
 20
115.5648512748881984
 30
0.0
 11
838.8846553088138762
 21
115.5648512748881984
 31
0.0
  0
LINE
  5
FAF9
  8
0
 10
836.117561293644485
 20
121.0258039072575968
 30
0.0
 11
835.9936920946815917
 21
121.1172658761652059
 31
0.0
  0
LINE
  5
FAFA
  8
0
 10
835.6814361650898491
 20
121.3710853029191981
 30
0.0
 11
835.6516543683317195
 21
121.3970819646006021
 31
0.0
  0
ARC
  5
FAFB
  8
0
 10
836.7281342379241096
 20
95.8265257112382756
 30
0.0
 40
0.8661417323
 50
256.6283221909308168
 51
262.0629658408898877
  0
ARC
  5
FAFC
  8
0
 10
836.7281343199242656
 20
95.6147739013382676
 30
0.0
 40
0.8661417323
 50
97.9370785729546753
 51
124.0914329194335011
  0
ARC
  5
FAFD
  8
0
 10
836.1341233175511434
 20
95.6333683811400874
 30
0.0
 40
0.3937007798627746
 50
0.0000732549539336
 51
25.0000114623740188
  0
ARC
  5
FAFE
  8
0
 10
836.6282183355901907
 20
94.9135641741162033
 30
0.0
 40
0.019685045087988
 50
179.9662168944688858
 51
269.9981698976729945
  0
ARC
  5
FAFF
  8
0
 10
836.6282237352165794
 20
96.5277349007723728
 30
0.0
 40
0.0196910671503701
 50
90.0157180734735789
 51
179.9927426391114977
  0
ARC
  5
FB00
  8
0
 10
837.8880316397733168
 20
94.8151090146395603
 30
0.0
 40
0.0787700824296746
 50
1.0257911387508989
 51
89.9787237349088684
  0
ARC
  5
FB01
  8
0
 10
837.9864693236728499
 20
94.8168647300857685
 30
0.0
 40
0.0196832584769759
 50
181.0058683160648059
 51
270.003135759354393
  0
ARC
  5
FB02
  8
0
 10
835.5412635530640273
 20
121.4740692567382041
 30
0.0
 40
0.0196850394
 50
141.0000000122990969
 51
225.0000000137993936
  0
ARC
  5
FB03
  8
0
 10
835.5353918817046406
 20
121.5350518022473949
 30
0.0
 40
0.0196891785911583
 50
224.1332991589287928
 51
308.9953764049643041
  0
ARC
  5
FB04
  8
0
 10
834.9702971975640367
 20
122.1001649854381981
 30
0.0
 40
0.0196850394
 50
140.9999999865019049
 51
225.0000000136986102
  0
ARC
  5
FB05
  8
0
 10
834.7562096444639792
 20
122.4150155756381935
 30
0.0
 40
0.0196850394
 50
140.999999986802294
 51
225.0000000137993936
  0
ARC
  5
FB06
  8
0
 10
834.8617109757429944
 20
122.4542583804775973
 30
0.0
 40
0.019685039281126
 50
140.9999998794912131
 51
225.0014537767540048
  0
ARC
  5
FB07
  8
0
 10
834.9396485068488118
 20
122.3763208492768939
 30
0.0
 40
0.0196850391434466
 50
224.9985460466209872
 51
309.0000003018520829
  0
ARC
  5
FB08
  8
0
 10
835.0355562510638947
 20
122.0348952591381959
 30
0.0
 40
0.0196850394
 50
141.0000000122990969
 51
225.0000000137993936
  0
ARC
  5
FB09
  8
0
 10
834.801528358363953
 20
122.369685597838199
 30
0.0
 40
0.0196850394
 50
141.0000000125995996
 51
225.0000000136986102
  0
ARC
  5
FB0A
  8
0
 10
834.8794658890440132
 20
122.2917480680228977
 30
0.0
 40
0.0196850403665883
 50
224.9871737869032131
 51
308.9999989349457792
  0
ARC
  5
FB0B
  8
0
 10
834.9320409224694686
 20
122.2391631289739991
 30
0.0
 40
0.0196850398962493
 50
141.0000005670549115
 51
225.0103686803086873
  0
ARC
  5
FB0C
  8
0
 10
835.009978452754126
 20
122.1612255988839024
 30
0.0
 40
0.0196850400338024
 50
224.9896319077188878
 51
308.9999993067715991
  0
ARC
  5
FB0D
  8
0
 10
834.952191953422016
 20
123.4155249659977045
 30
0.0
 40
0.0590702015402891
 50
59.8810862168863665
 51
133.007075016249388
  0
ARC
  5
FB0E
  8
0
 10
834.5390474913330081
 20
123.0302819364920026
 30
0.0
 40
0.0590552711404678
 50
132.9966216653749029
 51
224.9999018997349083
  0
ARC
  5
FB0F
  8
0
 10
834.565739000764097
 20
122.9686706558381957
 30
0.0
 40
0.0452927551
 50
189.2727683863996901
 51
204.0486186836982938
  0
ARC
  5
FB10
  8
0
 10
834.5641283813640712
 20
122.7518724558381962
 30
0.0
 40
0.0196850394
 50
140.9999999865019049
 51
225.0000000136986102
  0
ARC
  5
FB11
  8
0
 10
834.5987402402639646
 20
122.7172490741382944
 30
0.0
 40
0.0196850394
 50
141.0000000122990969
 51
223.6252637951189115
  0
ARC
  5
FB12
  8
0
 10
834.6766777711638952
 20
122.6393115432381933
 30
0.0
 40
0.0196850394
 50
225.0000000137993936
 51
282.8282027232091878
  0
ARC
  5
FB13
  8
0
 10
834.7002401214639349
 20
122.6157384553383025
 30
0.0
 40
0.0196850394
 50
141.0000000122990969
 51
225.0000000137993936
  0
ARC
  5
FB14
  8
0
 10
834.7781776524614088
 20
122.5378009245463033
 30
0.0
 40
0.0196850394079222
 50
224.9994947527721081
 51
309.0000000063399739
  0
ARC
  5
FB15
  8
0
 10
834.5404659161640666
 20
122.9645443624383034
 30
0.0
 40
0.0196850394
 50
178.5492647440495091
 51
189.2727683861999992
  0
ARC
  5
FB16
  8
0
 10
835.2072058079639874
 20
121.8081354525382949
 30
0.0
 40
0.0196850394
 50
140.9999999859014963
 51
225.0000000137993936
  0
ARC
  5
FB17
  8
0
 10
835.285143338863918
 20
121.7301979216381937
 30
0.0
 40
0.0196850394
 50
225.0000000137993936
 51
308.9999999872021021
  0
ARC
  5
FB18
  8
0
 10
835.0721488315640499
 20
122.2438134496381963
 30
0.0
 40
0.0196850394
 50
141.0000000122990969
 51
225.0000000136986102
  0
ARC
  5
FB19
  8
0
 10
835.1500863624640942
 20
122.1658759187381946
 30
0.0
 40
0.0196850394
 50
225.0000000136986102
 51
309.0000000151991912
  0
ARC
  5
FB1A
  8
0
 10
835.3172126964760764
 20
121.9987451371018068
 30
0.0
 40
0.0196850395100055
 50
141.0000001352331935
 51
225.0042124665490064
  0
ARC
  5
FB1B
  8
0
 10
835.3951502272276457
 20
121.9208076063502943
 30
0.0
 40
0.0196850395099871
 50
224.9957875333749939
 51
308.999999892323217
  0
ARC
  5
FB1C
  8
0
 10
835.580201872863995
 20
121.7357544434381964
 30
0.0
 40
0.0196850394
 50
141.0000000122990969
 51
225.0000000137993936
  0
ARC
  5
FB1D
  8
0
 10
835.3185555210508255
 20
121.6967791555071017
 30
0.0
 40
0.019687753704618
 50
141.0030322138306929
 51
224.9884042978657988
  0
ARC
  5
FB1E
  8
0
 10
835.3964902868677882
 20
121.6188425230263022
 30
0.0
 40
0.0196850393882258
 50
224.9954762127123047
 51
309.0000000283416739
  0
ARC
  5
FB1F
  8
0
 10
835.4574557208638907
 20
121.6129851164381961
 30
0.0
 40
0.0196850394
 50
141.0000000122990969
 51
225.0000000137993936
  0
ARC
  5
FB20
  8
0
 10
835.2918061771639486
 20
121.778637520038302
 30
0.0
 40
0.0196850394
 50
225.0000000137993936
 51
309.0000000151991912
  0
ARC
  5
FB21
  8
0
 10
835.2138686462639043
 20
121.8565750509382042
 30
0.0
 40
0.0196850394
 50
141.0000000122990969
 51
225.0000000137993936
  0
ARC
  5
FB22
  8
0
 10
835.1134937819614379
 20
121.9569577283462962
 30
0.0
 40
0.0196850394079109
 50
224.9994959876163989
 51
309.000000006346113
  0
ARC
  5
FB23
  8
0
 10
835.1320055938639371
 20
122.0391911052383023
 30
0.0
 40
0.0196850394
 50
141.0000000125995996
 51
225.0000000136986102
  0
ARC
  5
FB24
  8
0
 10
835.2099404301261529
 20
121.9612618678887941
 30
0.0
 40
0.0196931808008306
 50
225.0104383742165055
 51
308.9909077914476825
  0
ARC
  5
FB25
  8
0
 10
835.4552412139180433
 20
121.7159515742110045
 30
0.0
 40
0.0196850407475287
 50
224.984082515521493
 51
308.999998509315617
  0
ARC
  5
FB26
  8
0
 10
835.377303684836761
 20
121.7938891032922015
 30
0.0
 40
0.0196850407475315
 50
141.0000015181796016
 51
225.0159174844571055
  0
ARC
  5
FB27
  8
0
 10
836.6743019358640367
 20
120.6416989002382962
 30
0.0
 40
0.0196850394
 50
225.0000000136986102
 51
308.9999999866003009
  0
ARC
  5
FB28
  8
0
 10
836.3374450558638955
 20
120.833780163438206
 30
0.0
 40
0.0196850394
 50
225.0000000136986102
 51
308.999999986299315
  0
ARC
  5
FB29
  8
0
 10
836.0225944657639729
 20
121.0478677166381942
 30
0.0
 40
0.0196850394
 50
225.0000000137993936
 51
308.9999999866003009
  0
ARC
  5
FB2A
  8
0
 10
835.6526274022638745
 20
121.362713858138207
 30
0.0
 40
0.0196850394
 50
140.9999999859014963
 51
225.0000000137993936
  0
ARC
  5
FB2B
  8
0
 10
835.7305649330638744
 20
121.2847763272383048
 30
0.0
 40
0.0196850394
 50
225.0000000137993936
 51
308.9999999872021021
  0
ARC
  5
FB2C
  8
0
 10
835.8793765360641146
 20
121.1910749737381963
 30
0.0
 40
0.0196850394
 50
141.0000000122990969
 51
225.0000000136986102
  0
ARC
  5
FB2D
  8
0
 10
835.9573140669640452
 20
121.1131374429382959
 30
0.0
 40
0.0196850394
 50
225.0000000136986102
 51
309.0000000151991912
  0
ARC
  5
FB2E
  8
0
 10
835.7010485149639862
 20
121.3693951820383035
 30
0.0
 40
0.0196850394
 50
141.0000000122990969
 51
225.0000000136986102
  0
ARC
  5
FB2F
  8
0
 10
835.7789860457511395
 20
121.2914576514858993
 30
0.0
 40
0.0196850397412302
 50
224.9910028338568964
 51
308.9999996339424797
  0
ARC
  5
FB30
  8
0
 10
835.6192010839639579
 20
121.3961317258382024
 30
0.0
 40
0.0196850394
 50
225.0000000137993936
 51
309.0000000151991912
  0
ARC
  5
FB31
  8
0
 10
835.8431940833640965
 20
121.4727637497382062
 30
0.0
 40
0.0196850394
 50
141.0000000122990969
 51
225.0000000136986102
  0
ARC
  5
FB32
  8
0
 10
835.9211316143640715
 20
121.3948262189382064
 30
0.0
 40
0.0196850394
 50
225.0000000137993936
 51
309.0000000151991912
  0
ARC
  5
FB33
  8
0
 10
836.088266843713086
 20
121.2276954371247939
 30
0.0
 40
0.0196850397426972
 50
141.0000003951847987
 51
225.0090111573150011
  0
ARC
  5
FB34
  8
0
 10
836.1662043741506523
 20
121.1497579067873005
 30
0.0
 40
0.0196850397426916
 50
224.9909888427062867
 51
308.9999996323336973
  0
ARC
  5
FB35
  8
0
 10
836.2987188499075728
 20
121.0172505062291037
 30
0.0
 40
0.0196850400317757
 50
141.0000007181415071
 51
225.0103512213217982
  0
ARC
  5
FB36
  8
0
 10
836.3766563800004405
 20
120.9393129760417054
 30
0.0
 40
0.0196850398942108
 50
224.9896481906529004
 51
308.9999994630308038
  0
ARC
  5
FB37
  8
0
 10
836.4602081452677567
 20
120.8557704312769943
 30
0.0
 40
0.0196850401891155
 50
141.0000008939643124
 51
225.0115803068846958
  0
ARC
  5
FB38
  8
0
 10
836.5381456754639657
 20
120.7778329006383018
 30
0.0
 40
0.0196850394
 50
225.0000000136986102
 51
309.0000000151991912
  0
ARC
  5
FB39
  8
0
 10
836.5617294713223373
 20
120.7542598123053068
 30
0.0
 40
0.0196850110180036
 50
167.1302283026091118
 51
225.1123616301852906
  0
ARC
  5
FB3A
  8
0
 10
836.6396670315640449
 20
120.676322281938198
 30
0.0
 40
0.0196850394
 50
225.0000000136986102
 51
309.0000000151991912
  0
ARC
  5
FB3B
  8
0
 10
836.2921038144640988
 20
120.8791101411382982
 30
0.0
 40
0.0196850394
 50
226.2833130633520113
 51
309.0000000148980916
  0
ARC
  5
FB3C
  8
0
 10
836.2141662835639409
 20
120.9570476720382004
 30
0.0
 40
0.0196850394
 50
141.0000000125995996
 51
225.0000000137993936
  0
ARC
  5
FB3D
  8
0
 10
836.1615714406640336
 20
121.009632609938194
 30
0.0
 40
0.0196850394
 50
225.0000000136986102
 51
309.0000000149983066
  0
ARC
  5
FB3E
  8
0
 10
836.0836339109325763
 20
121.0875701404584959
 30
0.0
 40
0.019685040547195
 50
141.0000012943191052
 51
225.0139807299250947
  0
ARC
  5
FB3F
  8
0
 10
835.9615920649529244
 20
121.2096046340799944
 30
0.0
 40
0.019685039735493
 50
224.9910575639686954
 51
308.9999996400615032
  0
ARC
  5
FB40
  8
0
 10
835.8836545346458706
 20
121.287542164481593
 30
0.0
 40
0.0196850398731199
 50
141.000000541200194
 51
225.0089422594415112
  0
ARC
  5
FB41
  8
0
 10
835.7162861518722821
 20
121.4549066352123958
 30
0.0
 40
0.0196850393746622
 50
224.9957412612641008
 51
309.0000000431926992
  0
ARC
  5
FB42
  8
0
 10
835.6383486210784213
 20
121.5328441661010999
 30
0.0
 40
0.0196850395122664
 50
141.0000001380354888
 51
225.0042581506006911
  0
ARC
  5
FB43
  8
0
 10
835.6581380337481733
 20
121.6578211290131009
 30
0.0
 40
0.0196891784593369
 50
224.1332985812071001
 51
308.995376552177504
  0
ARC
  5
FB44
  8
0
 10
838.8846552381141919
 20
115.3680008811879958
 30
0.0
 40
0.1968503937002189
 50
89.999979421906886
 51
124.4881039319917022
  0
ARC
  5
FB45
  8
0
 10
838.7431528599139483
 20
115.3398626061882055
 30
0.0
 40
0.0578650574
 50
107.3000800607998997
 51
134.9213198070985982
  0
ARC
  5
FB46
  8
0
 10
838.712121968513884
 20
115.4322805491882065
 30
0.0
 40
0.0393700787
 50
131.8463168915016865
 51
180.0
  0
ARC
  5
FB47
  8
0
 10
836.8911001357640771
 20
120.6433095196381942
 30
0.0
 40
0.0452927551
 50
245.9513813367977093
 51
260.7272316222985751
  0
ARC
  5
FB48
  8
0
 10
836.8869738424640445
 20
120.6180364350382064
 30
0.0
 40
0.0196850394
 50
260.7272316223974826
 51
266.0757230278866814
  0
ARC
  5
FB49
  8
0
 10
838.983535925081128
 20
117.4780104281309008
 30
0.0
 40
1.55491647067678
 50
252.4890181095319122
 51
255.2575141965467935
  0
ARC
  5
FB4A
  8
0
 10
838.7650051678640466
 20
124.8425756888381954
 30
0.0
 40
4.6437007874000003
 50
204.0486186838008962
 51
206.5778292047291984
  0
ARC
  5
FB4B
  8
0
 10
838.7650051678640466
 20
124.8425756888381954
 30
0.0
 40
4.6437007874000003
 50
209.2121136891917956
 51
211.5844593533072953
  0
ARC
  5
FB4C
  8
0
 10
838.7650051678640466
 20
124.8425756888381954
 30
0.0
 40
4.6437007874000003
 50
213.5263942925008962
 51
213.9769985741176868
  0
ARC
  5
FB4D
  8
0
 10
838.7650051678640466
 20
124.8425756888381954
 30
0.0
 40
4.6437007874000003
 50
218.5590224681004088
 51
219.8205839286000014
  0
ARC
  5
FB4E
  8
0
 10
838.7650051678640466
 20
124.8425756888381954
 30
0.0
 40
4.6437007874000003
 50
243.4219512175500029
 51
245.951381353402212
  0
ARC
  5
FB4F
  8
0
 10
838.7650051678640466
 20
124.8425756888381954
 30
0.0
 40
4.6437007874000003
 50
238.415333426800288
 51
240.7878862851050883
  0
ARC
  5
FB50
  8
0
 10
838.7650051678640466
 20
124.8425756888381954
 30
0.0
 40
4.6437007874000003
 50
236.0225959434798995
 51
236.4764966748589927
  0
ARC
  5
FB51
  8
0
 10
838.7650051678640466
 20
124.8425756888381954
 30
0.0
 40
4.6437007874000003
 50
230.1785142893446903
 51
231.4407831349573996
  0
ARC
  5
FB52
  8
0
 10
838.7650051678640466
 20
124.8425756888381954
 30
0.0
 40
4.6437007874000003
 50
224.0049041458067904
 51
225.9949486741429894
  0
ARC
  5
FB53
  8
0
 10
840.7893240417140532
 20
97.0412758579882677
 30
0.0
 40
0.1968503937
 50
90.0
 51
141.9999999997990869
  0
ARC
  5
FB54
  8
0
 10
840.7893653073050473
 20
94.8367301895001589
 30
0.0
 40
0.1970291389331997
 50
218.0253041401969085
 51
269.9880000227013284
  0
ARC
  5
FB55
  8
0
 10
840.2219748018897008
 20
96.5076857407330237
 30
0.0
 40
0.0783203346134608
 50
141.9486010243134899
 51
180.1540633902529009
  0
ARC
  5
FB56
  8
0
 10
840.2227286297543287
 20
95.3704006478592561
 30
0.0
 40
0.0790738942052521
 50
180.0351320055241047
 51
217.8624018898169936
  0
ARC
  5
FB57
  8
0
 10
840.9113712858114695
 20
97.2184412123820039
 30
0.0
 40
0.0196850394062815
 50
359.9988933984175219
 51
90.0057753737847719
  0
ARC
  5
FB58
  8
0
 10
840.9113712858114695
 20
94.6593860942945469
 30
0.0
 40
0.0196850394062733
 50
270.0
 51
0.0011063105307483
  0
ARC
  5
FB59
  8
0
 10
840.9651542701138851
 20
107.9563069022882047
 30
0.0
 40
7.8247642946999996
 50
91.8098483730016284
 51
93.1083473139977542
  0
ARC
  5
FB5A
  8
0
 10
840.548554893904452
 20
108.8326325686851987
 30
0.0
 40
6.812213283184227
 50
100.9768874100321057
 51
103.8670588672821964
  0
ARC
  5
FB5B
  8
0
 10
840.3922321953837127
 20
109.6882819090110956
 30
0.0
 40
5.9424605020763694
 50
98.044079039673619
 51
101.0681383041571024
  0
ARC
  5
FB5C
  8
0
 10
840.8858468353495255
 20
110.3973947775332931
 30
0.0
 40
5.3870227743065984
 50
89.5191512122940338
 51
91.6804651006095952
  0
ARC
  5
FB5D
  8
0
 10
839.2633030708140041
 20
114.8168197788882026
 30
0.0
 40
0.8655616832999999
 50
124.4881054383003942
 51
131.8463047846024097
  0
ARC
  5
FB5E
  8
0
 10
840.4519491379031706
 20
113.595382254535906
 30
0.0
 40
0.0600211068368682
 50
233.5156438272096864
 51
268.635545849981213
  0
ARC
  5
FB5F
  8
0
 10
839.5151379887678331
 20
116.076764760348297
 30
0.0
 40
0.0590572786474982
 50
290.4574952084191182
 51
1.9512356198395431
  0
ARC
  5
FB60
  8
0
 10
839.6474718436844569
 20
115.6720198651601947
 30
0.0
 40
0.0196912952810182
 50
97.60413727817253
 51
179.9846087643427097
  0
ARC
  5
FB61
  8
0
 10
838.3692631546657594
 20
94.434565680759988
 30
0.0
 40
0.6357918432718276
 50
104.522395195107606
 51
118.4385249765407053
  0
ARC
  5
FB62
  8
0
 10
839.0833612850988175
 20
92.9653696069524926
 30
0.0
 40
2.2688966186830171
 50
116.6269184649170967
 51
121.790854020761401
  0
ARC
  5
FB63
  8
0
 10
838.2213578754083301
 20
110.635418132001206
 30
0.0
 40
3.6463171653195401
 50
52.9902785200767283
 51
61.8365974927121087
  0
ARC
  5
FB64
  8
0
 10
838.6144782469953043
 20
111.2781198620898948
 30
0.0
 40
2.8944828776459541
 50
62.6923515017686626
 51
75.5726885559039232
  0
ARC
  5
FB65
  8
0
 10
838.2335002259113708
 20
109.8643962449766036
 30
0.0
 40
4.3585774079572337
 50
75.3527338427174413
 51
82.2152684892801631
  0
LINE
  5
FB66
  8
0
 10
838.8238762819137264
 20
114.1828048793758938
 30
0.0
 11
838.7971259311138965
 21
114.1935724284881957
 31
0.0
  0
ARC
  5
FB67
  8
0
 10
1292.8098517446119331
 20
665.1268190566121348
 30
0.0
 40
713.9012518834856564
 50
230.4998250579652108
 51
230.5087687990150869
  0
ARC
  5
FB68
  8
0
 10
839.2429765937805541
 20
114.8316145572530047
 30
0.0
 40
0.7775183872384394
 50
211.8766173129706942
 51
226.8407658495819987
  0
ARC
  5
FB69
  8
0
 10
839.2260485941957313
 20
114.808388241282799
 30
0.0
 40
0.7509551523840483
 50
176.6774771701084887
 51
211.0538034901061053
  0
ARC
  5
FB6A
  8
0
 10
839.3109076616523225
 20
114.8112878619253934
 30
0.0
 40
0.835540058125897
 50
155.5796310040589105
 51
177.2132402204975961
  0
ARC
  5
FB6B
  8
0
 10
839.2948106873295728
 20
114.8147885727399
 30
0.0
 40
0.8194432152448968
 50
136.3088918063818937
 51
155.337187199751213
  0
ARC
  5
FB6C
  8
0
 10
839.1992661563039064
 20
114.8335144798385983
 30
0.0
 40
0.7062244060948643
 50
132.551082336910298
 51
161.7770536456038997
  0
ARC
  5
FB6D
  8
0
 10
839.3285560548309832
 20
114.781433516489102
 30
0.0
 40
0.8453648456253386
 50
161.1644785694693951
 51
182.2821920390026094
  0
ARC
  5
FB6E
  8
0
 10
839.5785671969763371
 20
114.820445669279394
 30
0.0
 40
1.0971152143004921
 50
183.7981953081203983
 51
191.0941265160464866
  0
ARC
  5
FB6F
  8
0
 10
838.7649432425955638
 20
115.3056836722314955
 30
0.0
 40
0.0646829000381751
 50
110.297480222368506
 51
131.9739007817348124
  0
ARC
  5
FB70
  8
0
 10
840.1320573451017708
 20
106.186815870838501
 30
0.0
 40
9.2841102373929907
 50
94.4826028294110927
 51
98.6077996920163002
  0
ARC
  5
FB71
  8
0
 10
840.5744079673427223
 20
99.9122793838282348
 30
0.0
 40
15.5741044804955102
 50
88.6878069206608757
 51
94.3008730338641641
  0
ARC
  5
FB72
  8
0
 10
840.2082447627766442
 20
110.2733733667823941
 30
0.0
 40
5.3319224395767604
 50
104.0272855684012967
 51
106.1411560733355941
  0
ARC
  5
FB73
  8
0
 10
840.7178782771261467
 20
115.826581264726002
 30
0.0
 40
0.0494137060576347
 50
270.1738140705625142
 51
281.665960083755806
  0
ARC
  5
FB74
  8
0
 10
840.5370440658172129
 20
115.8280476597741
 30
0.0
 40
0.0586128829114892
 50
264.1004986584728726
 51
273.7347874258510956
  0
ARC
  5
FB75
  8
0
 10
841.3134260817309951
 20
102.506045801280294
 30
0.0
 40
13.2906469626643293
 50
93.3748937986941456
 51
97.2121676722150454
  0
ARC
  5
FB76
  8
0
 10
839.5953009111591427
 20
115.6638714738469957
 30
0.0
 40
0.0850852575887092
 50
279.3352712892105956
 51
292.440915097895811
  0
ARC
  5
FB77
  8
0
 10
830.8874230722663015
 20
115.8521344231635055
 30
0.0
 40
8.6896940374945491
 50
1.49453540014918
 51
23.0624967274958088
  0
ARC
  5
FB78
  8
0
 10
830.2605776719753976
 20
115.1237864102378978
 30
0.0
 40
9.5611918649733436
 50
25.6076431286106292
 51
48.9607811788000475
  0
ARC
  5
FB79
  8
0
 10
830.2789715311583905
 20
115.3598130523240997
 30
0.0
 40
9.3721515150016899
 50
48.0981740533697817
 51
59.8814350102852018
  0
ARC
  5
FB7A
  8
0
 10
838.5334690530906983
 20
116.0514617803284949
 30
0.0
 40
0.0590551063303373
 50
188.8901734760727038
 51
252.467907484328407
  0
ARC
  5
FB7B
  8
0
 10
844.4876742483763792
 20
117.0172463502894971
 30
0.0
 40
6.0910770000504799
 50
188.1632701278583966
 51
189.2101236286131893
  0
ARC
  5
FB7C
  8
0
 10
846.383006030585193
 20
116.4639656298977997
 30
0.0
 40
7.9308151303993863
 50
179.0131669473045974
 51
182.2518492275451081
  0
ARC
  5
FB7D
  8
0
 10
830.3524041821439141
 20
115.8612486370331993
 30
0.0
 40
8.1346282030722161
 50
5.2144577256169571
 51
18.9869845562323789
  0
ARC
  5
FB7E
  8
0
 10
831.4608368374758811
 20
116.2248781155589938
 30
0.0
 40
6.9682147365653169
 50
19.1250147340492305
 51
38.876105112733832
  0
ARC
  5
FB7F
  8
0
 10
-759.74080452801104
 20
-1472.4449772455179755
 30
0.0
 40
2255.4385725785550676
 50
44.9356378766772622
 51
45.0214729912424616
  0
ARC
  5
FB80
  8
0
 10
836.2108322597810002
 20
119.9307392779910941
 30
0.0
 40
0.9145202606753327
 50
60.3564154165416724
 51
67.2347038003009914
  0
ARC
  5
FB81
  8
0
 10
836.5306780867495036
 20
120.4797488951230946
 30
0.0
 40
0.2792431741537644
 50
53.3022591193348916
 51
61.6783552120334519
  0
ARC
  5
FB82
  8
0
 10
836.6882834320036864
 20
120.6922602218761966
 30
0.0
 40
0.0146812442733604
 50
37.964104562045712
 51
50.8523893178384583
  0
ARC
  5
FB83
  8
0
 10
836.6984394381961465
 20
120.7001124641068941
 30
0.0
 40
0.0018447207735659
 50
7.9026531657595269
 51
39.7337703305217786
  0
ARC
  5
FB84
  8
0
 10
836.699739045278875
 20
120.7003192659783934
 30
0.0
 40
0.000529668787319
 50
308.5944271122659757
 51
5.0723090659611128
  0
ARC
  5
FB85
  8
0
 10
836.5952063702302439
 20
120.8012100270932052
 30
0.0
 40
0.0019432311256279
 50
308.1554853823366216
 51
352.2064417336438282
  0
ARC
  5
FB86
  8
0
 10
836.5927343591093859
 20
120.801233461827195
 30
0.0
 40
0.0044066451420386
 50
356.2664617217715772
 51
28.0963142999798805
  0
ARC
  5
FB87
  8
0
 10
836.5614233811894564
 20
120.7810900877070992
 30
0.0
 40
0.041624433314037
 50
32.2618893527724566
 51
52.1734186403164415
  0
ARC
  5
FB88
  8
0
 10
836.3101103001422416
 20
120.4520452117147045
 30
0.0
 40
0.4556628451886581
 50
52.5870763437687785
 51
67.0966462051988373
  0
ARC
  5
FB89
  8
0
 10
836.4283544761251505
 20
120.7358669478941948
 30
0.0
 40
0.148206802089852
 50
66.5032056572528347
 51
76.1337322729315815
  0
ARC
  5
FB8A
  8
0
 10
836.4575323471135562
 20
120.8536158026289939
 30
0.0
 40
0.0268969659751749
 50
76.3643976225208263
 51
90.7491925599167786
  0
ARC
  5
FB8B
  8
0
 10
836.4572051831304407
 20
120.874764875084395
 30
0.0
 40
0.0057456465026602
 50
90.2445889053028338
 51
116.8027168739362054
  0
ARC
  5
FB8C
  8
0
 10
836.4557574689353032
 20
120.8778910681176058
 30
0.0
 40
0.0023055100197007
 50
119.7236641420251999
 51
140.1347932575827997
  0
ARC
  5
FB8D
  8
0
 10
836.4287388690690932
 20
120.961791734796094
 30
0.0
 40
0.0043782472977671
 50
309.8687919252570282
 51
10.5730906855888804
  0
ARC
  5
FB8E
  8
0
 10
836.4170408840607251
 20
120.9597759346443979
 30
0.0
 40
0.01624833481166
 50
9.9916559500389663
 51
34.6500818389457024
  0
ARC
  5
FB8F
  8
0
 10
836.3375948790196617
 20
120.9010725204442025
 30
0.0
 40
0.1150227328325708
 50
36.2052709943780329
 51
54.0387566991161705
  0
ARC
  5
FB90
  8
0
 10
836.1903680292349463
 20
120.7168722841620934
 30
0.0
 40
0.350746714187423
 50
52.2418688635014874
 51
64.0701622400462298
  0
ARC
  5
FB91
  8
0
 10
836.2681919243375432
 20
120.8826093339883982
 30
0.0
 40
0.1676826904710138
 50
63.2218839999225324
 51
75.4411942320029141
  0
ARC
  5
FB92
  8
0
 10
836.3006727803737022
 20
121.0043710568942004
 30
0.0
 40
0.0416741610425706
 50
76.5827071953398644
 51
88.0673608474734948
  0
ARC
  5
FB93
  8
0
 10
836.3013214687082382
 20
121.0332465480373969
 30
0.0
 40
0.0127973585621515
 50
86.6099216211271852
 51
109.9222464548274019
  0
ARC
  5
FB94
  8
0
 10
836.2986769876898734
 20
121.0406764363967937
 30
0.0
 40
0.0049112230478177
 50
110.4527207091616958
 51
139.7700123112805954
  0
ARC
  5
FB95
  8
0
 10
835.9975331591321037
 20
120.5001970933125932
 30
0.0
 40
0.5267242164688926
 50
48.7727264019633324
 51
66.2826944330421952
  0
ARC
  5
FB96
  8
0
 10
835.9979701875538467
 20
120.8566114791426997
 30
0.0
 40
0.2716703276945799
 50
38.2148109306872996
 51
72.2489043847313468
  0
ARC
  5
FB97
  8
0
 10
836.0791702660073952
 20
121.1102972916700935
 30
0.0
 40
0.1482015775183703
 50
21.8136293702020083
 51
86.7071364921703349
  0
ARC
  5
FB98
  8
0
 10
835.8322057580569435
 20
121.1258889215161929
 30
0.0
 40
0.1999126315399043
 50
28.6107534266194889
 51
75.0381926338710201
  0
ARC
  5
FB99
  8
0
 10
835.6226267971778725
 20
120.7595793647549982
 30
0.0
 40
0.5278986156274961
 50
43.8307428974408282
 51
61.0036776744291771
  0
ARC
  5
FB9A
  8
0
 10
835.5710314835738473
 20
121.129485796010897
 30
0.0
 40
0.303543363588483
 50
34.3364719897235418
 51
64.2597813682146892
  0
ARC
  5
FB9B
  8
0
 10
835.8368177043126934
 20
121.3746080805887999
 30
0.0
 40
0.1337469787687883
 50
13.7591043042296395
 51
85.8886371216439244
  0
ARC
  5
FB9C
  8
0
 10
835.1544153155825825
 20
120.9774005518433029
 30
0.0
 40
0.6588302152788922
 50
40.1507269923373471
 51
53.750156435644513
  0
ARC
  5
FB9D
  8
0
 10
835.5947906887506633
 20
121.4019133314408947
 30
0.0
 40
0.1736404502690987
 50
20.5472601339227801
 51
74.1380375577061841
  0
ARC
  5
FB9E
  8
0
 10
835.3417530983017514
 20
121.4193474555588068
 30
0.0
 40
0.2614859329458122
 50
27.6120179262692993
 51
62.3871983963779115
  0
ARC
  5
FB9F
  8
0
 10
835.570541134510222
 20
121.6481572931673014
 30
0.0
 40
0.1290961813642801
 50
7.5765316270234431
 51
82.4226498375515177
  0
ARC
  5
FBA0
  8
0
 10
835.3241508785936276
 20
121.6722489329606987
 30
0.0
 40
0.1738327273480023
 50
15.8933708096096797
 51
69.4201685084320701
  0
ARC
  5
FBA1
  8
0
 10
835.2967708474379833
 20
121.9142444316065053
 30
0.0
 40
0.1339827374761331
 50
4.1839176893630201
 51
76.1667707174165542
  0
ARC
  5
FBA2
  8
0
 10
834.9024211540181568
 20
121.2344249603477948
 30
0.0
 40
0.6552964599298667
 50
36.2128523186317608
 51
49.8859684385451772
  0
ARC
  5
FBA3
  8
0
 10
835.0539465456807875
 20
121.6503859080618071
 30
0.0
 40
0.3009306804340201
 50
25.6069130394264199
 51
55.7961837637136711
  0
ARC
  5
FBA4
  8
0
 10
835.0492289036096736
 20
121.9100751470905948
 30
0.0
 40
0.1989350225428913
 50
14.9563264093123394
 51
61.6048077906471292
  0
ARC
  5
FBA5
  8
0
 10
834.6827204691734323
 20
121.7007660509965064
 30
0.0
 40
0.5269961070058633
 50
28.9813169166414504
 51
46.1838914700514707
  0
ARC
  5
FBA6
  8
0
 10
834.779923329454391
 20
122.0761912007044998
 30
0.0
 40
0.2706176639529391
 50
17.6824825407318187
 51
51.853065603148913
  0
ARC
  5
FBA7
  8
0
 10
835.0313704323241382
 20
122.1558330411367024
 30
0.0
 40
0.1495732990544265
 50
3.6255526615507878
 51
67.8523042007751656
  0
ARC
  5
FBA8
  8
0
 10
834.4260526362628525
 20
122.0768295363388063
 30
0.0
 40
0.5228873308027384
 50
23.6967847853330014
 51
41.3318863296764007
  0
ARC
  5
FBA9
  8
0
 10
834.7790841723430049
 20
122.350524398728993
 30
0.0
 40
0.188450727362272
 50
6.7054842385646216
 51
57.3227435075426897
  0
ARC
  5
FBAA
  8
0
 10
834.5344056424928567
 20
122.4754853847375955
 30
0.0
 40
0.2731910934798638
 50
11.8489460548038803
 51
46.6064189880303701
  0
ARC
  5
FBAB
  8
0
 10
834.1234470447114973
 20
122.4191269304407967
 30
0.0
 40
0.6143433082143575
 50
21.2512417188872504
 51
35.7034652066251326
  0
ARC
  5
FBAC
  8
0
 10
838.1766345843394674
 20
96.5169896010620505
 30
0.0
 40
0.0304412059882245
 50
58.9535175174888622
 51
88.9782862479701748
  0
LINE
  5
FBAD
  8
0
 10
840.9310563252140582
 20
115.7842278427882974
 30
0.0
 11
840.9310563252140582
 21
113.5262042023882998
 31
0.0
  0
LINE
  5
FBAF
  8
0
 10
840.7893240417140532
 20
97.2381262516882714
 30
0.0
 11
840.9113732700493529
 21
97.2381262516882714
 31
0.0
  0
LINE
  5
FBB0
  8
0
 10
840.7893240416971139
 20
94.6397010548882633
 30
0.0
 11
840.9113712858114695
 21
94.6397010548882633
 31
0.0
  0
LINE
  5
FBB1
  8
0
 10
839.9251511323091108
 20
96.4546476485261906
 30
0.0
 11
839.9418028908640963
 21
96.4546476485261906
 31
0.0
  0
LINE
  5
FBB2
  8
0
 10
839.9603436866677839
 20
96.4546476485261906
 30
0.0
 11
839.9775717924626406
 21
96.4546476485261906
 31
0.0
  0
LINE
  5
FBB3
  8
0
 10
839.9960634393385135
 20
96.4546476485261906
 30
0.0
 11
840.012668680187744
 21
96.4546476485261906
 31
0.0
  0
LINE
  5
FBB4
  8
0
 10
840.0314585555290705
 20
96.4546476485261906
 30
0.0
 11
840.0479815576710507
 21
96.4546476485261906
 31
0.0
  0
LINE
  5
FBB5
  8
0
 10
840.0668834390685333
 20
96.4546476485261906
 30
0.0
 11
840.0836551249165041
 21
96.4546476485261906
 31
0.0
  0
LINE
  5
FBB6
  8
0
 10
840.1021970230164015
 20
96.4546476485261906
 30
0.0
 11
840.1188468207225242
 21
96.4546476485261906
 31
0.0
  0
LINE
  5
FBB7
  8
0
 10
840.1376329765920445
 20
96.4546476485261906
 30
0.0
 11
840.1436547504140435
 21
96.4546476485261906
 31
0.0
  0
LINE
  5
FBB8
  8
0
 10
839.9074342253129544
 20
96.509786024135181
 30
0.0
 11
839.9074342253129544
 21
95.3680539512941152
 31
0.0
  0
LINE
  5
FBB9
  8
0
 10
839.316883080937032
 20
95.3680539173107746
 30
0.0
 11
839.316883080937032
 21
96.5097864849185925
 31
0.0
  0
LINE
  5
FBBA
  8
0
 10
839.316883080937032
 20
96.5097864849185925
 30
0.0
 11
839.3759382648524934
 21
96.5688351226382764
 31
0.0
  0
LINE
  5
FBBB
  8
0
 10
839.375944441014326
 20
95.3089926030382628
 30
0.0
 11
839.316883080937032
 21
95.3680539173107746
 31
0.0
  0
LINE
  5
FBBC
  8
0
 10
839.9074342253129544
 20
95.3680539512941152
 30
0.0
 11
839.8483729227618824
 21
95.3089926030382628
 31
0.0
  0
LINE
  5
FBBD
  8
0
 10
839.9074342253129544
 20
96.509786024135181
 30
0.0
 11
839.8483792818140046
 21
96.5688351226382764
 31
0.0
  0
LINE
  5
FBBE
  8
0
 10
839.3759382018035922
 20
95.3178860892361683
 30
0.0
 11
839.8483793448630195
 21
95.3178860892361683
 31
0.0
  0
LINE
  5
FBBF
  8
0
 10
839.3759382648524934
 20
95.5370894422590453
 30
0.0
 11
839.8483792818140046
 21
95.5370894422590453
 31
0.0
  0
LINE
  5
FBC0
  8
0
 10
839.3759382240360765
 20
95.719716791527631
 30
0.0
 11
839.8483793226303078
 21
95.719716791527631
 31
0.0
  0
LINE
  5
FBC1
  8
0
 10
839.3759382648524934
 20
96.1581234493046821
 30
0.0
 11
839.8483792818140046
 21
96.1581234493046821
 31
0.0
  0
LINE
  5
FBC2
  8
0
 10
839.3759381891030671
 20
96.3407507588145648
 30
0.0
 11
839.8483793575632035
 21
96.3407507588145648
 31
0.0
  0
LINE
  5
FBC3
  8
0
 10
839.8483796525678144
 20
96.5599540987822138
 30
0.0
 11
839.3759378940989109
 21
96.5599540987822138
 31
0.0
  0
LINE
  5
FBC4
  8
0
 10
839.3759382648524934
 20
96.3407506673579093
 30
0.0
 11
839.3759382648524934
 21
96.158123449304199
 31
0.0
  0
LINE
  5
FBC5
  8
0
 10
839.3759382648524934
 20
95.7197166815651457
 30
0.0
 11
839.3759382648524934
 21
95.5370894422593295
 31
0.0
  0
LINE
  5
FBC6
  8
0
 10
839.3759382648524934
 20
95.317886013112485
 30
0.0
 11
839.375944441014326
 21
95.3089926030382628
 31
0.0
  0
LINE
  5
FBC7
  8
0
 10
839.3759382648524934
 20
96.5599545464166056
 30
0.0
 11
839.3759382648524934
 21
96.5688351226382764
 31
0.0
  0
ARC
  5
FBC8
  8
0
 10
839.5082680993898521
 20
95.4274877276859002
 30
0.0
 40
0.1718246808409198
 50
140.3668674483866994
 51
219.633130753912809
  0
ARC
  5
FBC9
  8
0
 10
839.9664913945950957
 20
95.9389200654346581
 30
0.0
 40
0.6299231084416642
 50
159.6359215419514896
 51
200.3640784580485104
  0
ARC
  5
FBCA
  8
0
 10
839.5082671886394792
 20
96.4503526068872503
 30
0.0
 40
0.1718241229257742
 50
140.3666159597231058
 51
219.6333840402768942
  0
LINE
  5
FBCB
  8
0
 10
839.8483792818140046
 20
96.3407506673579093
 30
0.0
 11
839.8483792818140046
 21
96.158123449304199
 31
0.0
  0
LINE
  5
FBCC
  8
0
 10
839.8483792818140046
 20
95.7197166815651457
 30
0.0
 11
839.8483792818140046
 21
95.5370894422593295
 31
0.0
  0
LINE
  5
FBCD
  8
0
 10
839.8483792818140046
 20
95.317886013112485
 30
0.0
 11
839.8483729227618824
 21
95.3089926030382628
 31
0.0
  0
LINE
  5
FBCE
  8
0
 10
839.8483792818140046
 20
96.5599545464166056
 30
0.0
 11
839.8483792818140046
 21
96.5688351226382764
 31
0.0
  0
ARC
  5
FBCF
  8
0
 10
839.7160494472766459
 20
95.4274877276859002
 30
0.0
 40
0.1718246808409198
 50
320.3668692460872194
 51
39.6331325516132722
  0
ARC
  5
FBD0
  8
0
 10
839.2578261520714022
 20
95.9389200654346581
 30
0.0
 40
0.6299231084416642
 50
339.6359215419515181
 51
20.3640784580485104
  0
ARC
  5
FBD1
  8
0
 10
839.7160503580270188
 20
96.4503526068872503
 30
0.0
 40
0.1718241229257742
 50
320.3666159597224805
 51
39.6333840402768587
  0
LINE
  5
FBD2
  8
0
 10
839.8483792818140046
 20
96.5688351226382764
 30
0.0
 11
839.3759382648524934
 21
96.5688351226382764
 31
0.0
  0
LINE
  5
FBD3
  8
0
 10
839.8483729227618824
 20
95.3089926030382628
 30
0.0
 11
839.375944441014326
 21
95.3089926030382628
 31
0.0
  0
LINE
  5
FBD4
  8
0
 10
838.7515008821640095
 20
94.6711970449431703
 30
0.0
 11
838.046209412706844
 21
94.6711970449431703
 31
0.0
  0
LINE
  5
FBD5
  8
0
 10
838.5017029082192721
 20
94.2203226560787783
 30
0.0
 11
838.5017029082192721
 21
94.5892198046382759
 31
0.0
  0
LINE
  5
FBD6
  8
0
 10
838.7515008821640095
 20
94.1383454456227469
 30
0.0
 11
838.1046080074139581
 21
94.1383454456227469
 31
0.0
  0
LINE
  5
FBD7
  8
0
 10
838.0456661810138712
 20
94.5892198046382759
 30
0.0
 11
838.7515008821640095
 21
94.5892198046382759
 31
0.0
  0
LINE
  5
FBD8
  8
0
 10
838.7515008821640095
 20
94.2203226560787783
 30
0.0
 11
838.0456662524138665
 21
94.2203226560787783
 31
0.0
  0
LINE
  5
FBD9
  8
0
 10
838.0456661810140986
 20
94.2203226560787783
 30
0.0
 11
838.0456661810138712
 21
94.5892198046382759
 31
0.0
  0
LINE
  5
FBDA
  8
0
 10
838.4796642414138432
 20
94.2203226560787783
 30
0.0
 11
838.4796642414138432
 21
94.5892198046382759
 31
0.0
  0
LINE
  5
FBDB
  8
0
 10
838.4589560670139008
 20
94.2203226560787783
 30
0.0
 11
838.4589560670139008
 21
94.5892198046382759
 31
0.0
  0
LINE
  5
FBDC
  8
0
 10
838.4357917486139513
 20
94.2203226560787783
 30
0.0
 11
838.4357917486139513
 21
94.5892198046382759
 31
0.0
  0
LINE
  5
FBDD
  8
0
 10
838.4166078796140482
 20
94.2203226560787783
 30
0.0
 11
838.4166078796139345
 21
94.5892198046382759
 31
0.0
  0
LINE
  5
FBDE
  8
0
 10
838.3925346549141295
 20
94.2203226560787783
 30
0.0
 11
838.3925346549141295
 21
94.5892198046382759
 31
0.0
  0
LINE
  5
FBDF
  8
0
 10
838.3750542059138979
 20
94.2203226560787783
 30
0.0
 11
838.3750542059138979
 21
94.5892198046382759
 31
0.0
  0
LINE
  5
FBE0
  8
0
 10
838.3502968401139697
 20
94.2203226560787783
 30
0.0
 11
838.3502968401139697
 21
94.5892198046382759
 31
0.0
  0
LINE
  5
FBE1
  8
0
 10
838.3094726673141395
 20
94.2203226560787783
 30
0.0
 11
838.3094726673141395
 21
94.5892198046382759
 31
0.0
  0
LINE
  5
FBE2
  8
0
 10
838.2958712609140548
 20
94.2203226560787783
 30
0.0
 11
838.2958712609140548
 21
94.5892198046382759
 31
0.0
  0
LINE
  5
FBE3
  8
0
 10
838.270443300914053
 20
94.2203226560787783
 30
0.0
 11
838.270443300914053
 21
94.5892198046382759
 31
0.0
  0
LINE
  5
FBE4
  8
0
 10
838.2589812994140175
 20
94.2203226560787783
 30
0.0
 11
838.2589812994140175
 21
94.5892198046382759
 31
0.0
  0
LINE
  5
FBE5
  8
0
 10
838.2335731474139493
 20
94.2203226560787783
 30
0.0
 11
838.233573147414063
 21
94.5892198046382759
 31
0.0
  0
LINE
  5
FBE6
  8
0
 10
838.2243575685140513
 20
94.2203226560787783
 30
0.0
 11
838.2243575685140513
 21
94.5892198046382759
 31
0.0
  0
LINE
  5
FBE7
  8
0
 10
838.1873794975140299
 20
94.2203226173459143
 30
0.0
 11
838.1873794975140299
 21
94.5892197659054119
 31
0.0
  0
LINE
  5
FBE8
  8
0
 10
838.1845293638139083
 20
94.2203226181264881
 30
0.0
 11
838.1845293638139083
 21
94.589219766686
 31
0.0
  0
LINE
  5
FBE9
  8
0
 10
838.1676640921140233
 20
94.2203226560787783
 30
0.0
 11
838.1676640921140233
 21
94.5892198046382759
 31
0.0
  0
LINE
  5
FBEA
  8
0
 10
838.1631777109140558
 20
94.2203226560787783
 30
0.0
 11
838.1631777109140558
 21
94.5892198046382759
 31
0.0
  0
LINE
  5
FBEB
  8
0
 10
838.1392405654139566
 20
94.2203226560787783
 30
0.0
 11
838.1392405654139566
 21
94.5892198046382759
 31
0.0
  0
LINE
  5
FBEC
  8
0
 10
838.1067141195139811
 20
94.2203226707291748
 30
0.0
 11
838.1067141195139811
 21
94.5892198192886724
 31
0.0
  0
LINE
  5
FBED
  8
0
 10
838.0927799500140054
 20
94.2203226560787783
 30
0.0
 11
838.0927799500140054
 21
94.5892198046382759
 31
0.0
  0
LINE
  5
FBEE
  8
0
 10
838.0788941490138768
 20
94.2203226790787767
 30
0.0
 11
838.0788941490138768
 21
94.5892198276382743
 31
0.0
  0
LINE
  5
FBEF
  8
0
 10
838.0682191167084056
 20
94.220322674778771
 30
0.0
 11
838.0682191167084056
 21
94.5892198233382544
 31
0.0
  0
LINE
  5
FBF0
  8
0
 10
838.0520443249140499
 20
94.2203226560787783
 30
0.0
 11
838.0520443249140499
 21
94.5892198046382759
 31
0.0
  0
LINE
  5
FBF1
  8
0
 10
838.5237415750245873
 20
94.2203226560787783
 30
0.0
 11
838.5237415750245873
 21
94.5892198046382759
 31
0.0
  0
LINE
  5
FBF2
  8
0
 10
838.544449749424416
 20
94.2203226560787783
 30
0.0
 11
838.544449749424416
 21
94.5892198046382759
 31
0.0
  0
LINE
  5
FBF3
  8
0
 10
838.5676140678245929
 20
94.2203226560787783
 30
0.0
 11
838.5676140678247066
 21
94.5892198046382759
 31
0.0
  0
LINE
  5
FBF4
  8
0
 10
838.5867979368246097
 20
94.2203226560787783
 30
0.0
 11
838.5867979368243823
 21
94.5892198046382759
 31
0.0
  0
LINE
  5
FBF5
  8
0
 10
838.6108711615245284
 20
94.2203226560787783
 30
0.0
 11
838.6108711615245284
 21
94.5892198046382759
 31
0.0
  0
LINE
  5
FBF6
  8
0
 10
838.6283516105246463
 20
94.2203226560787783
 30
0.0
 11
838.6283516105246463
 21
94.5892198046382759
 31
0.0
  0
LINE
  5
FBF7
  8
0
 10
838.6531089763246882
 20
94.2203226560787783
 30
0.0
 11
838.6531089763244609
 21
94.5892198046382759
 31
0.0
  0
LINE
  5
FBF8
  8
0
 10
838.6687227950244505
 20
94.2203226560787783
 30
0.0
 11
838.6687227950246779
 21
94.5892198046382759
 31
0.0
  0
ARC
  5
FBF9
  8
0
 10
838.0466908593083417
 20
94.6920593598579643
 30
0.0
 40
0.0208678694272931
 50
183.233576258289105
 51
268.6780008303372824
  0
LINE
  5
FBFA
  8
0
 10
838.2036738017955031
 20
93.5235167381293735
 30
0.0
 11
838.7515048308508767
 21
93.5235167381293735
 31
0.0
  0
LINE
  5
FBFB
  8
0
 10
838.2036738124139674
 20
93.5235167381293735
 30
0.0
 11
838.2036738124139674
 21
94.1383454456227469
 31
0.0
  0
LINE
  5
FBFC
  8
0
 10
838.5878466843139449
 20
115.9742833067678021
 30
0.0
 11
838.5878466930139439
 21
115.929313186238204
 31
0.0
  0
LINE
  5
FBFD
  8
0
 10
839.4798382818080427
 20
115.9293131855934007
 30
0.0
 11
838.5743264795139567
 21
115.9293131736382065
 31
0.0
  0
LINE
  5
FBFE
  8
0
 10
838.5743264795139567
 20
115.9293131736382065
 30
0.0
 11
838.6005733186140105
 21
115.2993919189381984
 31
0.0
  0
LINE
  5
FBFF
  8
0
 10
838.6005733186140105
 20
115.2993919189381984
 30
0.0
 11
838.6340181641608069
 21
115.2993919407998931
 31
0.0
  0
LINE
  5
FC00
  8
0
 10
838.5564976713138776
 20
116.0576143457382017
 30
0.0
 11
838.5564976719139167
 21
115.9828838244233964
 31
0.0
  0
LINE
  5
FC01
  8
0
 10
838.5643967414139297
 20
116.0589810062382981
 30
0.0
 11
838.5630361474521806
 21
115.9810317483241988
 31
0.0
  0
ARC
  5
FC02
  8
0
 10
838.5673142543631684
 20
116.0508375546414044
 30
0.0
 40
0.0127641437796574
 50
83.993063351277911
 51
147.9320885659591056
  0
ARC
  5
FC03
  8
0
 10
838.5694754630796979
 20
116.0584971136076007
 30
0.0
 40
0.0051017218502156
 50
99.3113553097623623
 51
174.5573776947965996
  0
ARC
  5
FC04
  8
0
 10
838.5796705451811022
 20
116.0301621096409974
 30
0.0
 40
0.0351422258326543
 50
84.7015897375820686
 51
108.2762072000358984
  0
ARC
  5
FC05
  8
0
 10
838.568918750074431
 20
115.9142258571539941
 30
0.0
 40
0.1515759655250013
 50
78.6211667677168577
 51
84.7016053196944227
  0
ARC
  5
FC06
  8
0
 10
838.5698823972425089
 20
115.9778279874871032
 30
0.0
 40
0.085712486215159
 50
77.2914186680105217
 51
90.823837514809
  0
ARC
  5
FC07
  8
0
 10
838.5490727889546179
 20
115.8839047172832011
 30
0.0
 40
0.18191310230861
 50
74.1497520081125998
 51
77.4056212219820878
  0
ARC
  5
FC08
  8
0
 10
839.1025777742911487
 20
117.7826154388982047
 30
0.0
 40
1.792053509355598
 50
253.673880541141699
 51
262.65867751779939
  0
ARC
  5
FC09
  8
0
 10
839.1355747309197568
 20
118.0430199683162016
 30
0.0
 40
2.0545398064089331
 50
262.6739601050174997
 51
269.8122379800951194
  0
ARC
  5
FC0A
  8
0
 10
839.0916604886641608
 20
117.7288906471584937
 30
0.0
 40
1.741211575059064
 50
253.5558611591766009
 51
262.5070957181346785
  0
ARC
  5
FC0B
  8
0
 10
839.0873733522894327
 20
117.6996989204300945
 30
0.0
 40
1.7117101162919901
 50
262.5219518960299752
 51
271.388204792326917
  0
ARC
  5
FC0C
  8
0
 10
838.6290510165141541
 20
115.2600218456383061
 30
0.0
 40
0.035039370100001
 50
87.0879097748662332
 51
205.3660655407381057
  0
LINE
  5
FC0D
  8
0
 10
839.4663180731139391
 20
115.9293133563381986
 30
0.0
 11
839.4663180731139391
 21
115.9973544670163932
 31
0.0
  0
LINE
  5
FC0E
  8
0
 10
839.4798382886140189
 20
115.9293133489382939
 30
0.0
 11
839.4646524395462848
 21
115.5648512748881984
 31
0.0
  0
LINE
  5
FC0F
  8
0
 10
835.5121166115759479
 20
96.5474259671817663
 30
0.0
 11
835.7226751903067452
 21
96.5474259671817663
 31
0.0
  0
LINE
  5
FC10
  8
0
 10
838.1788040146584535
 20
95.3304095121817738
 30
0.0
 11
837.9434748938170969
 21
95.3304095121817738
 31
0.0
  0
LINE
  5
FC11
  8
0
 10
835.9681709317371769
 20
92.3096745975589954
 30
0.0
 11
836.0996942682139661
 21
94.8192587960382554
 31
0.0
  0
ARC
  5
FC12
  8
0
 10
836.1784729424399529
 20
94.8149835682712734
 30
0.0
 40
0.0788945947785543
 50
90.1063511646941038
 51
176.893671244897007
  0
LINE
  5
FC13
  8
0
 10
835.9398862800479719
 20
92.2835285451593847
 30
0.0
 11
835.5113952229440883
 21
92.2947488800934508
 31
0.0
  0
ARC
  5
FC14
  8
0
 10
835.9406087574974435
 20
92.3111190874943333
 30
0.0
 40
0.0276
 50
268.5000131325764983
 51
356.9999635318458218
  0
ARC
  5
FC15
  8
0
 10
835.5121177003933326
 20
92.3223394224283709
 30
0.0
 40
0.0276
 50
180.000014862381704
 51
268.5000131325634811
  0
ARC
  5
FC16
  8
0
 10
835.5121166115759479
 20
96.5198259671817738
 30
0.0
 40
0.0276
 50
90.0000000000195257
 51
180.0000148623751954
  0
ARC
  5
FC17
  8
0
 10
836.1346689914317949
 20
96.5354390852349837
 30
0.0
 40
0.0119872242396063
 50
32.3561846586554935
 51
89.5670096244923144
  0
ARC
  5
FC18
  8
0
 10
835.8486898617186398
 20
97.3646026729973357
 30
0.0
 40
0.8268358155877308
 50
261.2336211450136148
 51
278.7663788549863852
  0
ARC
  5
FC19
  8
0
 10
838.13240722508624
 20
96.4619637999887658
 30
0.0
 40
0.1008437516881158
 50
27.207210490234079
 51
53.5404595798007179
  0
ARC
  5
FC1A
  8
0
 10
837.777381092281189
 20
96.2794486682295343
 30
0.0
 40
0.5000370986961992
 50
5.189789319973352
 51
27.207210490234079
  0
ARC
  5
FC1B
  8
0
 10
835.9172924959900683
 20
95.9548343490820628
 30
0.0
 40
2.3869032275060098
 50
359.6178330862874759
 51
8.9137645153809935
  0
ARC
  5
FC1C
  8
0
 10
835.6081503685103371
 20
95.9348252758523756
 30
0.0
 40
2.6959953586423091
 50
354.576134909636778
 51
0.0868869678000343
  0
ARC
  5
FC1D
  8
0
 10
836.71925244614647
 20
95.8293282513279081
 30
0.0
 40
1.5798961475006461
 50
346.3057707531007168
 51
354.576134909636778
  0
ARC
  5
FC1E
  8
0
 10
837.9056905376606892
 20
95.5402324151187656
 30
0.0
 40
0.3587443356814695
 50
328.9248063971263036
 51
346.305770753099921
  0
ARC
  5
FC1F
  8
0
 10
838.1638736778675138
 20
95.3846388059414068
 30
0.0
 40
0.057301297772263
 50
294.1115948089084213
 51
328.9248063971269858
  0
ARC
  5
FC20
  8
0
 10
838.1782216197160551
 20
95.352580986669409
 30
0.0
 40
0.0221791222735442
 50
271.5046857005806942
 51
294.1115948089076824
  0
ARC
  5
FC21
  8
0
 10
837.9519923663136751
 20
95.1360520556674487
 30
0.0
 40
0.1945440007824714
 50
87.4642075790112443
 51
136.5980858382538941
  0
ARC
  5
FC22
  8
0
 10
837.9297161575975679
 20
95.1571190288457274
 30
0.0
 40
0.163883817585707
 50
136.5980858382538941
 51
160.9651958742319096
  0
ARC
  5
FC23
  8
0
 10
837.7796328192515602
 20
96.5053048429919329
 30
0.0
 40
0.098196523204463
 50
154.5992343199588106
 51
166.5672715002656048
  0
ARC
  5
FC24
  8
0
 10
837.7432522311361254
 20
96.5159238854709542
 30
0.0
 40
0.0603735314588018
 50
168.34906081309461
 51
197.7489297892327045
  0
ARC
  5
FC25
  8
0
 10
836.7820486044766994
 20
96.2082599723756289
 30
0.0
 40
0.9488685085515673
 50
1.683793581815088
 51
17.7489297892327684
  0
ARC
  5
FC26
  8
0
 10
1086.2994927422701039
 20
117.2662819356611976
 30
0.0
 40
249.4570249523306984
 50
184.8359839535802109
 51
184.9680328711449988
  0
ARC
  5
FC27
  8
0
 10
836.303500736074966
 20
95.4527066898578624
 30
0.0
 40
1.4910845098515351
 50
350.654314221709285
 51
8.1202232429103436
  0
LINE
  5
FC28
  8
0
 10
835.9747045331306481
 20
96.5474259671817663
 30
0.0
 11
836.1347595793140499
 21
96.5474259671817663
 31
0.0
  0
ARC
  5
FC29
  8
0
 10
838.5001947846317307
 20
93.8722454523530843
 30
0.0
 40
1.2130617761353759
 50
78.043630441948963
 51
103.8489312299327025
  0
LINE
  5
FC2A
  8
0
 10
838.6833971018140801
 20
94.5892199566264367
 30
0.0
 11
838.6833971732140753
 21
94.2203226560787783
 31
0.0
  0
LINE
  5
FC2B
  8
0
 10
838.6909803974139095
 20
94.5892199660382715
 30
0.0
 11
838.6909803974139095
 21
94.2203226560787783
 31
0.0
  0
LINE
  5
FC2C
  8
0
 10
838.7117691961140054
 20
94.5892199710382755
 30
0.0
 11
838.7117691961140054
 21
94.2203226560787783
 31
0.0
  0
LINE
  5
FC2D
  8
0
 10
838.7176110670138769
 20
94.5892199698382683
 30
0.0
 11
838.7176110670138769
 21
94.2203226560787783
 31
0.0
  0
LINE
  5
FC2E
  8
0
 10
838.7391012743139527
 20
94.5892199748382723
 30
0.0
 11
838.7391012743139527
 21
94.2203226560787783
 31
0.0
  0
LINE
  5
FC2F
  8
0
 10
838.7431732596140819
 20
94.5892198046382759
 30
0.0
 11
838.7431732596140819
 21
94.2203226560787783
 31
0.0
  0
LINE
  5
FC30
  8
0
 10
838.1046080074139581
 20
94.1383454456227469
 30
0.0
 11
838.1046080074139581
 21
94.2203226560787783
 31
0.0
  0
LINE
  5
FC31
  8
0
 10
838.1046079182694939
 20
94.5892198046382759
 30
0.0
 11
838.1046079182694939
 21
94.6711970449431703
 31
0.0
  0
LINE
  5
FC32
  8
0
 10
838.7515008821640095
 20
114.2311742627167064
 30
0.0
 11
838.7515008821640095
 21
82.668471198438894
 31
0.0
  0
LINE
  5
FC33
  8
0
 10
839.3026646391640497
 20
114.0898056308928972
 30
0.0
 11
839.3026646391640497
 21
83.3516642380837851
 31
0.0
  0
LINE
  5
FC34
  8
0
 10
838.2227111244931166
 20
93.5235167254013362
 30
0.0
 11
838.2227111244931166
 21
82.4066479934500933
 31
0.0
  0
ARC
  5
FC35
  8
0
 10
819.5167602916091028
 20
81.210555237558097
 30
0.0
 40
18.7441520065051215
 50
0.8579046521721977
 51
3.6586163482168419
  0
ARC
  5
FC36
  8
0
 10
875.9522586624851783
 20
82.0556418324558337
 30
0.0
 40
37.6976733335919718
 50
180.8579046521720954
 51
182.7751486974096053
  0
ARC
  5
FC37
  8
0
 10
911.1952606490225435
 20
83.763989755615242
 30
0.0
 40
72.9820557378460961
 50
182.7751486974096053
 51
183.7447257336702933
  0
ARC
  5
FC38
  8
0
 10
843.8732974962855451
 20
79.3576989621577127
 30
0.0
 40
5.5160485839096216
 50
183.7447257336702933
 51
188.8370158094521969
  0
ARC
  5
FC39
  8
0
 10
840.2485925584278448
 20
78.7941668972849811
 30
0.0
 40
1.8477991002090941
 50
188.8370158094521969
 51
195.1254907030603079
  0
ARC
  5
FC3A
  8
0
 10
838.8256509293255476
 20
78.4095751560734158
 30
0.0
 40
0.3737998847276088
 50
195.124492221428909
 51
217.2983871511669065
  0
ARC
  5
FC3B
  8
0
 10
838.7804776583020612
 20
78.375164354980754
 30
0.0
 40
0.3170131992564833
 50
217.2983871511669065
 51
246.34009990234361
  0
ARC
  5
FC3C
  8
0
 10
838.7558827950565501
 20
78.319028979245445
 30
0.0
 40
0.2557262699238683
 50
246.34009990234361
 51
269.0181790761369029
  0
ARC
  5
FC3D
  8
0
 10
838.7567865686855839
 20
78.3717650176753438
 30
0.0
 40
0.3084700520792316
 50
269.0181790761369029
 51
301.5460596185375834
  0
ARC
  5
FC3E
  8
0
 10
838.7647142005530441
 20
78.3588516114282783
 30
0.0
 40
0.2933173820858144
 50
301.5460596185375834
 51
337.9764094167114763
  0
ARC
  5
FC3F
  8
0
 10
838.0294911421840425
 20
78.6562531977941006
 30
0.0
 40
1.086412993680288
 50
337.9764094167114763
 51
356.4254849195933161
  0
ARC
  5
FC40
  8
0
 10
823.2946047990756142
 20
80.4064472617240398
 30
0.0
 40
15.9233005958340605
 50
353.4443725706120176
 51
357.5257230237377826
  0
ARC
  5
FC41
  8
0
 10
755.4866488787761227
 20
83.6247231494457992
 30
0.0
 40
83.8074698269658711
 50
357.3288643585672162
 51
358.360643388479275
  0
ARC
  5
FC42
  8
0
 10
510.4948722709638105
 20
88.9204998722470208
 30
0.0
 40
328.8549471307521799
 50
358.6594774938939736
 51
359.0297058539043746
  0
ARC
  5
FC43
  8
0
 10
-9369.5826417802163633
 20
385.635530513791025
 30
0.0
 40
10212.8289424271006283
 50
358.2898257717054094
 51
358.3000517311546105
  0
ARC
  5
FC44
  8
0
 10
787.7441189824913863
 20
82.367813200571149
 30
0.0
 40
50.9758519090872184
 50
356.9981991766014175
 51
358.2898521597214199
  0
ARC
  5
FC45
  8
0
 10
817.8809788515254695
 20
80.7874574866482646
 30
0.0
 40
20.7975841167115902
 50
354.2475346299585226
 51
356.9981991766014175
  0
ARC
  5
FC46
  8
0
 10
836.1773350217698635
 20
78.9443160395382506
 30
0.0
 40
2.4086249427265058
 50
343.3732482094397938
 51
354.2475346299585226
  0
LINE
  5
FC47
  8
0
 10
839.3168831794140488
 20
96.3601738082382866
 30
0.0
 11
839.3026646391640497
 21
96.3601738082382866
 31
0.0
  0
LINE
  5
FC48
  8
0
 10
839.316883080937032
 20
95.517654123238259
 30
0.0
 11
839.3026646391640497
 21
95.517654123238259
 31
0.0
  0
ARC
  5
FC49
  8
0
 10
839.9335422612042521
 20
96.4262045687155052
 30
0.0
 40
0.0108614344454324
 50
210.3714589610056009
 51
332.5242332879620903
  0
ARC
  5
FC4A
  8
0
 10
840.0043352142932918
 20
96.4259423724000015
 30
0.0
 40
0.0106755886658834
 50
209.4544654794146084
 51
333.1681260404362206
  0
ARC
  5
FC4B
  8
0
 10
840.0752604762062674
 20
96.4260785973826842
 30
0.0
 40
0.0108006796521291
 50
213.5765511261942038
 51
333.0697574790045223
  0
ARC
  5
FC4C
  8
0
 10
840.1461628135574529
 20
96.426213402703155
 30
0.0
 40
0.010907864939399
 50
212.3473790096427081
 51
256.707456053265787
  0
LINE
  5
FC4D
  8
0
 10
839.9431785915637647
 20
96.4211933916665629
 30
0.0
 11
839.9603436866677839
 21
96.4546476485261906
 31
0.0
  0
LINE
  5
FC4E
  8
0
 10
839.9775717924626406
 20
96.4546476485261906
 30
0.0
 11
839.9950394800139293
 21
96.420692846938266
 31
0.0
  0
LINE
  5
FC4F
  8
0
 10
840.0138614141538937
 20
96.4211236890137968
 30
0.0
 11
840.0314585635139792
 21
96.454647663738271
 31
0.0
  0
LINE
  5
FC50
  8
0
 10
840.0479815513140238
 20
96.4546476605382708
 30
0.0
 11
840.0662619153139303
 21
96.4201052747882699
 31
0.0
  0
LINE
  5
FC51
  8
0
 10
840.0848899149933686
 20
96.4211869116209641
 30
0.0
 11
840.1021970230164015
 21
96.4546476485261906
 31
0.0
  0
LINE
  5
FC52
  8
0
 10
840.1188468207225242
 20
96.4546476485261906
 30
0.0
 11
840.1369476346139891
 21
96.4203771372382761
 31
0.0
  0
LINE
  5
FC53
  8
0
 10
839.9241713888138747
 20
96.4207129834382926
 30
0.0
 11
839.9074342253129544
 21
96.4528345926908059
 31
0.0
  0
LINE
  5
FC54
  8
0
 10
839.9156908741838379
 20
96.4369886072733777
 30
0.0
 11
839.9251511323091108
 21
96.4546476485261906
 31
0.0
  0
LINE
  5
FC55
  8
0
 10
839.9418028908640963
 20
96.4546476485261906
 30
0.0
 11
839.9512060061790635
 21
96.436838582609596
 31
0.0
  0
LINE
  5
FC56
  8
0
 10
839.9866066316914157
 20
96.4370851536345555
 30
0.0
 11
839.9960634393385135
 21
96.4546476485261906
 31
0.0
  0
LINE
  5
FC57
  8
0
 10
840.012668680187744
 20
96.4546476485261906
 30
0.0
 11
840.0220725147188432
 21
96.4368757744578033
 31
0.0
  0
LINE
  5
FC58
  8
0
 10
840.0573618513047904
 20
96.4369227432045335
 30
0.0
 11
840.0668834390685333
 21
96.4546476485261906
 31
0.0
  0
LINE
  5
FC59
  8
0
 10
840.0836551249165041
 20
96.4546476485261906
 30
0.0
 11
840.0929586787634662
 21
96.436786674521727
 31
0.0
  0
LINE
  5
FC5A
  8
0
 10
840.128235955620994
 20
96.4368741896051915
 30
0.0
 11
840.1376329765920445
 21
96.4546476485261906
 31
0.0
  0
LINE
  5
FC5B
  8
0
 10
839.9251511323091108
 20
95.4231796580503442
 30
0.0
 11
839.9418028908640963
 21
95.4231796580503442
 31
0.0
  0
LINE
  5
FC5C
  8
0
 10
839.9603436866677839
 20
95.4231796580503442
 30
0.0
 11
839.9771108274140943
 21
95.4231794618382736
 31
0.0
  0
LINE
  5
FC5D
  8
0
 10
839.9960634393385135
 20
95.4231796580503442
 30
0.0
 11
840.012668680187744
 21
95.4231796580503442
 31
0.0
  0
LINE
  5
FC5E
  8
0
 10
840.0314585555290705
 20
95.4231796580503442
 30
0.0
 11
840.0479815576710507
 21
95.4231796580503442
 31
0.0
  0
LINE
  5
FC5F
  8
0
 10
840.1021970230164015
 20
95.4231796580503442
 30
0.0
 11
840.1188468207225242
 21
95.4231796580503442
 31
0.0
  0
LINE
  5
FC60
  8
0
 10
840.1376329765920445
 20
95.4231796580503442
 30
0.0
 11
840.1436547504140435
 21
95.4231796580503442
 31
0.0
  0
ARC
  5
FC61
  8
0
 10
839.9689501883735829
 20
95.4515773206230165
 30
0.0
 40
0.0108614344454324
 50
27.475766712037899
 51
149.6285410389943138
  0
ARC
  5
FC62
  8
0
 10
840.0397431414623952
 20
95.4518395169385201
 30
0.0
 40
0.0106755886658834
 50
26.8318739595637901
 51
150.5455345205853916
  0
ARC
  5
FC63
  8
0
 10
840.1106684033755982
 20
95.4517032919558233
 30
0.0
 40
0.0108006796521291
 50
26.930242520995531
 51
146.4234488738057962
  0
LINE
  5
FC64
  8
0
 10
840.0492693413232246
 20
95.4566582003247106
 30
0.0
 11
840.0668834390685333
 21
95.4231796580503442
 31
0.0
  0
LINE
  5
FC65
  8
0
 10
839.9074342253129544
 20
95.456251016925961
 30
0.0
 11
839.9251511323091108
 21
95.4231796580503442
 31
0.0
  0
LINE
  5
FC66
  8
0
 10
839.9418028908640963
 20
95.4231796580503442
 30
0.0
 11
839.9595793159832056
 21
95.4570689059002291
 31
0.0
  0
LINE
  5
FC67
  8
0
 10
839.9785865187330955
 20
95.4565884976719587
 30
0.0
 11
839.9960634393385135
 21
95.4231796580503442
 31
0.0
  0
LINE
  5
FC68
  8
0
 10
840.012668680187744
 20
95.4231796580503442
 30
0.0
 11
840.0304474071833738
 21
95.4570890424002414
 31
0.0
  0
LINE
  5
FC69
  8
0
 10
840.0836551249165041
 20
95.4231796580503442
 30
0.0
 11
840.1016698424833749
 21
95.4576766145502518
 31
0.0
  0
LINE
  5
FC6A
  8
0
 10
840.1202978421626995
 20
95.4565949777175575
 30
0.0
 11
840.1376329765920445
 21
95.4231796580503442
 31
0.0
  0
LINE
  5
FC6B
  8
0
 10
840.0668834390685333
 20
95.4231796580503442
 30
0.0
 11
840.0836551249165041
 21
95.4231796580503442
 31
0.0
  0
LINE
  5
FC6C
  8
0
 10
839.9157061455140365
 20
95.4408687370382722
 30
0.0
 11
839.9074342253129544
 21
95.4249929821240954
 31
0.0
  0
LINE
  5
FC6D
  8
0
 10
839.9771108274140943
 20
95.4231794618382736
 30
0.0
 11
839.9867506750032362
 21
95.4409819160760264
 31
0.0
  0
LINE
  5
FC6E
  8
0
 10
839.9603436866677839
 20
95.4231796580503442
 30
0.0
 11
839.9506911034236509
 21
95.4401242819753151
 31
0.0
  0
LINE
  5
FC6F
  8
0
 10
840.0314585555290705
 20
95.4231796580503442
 30
0.0
 11
840.0219483525320356
 21
95.4408787866912149
 31
0.0
  0
LINE
  5
FC70
  8
0
 10
840.0479815576710507
 20
95.4231796580503442
 30
0.0
 11
840.0575070915652987
 21
95.4410009765649079
 31
0.0
  0
LINE
  5
FC71
  8
0
 10
840.1021970230164015
 20
95.4231796580503442
 30
0.0
 11
840.0927730780853153
 21
95.4406399170117652
 31
0.0
  0
LINE
  5
FC72
  8
0
 10
840.1188468207225242
 20
95.4231796580503442
 30
0.0
 11
840.1284020818758336
 21
95.4409731916981343
 31
0.0
  0
LINE
  5
FC73
  8
0
 10
840.1021970230164015
 20
96.4546476485261906
 30
0.0
 11
840.1376329765920445
 21
95.4231796580503442
 31
0.0
  0
LINE
  5
FC74
  8
0
 10
840.0479815513140238
 20
96.4546476605382708
 30
0.0
 11
840.0836551249165041
 21
95.4231796580503442
 31
0.0
  0
LINE
  5
FC75
  8
0
 10
840.0668834390685333
 20
95.4231796580503442
 30
0.0
 11
840.0314585635139792
 21
96.454647663738271
 31
0.0
  0
LINE
  5
FC76
  8
0
 10
839.9775717924626406
 20
96.4546476485261906
 30
0.0
 11
840.012668680187744
 21
95.4231796580503442
 31
0.0
  0
LINE
  5
FC77
  8
0
 10
839.9960634393385135
 20
95.4231796580503442
 30
0.0
 11
839.9603436866677839
 21
96.4546476485261906
 31
0.0
  0
LINE
  5
FC78
  8
0
 10
840.1369476346139891
 20
96.4203771372382761
 30
0.0
 11
840.1419115106759818
 21
96.3620229684007086
 31
0.0
  0
LINE
  5
FC79
  8
0
 10
840.1188468207225242
 20
96.4546476485261906
 30
0.0
 11
840.1436547504140435
 21
95.7328813538799182
 31
0.0
  0
LINE
  5
FC7A
  8
0
 10
839.9074342846787431
 20
95.9736192814780793
 30
0.0
 11
839.9251511323091108
 21
95.4231796580503442
 31
0.0
  0
LINE
  5
FC7B
  8
0
 10
839.9418028908640963
 20
95.4231796580503442
 30
0.0
 11
839.9074343781140897
 21
96.4528342994382939
 31
0.0
  0
LINE
  5
FC7C
  8
0
 10
839.9785865187330955
 20
95.4565884976719587
 30
0.0
 11
839.9431785915641058
 21
96.4211933916670461
 31
0.0
  0
LINE
  5
FC7D
  8
0
 10
839.9595793159832056
 20
95.4570689059002291
 30
0.0
 11
839.9241713888138747
 21
96.4207129834382926
 31
0.0
  0
LINE
  5
FC7E
  8
0
 10
839.9950394800139293
 20
96.420692846938266
 30
0.0
 11
840.0304474071833738
 21
95.4570890424002414
 31
0.0
  0
LINE
  5
FC7F
  8
0
 10
840.0492693413232246
 20
95.4566582003247106
 30
0.0
 11
840.0138614141538937
 21
96.4211236890137968
 31
0.0
  0
LINE
  5
FC80
  8
0
 10
840.0662619153139303
 20
96.4201052747882699
 30
0.0
 11
840.1016698424833749
 21
95.4576766145502518
 31
0.0
  0
LINE
  5
FC81
  8
0
 10
840.1202978421626995
 20
95.4565949777175575
 30
0.0
 11
840.0848899149933686
 21
96.4211869116209641
 31
0.0
  0
ARC
  5
FC82
  8
0
 10
839.6904461307900647
 20
96.4087188773837056
 30
0.0
 40
0.2392085344580236
 50
1.7699481589159209
 51
11.06773844569258
  0
ARC
  5
FC83
  8
0
 10
839.7785882118251948
 20
96.4195587638769922
 30
0.0
 40
0.1669438866197062
 50
2.0633040865404721
 51
12.1331180521238995
  0
ARC
  5
FC84
  8
0
 10
839.7446355054270271
 20
96.4070931900985357
 30
0.0
 40
0.2558855847196073
 50
2.002032783943668
 51
10.7102654297883007
  0
ARC
  5
FC85
  8
0
 10
839.8590554042499434
 20
96.4210845576566982
 30
0.0
 40
0.1572371445080626
 50
1.6565498914465211
 51
12.3249148213116495
  0
ARC
  5
FC86
  8
0
 10
839.9009246068482071
 20
96.4174201009717962
 30
0.0
 40
0.1700915748411802
 50
359.5717649114347978
 51
12.6423513758685004
  0
ARC
  5
FC87
  8
0
 10
839.9240747202517241
 20
96.4208465960342949
 30
0.0
 40
0.1631208653193213
 50
1.6401233590243349
 51
11.9591803569316806
  0
ARC
  5
FC88
  8
0
 10
839.9917430123819031
 20
96.4193052105037225
 30
0.0
 40
0.1501098583790169
 50
358.8173309366513877
 51
13.6177857012635499
  0
ARC
  5
FC89
  8
0
 10
840.1237320739187453
 20
95.4575564428735959
 30
0.0
 40
0.1669656504293989
 50
181.9449533005430055
 51
191.881683379894497
  0
ARC
  5
FC8A
  8
0
 10
840.1337523499028066
 20
95.4592586453542253
 30
0.0
 40
0.1607428818045093
 50
179.1495313351348955
 51
192.9707005951441943
  0
ARC
  5
FC8B
  8
0
 10
840.1693875324892815
 20
95.4544298893384564
 30
0.0
 40
0.1416097093209804
 50
180.9686465919781995
 51
192.6516292993912032
  0
ARC
  5
FC8C
  8
0
 10
840.232195879321921
 20
95.4628663079391231
 30
0.0
 40
0.1884903297641689
 50
180.3389650358498955
 51
192.1545889950868968
  0
ARC
  5
FC8D
  8
0
 10
840.2698151533176087
 20
95.4595670989793348
 30
0.0
 40
0.1714021451254931
 50
182.6042799618365109
 51
192.2568254161490131
  0
ARC
  5
FC8E
  8
0
 10
840.344677758627995
 20
95.4674285696943343
 30
0.0
 40
0.2301716024579486
 50
181.4080981916654878
 51
191.0837203246497893
  0
LINE
  5
FC8F
  8
0
 10
838.1257451870138766
 20
94.589219844638265
 30
0.0
 11
838.1257451870138766
 21
94.2203226560787783
 31
0.0
  0
LINE
  5
FC90
  8
0
 10
838.0604166466082461
 20
94.2203226732685977
 30
0.0
 11
838.0604166466082461
 21
94.5892198218281095
 31
0.0
  0
LINE
  5
FC91
  8
0
 10
838.0483278861082681
 20
94.2203226709288231
 30
0.0
 11
838.0483278861082681
 21
94.5892198194883349
 31
0.0
  0
LINE
  5
FC92
  8
0
 10
838.2841686994082693
 20
94.220322656578773
 30
0.0
 11
838.2841686994082693
 21
94.5892198051382564
 31
0.0
  0
LINE
  5
FC93
  8
0
 10
838.2080627124140619
 20
94.2203226230459165
 30
0.0
 11
838.2080627124140619
 21
94.5892197716054142
 31
0.0
  0
LINE
  5
FC94
  8
0
 10
838.2110953634140742
 20
94.2203226238459166
 30
0.0
 11
838.2110953634140742
 21
94.5892197724054142
 31
0.0
  0
LINE
  5
FC95
  8
0
 10
838.1446002011140308
 20
94.2203225588459077
 30
0.0
 11
838.1446002011140308
 21
94.5892197074054053
 31
0.0
  0
LINE
  5
FC96
  8
0
 10
838.3186969344141062
 20
94.2203225588459077
 30
0.0
 11
838.3186969344141062
 21
94.5892197074054053
 31
0.0
  0
LINE
  5
FC97
  8
0
 10
838.3444178221141101
 20
94.2203225588459077
 30
0.0
 11
838.3444178221141101
 21
94.5892197074054053
 31
0.0
  0
LINE
  5
FC98
  8
0
 10
838.3385192937139436
 20
94.2203225588459077
 30
0.0
 11
838.3385192937139436
 21
94.5892197074054053
 31
0.0
  0
LINE
  5
FC99
  8
0
 10
838.3670305233140425
 20
94.2203225588459077
 30
0.0
 11
838.3670305233140425
 21
94.5892197074054053
 31
0.0
  0
LINE
  5
FC9A
  8
0
 10
838.4051764775140327
 20
94.2203225588459077
 30
0.0
 11
838.4051764775140327
 21
94.5892197074054053
 31
0.0
  0
LINE
  5
FC9B
  8
0
 10
838.4716767680140492
 20
94.2203225588459077
 30
0.0
 11
838.4716767680140492
 21
94.5892197074054053
 31
0.0
  0
LINE
  5
FC9C
  8
0
 10
838.4402132953139244
 20
94.2203225588459077
 30
0.0
 11
838.4402132953139244
 21
94.5892197074054053
 31
0.0
  0
LINE
  5
FC9D
  8
0
 10
838.4258295117140278
 20
94.2203225588459077
 30
0.0
 11
838.4258295117140278
 21
94.5892197074054053
 31
0.0
  0
LINE
  5
FC9E
  8
0
 10
838.5348388654140308
 20
94.2203225588459077
 30
0.0
 11
838.5348388654140308
 21
94.5892197074054053
 31
0.0
  0
LINE
  5
FC9F
  8
0
 10
838.635037168414101
 20
94.2203225588459077
 30
0.0
 11
838.635037168414101
 21
94.5892197074054053
 31
0.0
  0
LINE
  5
FCA0
  8
0
 10
838.5764324441139479
 20
94.2203227015459106
 30
0.0
 11
838.5764324441139479
 21
94.589219850105394
 31
0.0
  0
LINE
  5
FCA1
  8
0
 10
838.5972897134140567
 20
94.2203226534500971
 30
0.0
 11
838.5972897134140567
 21
94.5892198020095805
 31
0.0
  0
LINE
  5
FCA2
  8
0
 10
838.6059971589140787
 20
94.2203228038787728
 30
0.0
 11
838.6059971589140787
 21
94.5892199524382704
 31
0.0
  0
LINE
  5
FCA3
  8
0
 10
838.6634109927140344
 20
94.2203228132787842
 30
0.0
 11
838.6634109927140344
 21
94.5892199618382676
 31
0.0
  0
LINE
  5
FCA4
  8
0
 10
838.2416928738357456
 20
94.2203226560787783
 30
0.0
 11
838.2416928738357456
 21
94.5892198046382759
 31
0.0
  0
LINE
  5
FCA5
  8
0
 10
838.4950783683663076
 20
94.2203226560787783
 30
0.0
 11
838.4950783683663076
 21
94.5892198046382759
 31
0.0
  0
LINE
  5
FCA6
  8
0
 10
838.512224019349901
 20
94.2203226560787783
 30
0.0
 11
838.512224019349901
 21
94.5892198046382759
 31
0.0
  0
LINE
  5
FCA7
  8
0
 10
838.5555709250545533
 20
94.2203226560787783
 30
0.0
 11
838.5555709250545533
 21
94.5892198046382759
 31
0.0
  0
LINE
  5
FCA8
  8
0
 10
838.6195000777807991
 20
94.2203226560787783
 30
0.0
 11
838.6195000777807991
 21
94.5892198046382759
 31
0.0
  0
LINE
  5
FCA9
  8
0
 10
838.6458814363029433
 20
94.2203226560787783
 30
0.0
 11
838.6458814363029433
 21
94.5892198046382759
 31
0.0
  0
LINE
  5
FCAA
  8
0
 10
838.7005033017748019
 20
94.2203226560787783
 30
0.0
 11
838.7005033017748019
 21
94.5892198046382759
 31
0.0
  0
LINE
  5
FCAB
  8
0
 10
838.7267245680291126
 20
94.2203226560787783
 30
0.0
 11
838.7267245680291126
 21
94.5892198046382759
 31
0.0
  0
LINE
  5
FCAC
  8
0
 10
838.4496714292249635
 20
94.2203226560787783
 30
0.0
 11
838.4496714292249635
 21
94.5892198046382759
 31
0.0
  0
LINE
  5
FCAD
  8
0
 10
838.3578438898036893
 20
94.2203226560787783
 30
0.0
 11
838.3578438898036893
 21
94.5892198046382759
 31
0.0
  0
LINE
  5
FCAE
  8
0
 10
838.3838534956078092
 20
94.2203226560787783
 30
0.0
 11
838.3838534956078092
 21
94.5892198046382759
 31
0.0
  0
LINE
  5
FCAF
  8
0
 10
838.1981072115170264
 20
94.2203226560787783
 30
0.0
 11
838.1981072115170264
 21
94.5892198046382759
 31
0.0
  0
LINE
  5
FCB0
  8
0
 10
838.1550166073759556
 20
94.2203226560787783
 30
0.0
 11
838.1550166073759556
 21
94.5892198046382759
 31
0.0
  0
LINE
  5
FCB1
  8
0
 10
838.1160960989424211
 20
94.2203226560787783
 30
0.0
 11
838.1160960989424211
 21
94.5892198046382759
 31
0.0
  0
ENDSEC
  0
EOF
