  0
SECTION
  2
HEADER
  9
$ACADVER
  1
AC1009
  9
$INSBASE
 10
839.2599368596842169
 20
86.8494594729081939
 30
0.0
  9
$EXTMIN
 10
834.9897337401312143
 20
79.4100306075658011
 30
-0.0000000000000058
  9
$EXTMAX
 10
846.4300378278761627
 20
86.8522771094498438
 30
0.0000000000000104
  9
$LIMMIN
 10
0.0
 20
0.0
  9
$LIMMAX
 10
11.6929133858000007
 20
8.2677165353999982
  9
$ORTHOMODE
 70
     0
  9
$REGENMODE
 70
     1
  9
$FILLMODE
 70
     1
  9
$QTEXTMODE
 70
     0
  9
$MIRRTEXT
 70
     0
  9
$DRAGMODE
 70
     2
  9
$LTSCALE
 40
0.6431102362
  9
$OSMODE
 70
  4095
  9
$ATTMODE
 70
     1
  9
$TEXTSIZE
 40
0.2
  9
$TRACEWID
 40
0.05
  9
$TEXTSTYLE
  7
STANDARD
  9
$CLAYER
  8
0
  9
$CELTYPE
  6
BYLAYER
  9
$CECOLOR
 62
   256
  9
$DIMSCALE
 40
1.0
  9
$DIMASZ
 40
0.1875
  9
$DIMEXO
 40
0.0625
  9
$DIMDLI
 40
0.4443307087
  9
$DIMRND
 40
0.0
  9
$DIMDLE
 40
0.0
  9
$DIMEXE
 40
0.125
  9
$DIMTP
 40
0.01
  9
$DIMTM
 40
0.01
  9
$DIMTXT
 40
1.0
  9
$DIMCEN
 40
0.1052362205
  9
$DIMTSZ
 40
0.0
  9
$DIMTOL
 70
     1
  9
$DIMLIM
 70
     0
  9
$DIMTIH
 70
     0
  9
$DIMTOH
 70
     1
  9
$DIMSE1
 70
     0
  9
$DIMSE2
 70
     0
  9
$DIMTAD
 70
     0
  9
$DIMZIN
 70
     0
  9
$DIMBLK
  1

  9
$DIMASO
 70
     1
  9
$DIMSHO
 70
     1
  9
$DIMPOST
  1
\X
  9
$DIMAPOST
  1

  9
$DIMALT
 70
     1
  9
$DIMALTD
 70
     2
  9
$DIMALTF
 40
25.3999999999999986
  9
$DIMLFAC
 40
1.0
  9
$DIMTOFL
 70
     0
  9
$DIMTVP
 40
0.0
  9
$DIMTIX
 70
     0
  9
$DIMSOXD
 70
     0
  9
$DIMSAH
 70
     0
  9
$DIMBLK1
  1

  9
$DIMBLK2
  1

  9
$DIMSTYLE
  2
STANDARD
  9
$DIMCLRD
 70
     0
  9
$DIMCLRE
 70
     0
  9
$DIMCLRT
 70
     0
  9
$DIMTFAC
 40
1.0
  9
$DIMGAP
 40
0.09
  9
$LUNITS
 70
     2
  9
$LUPREC
 70
     4
  9
$SKETCHINC
 40
0.1
  9
$FILLETRAD
 40
0.02
  9
$AUNITS
 70
     0
  9
$AUPREC
 70
     0
  9
$MENU
  1
.
  9
$ELEVATION
 40
0.0
  9
$PELEVATION
 40
0.0
  9
$THICKNESS
 40
0.0
  9
$LIMCHECK
 70
     0
  9
$BLIPMODE
 70
     0
  9
$CHAMFERA
 40
0.0
  9
$CHAMFERB
 40
0.0
  9
$SKPOLY
 70
     0
  9
$TDCREATE
 40
2458172.5207638889551163
  9
$TDUPDATE
 40
2459145.4334375001490116
  9
$TDINDWG
 40
0.3875122917
  9
$TDUSRTIMER
 40
0.3875122917
  9
$USRTIMER
 70
     1
  9
$ANGBASE
 50
0.0
  9
$ANGDIR
 70
     0
  9
$PDMODE
 70
     0
  9
$PDSIZE
 40
0.3125
  9
$PLINEWID
 40
0.0
  9
$COORDS
 70
     1
  9
$SPLFRAME
 70
     0
  9
$SPLINETYPE
 70
     6
  9
$SPLINESEGS
 70
     8
  9
$ATTDIA
 70
     1
  9
$ATTREQ
 70
     1
  9
$HANDLING
 70
     1
  9
$HANDSEED
  5
F758
  9
$SURFTAB1
 70
     6
  9
$SURFTAB2
 70
     6
  9
$SURFTYPE
 70
     6
  9
$SURFU
 70
     6
  9
$SURFV
 70
     6
  9
$UCSNAME
  2

  9
$UCSORG
 10
0.0
 20
0.0
 30
0.0
  9
$UCSXDIR
 10
1.0
 20
0.0
 30
0.0
  9
$UCSYDIR
 10
0.0
 20
1.0
 30
0.0
  9
$PUCSNAME
  2

  9
$PUCSORG
 10
0.0
 20
0.0
 30
0.0
  9
$PUCSXDIR
 10
1.0
 20
0.0
 30
0.0
  9
$PUCSYDIR
 10
0.0
 20
1.0
 30
0.0
  9
$USERI1
 70
     0
  9
$USERI2
 70
     0
  9
$USERI3
 70
     0
  9
$USERI4
 70
     0
  9
$USERI5
 70
     0
  9
$USERR1
 40
0.0
  9
$USERR2
 40
0.0
  9
$USERR3
 40
0.0
  9
$USERR4
 40
0.0
  9
$USERR5
 40
0.0
  9
$WORLDVIEW
 70
     1
  9
$SHADEDGE
 70
     3
  9
$SHADEDIF
 70
    70
  9
$TILEMODE
 70
     1
  9
$MAXACTVP
 70
    64
  9
$PLIMCHECK
 70
     0
  9
$PEXTMIN
 10
1.0000000000000000E+20
 20
1.0000000000000000E+20
 30
1.0000000000000000E+20
  9
$PEXTMAX
 10
-1.0000000000000000E+20
 20
-1.0000000000000000E+20
 30
-1.0000000000000000E+20
  9
$PLIMMIN
 10
0.0
 20
0.0
  9
$PLIMMAX
 10
12.0
 20
9.0
  9
$UNITMODE
 70
     0
  9
$VISRETAIN
 70
     1
  9
$PLINEGEN
 70
     0
  9
$PSLTSCALE
 70
     1
  0
ENDSEC
  0
SECTION
  2
TABLES
  0
TABLE
  2
VPORT
 70
     1
  0
VPORT
  2
*ACTIVE
 70
     0
 10
0.0
 20
0.0
 11
1.0
 21
1.0
 12
373.9676840761737253
 22
-6.0019932614219584
 13
0.0
 23
0.0
 14
1.0
 24
1.0
 15
0.0
 25
0.0
 16
0.0
 26
0.0
 36
24.1179433675886514
 17
466.74220170783002
 27
89.133147119929788
 37
0.0
 40
7.5301470511189077
 41
2.6055226824457591
 42
50.0
 43
0.0
 44
0.0
 50
0.0
 51
0.0
 71
     0
 72
   100
 73
     1
 74
     1
 75
     0
 76
     0
 77
     0
 78
     0
  0
ENDTAB
  0
TABLE
  2
LTYPE
 70
     2
  0
LTYPE
  2
CONTINUOUS
 70
     0
  3
Solid line
 72
    65
 73
     0
 40
0.0
  0
LTYPE
  2
PHANTOM2
 70
     0
  3
___ _ _ ___ _ _ ___ _ _ ___ _ _
 72
    65
 73
     6
 40
1.25
 49
0.625
 49
-0.125
 49
0.125
 49
-0.125
 49
0.125
 49
-0.125
  0
ENDTAB
  0
TABLE
  2
LAYER
 70
     2
  0
LAYER
  2
0
 70
     0
 62
   255
  6
CONTINUOUS
  0
LAYER
  2
DEFPOINTS
 70
     0
 62
     7
  6
CONTINUOUS
  0
ENDTAB
  0
TABLE
  2
STYLE
 70
     1
  0
STYLE
  2
STANDARD
 70
     0
 40
0.0
 41
0.8
 50
0.0
 71
     0
 42
0.2
  3
txt
  4

  0
ENDTAB
  0
TABLE
  2
VIEW
 70
     0
  0
ENDTAB
  0
TABLE
  2
UCS
 70
     0
  0
ENDTAB
  0
TABLE
  2
APPID
 70
    11
  0
APPID
  2
ACAD
 70
     0
  0
APPID
  2
ACAD_MLEADERVER
 70
     0
  0
APPID
  2
ACAD_EXEMPT_FROM_CAD_STANDARDS
 70
     0
  0
APPID
  2
ACAD_DSTYLE_DIMJAG
 70
     0
  0
APPID
  2
ACAD_DSTYLE_DIMTALN
 70
     0
  0
APPID
  2
ACAD_NAV_VCDISPLAY
 70
     0
  0
APPID
  2
ACAECLAYERSTANDARD
 70
     0
  0
APPID
  2
ACCMTRANSPARENCY
 70
     0
  0
APPID
  2
DCO15
 70
     0
  0
APPID
  2
ACDBATTR
 70
     0
  0
APPID
  2
ACADANNOTATIVE
 70
     0
  0
ENDTAB
  0
TABLE
  2
DIMSTYLE
 70
     1
  0
DIMSTYLE
  2
STANDARD
 70
     0
  3

  4

  5

  6

  7

 40
1.0
 41
0.1875
 42
0.0625
 43
0.38
 44
0.125
 45
0.0
 46
0.0
 47
0.01
 48
0.01
140
0.15625
141
0.09
142
0.0
143
25.3999999999999986
144
1.0
145
0.0
146
1.0
147
0.09
 71
     1
 72
     0
 73
     1
 74
     1
 75
     0
 76
     0
 77
     0
 78
     4
170
     0
171
     2
172
     0
173
     0
174
     0
175
     0
176
     0
177
     0
178
     0
  0
ENDTAB
  0
ENDSEC
  0
SECTION
  2
BLOCKS
  0
BLOCK
  8
0
  2
$MODEL_SPACE
 70
     0
 10
0.0
 20
0.0
 30
0.0
  3
$MODEL_SPACE
  1

  0
ENDBLK
  5
21
  8
0
  0
BLOCK
 67
     1
  8
0
  2
$PAPER_SPACE
 70
     0
 10
0.0
 20
0.0
 30
0.0
  3
$PAPER_SPACE
  1

  0
ENDBLK
  5
1D
 67
     1
  8
0
  0
ENDSEC
  0
SECTION
  2
ENTITIES
  0
ATTDEF
  5
829
  8
DEFPOINTS
 10
839.2561984435507156
 20
86.8461858783617373
 30
0.0
 40
0.001
  1
K-74036T-4E2
  3

  2
MODELNUMBER
 70
     0
1001
ACDBATTR
1070
     0
1070
     1
  0
ATTDEF
  5
82A
  8
DEFPOINTS
 10
839.2561984435507156
 20
86.8445192116950864
 30
0.0
 40
0.001
  1
TAUT
  3

  2
TRADENAME
 70
     0
1001
ACDBATTR
1070
     0
1070
     1
  0
ATTDEF
  5
82B
  8
DEFPOINTS
 10
839.2561984435507156
 20
86.8428525450284212
 30
0.0
 40
0.001
  1
BATH AND SHOWER FAUCET
  3

  2
PRODUCT
 70
     0
1001
ACDBATTR
1070
     0
1070
     1
  0
LINE
  5
F5D5
  8
0
 10
839.3682044894591172
 20
86.7392366931444059
 30
0.0
 11
839.1516689664590558
 21
86.7392366931444059
 31
0.0
  0
ARC
  5
F5D6
  8
0
 10
839.1516689664590558
 20
86.7293933532718739
 30
0.0
 40
0.0098433398725177
 50
90.0
 51
180.7904305597907069
  0
LINE
  5
F5D7
  8
0
 10
839.1418265632590874
 20
86.7292575626443778
 30
0.0
 11
839.1418281174057938
 21
86.5520539178476866
 31
0.0
  0
ARC
  5
F5D8
  8
0
 10
839.1516690829631671
 20
86.5522288207462367
 30
0.0
 40
0.0098425197042987
 50
181.0182072985109016
 51
270.0012823967945792
  0
LINE
  5
F5D9
  8
0
 10
839.151669303259041
 20
86.5423863010443739
 30
0.0
 11
839.3682044391995305
 21
86.542386301044715
 31
0.0
  0
LINE
  5
F5DA
  8
0
 10
838.2988292911680901
 20
86.8494459677719561
 30
0.0
 11
838.3049767850588978
 21
85.8493393483443583
 31
0.0
  0
ARC
  5
F5DB
  8
0
 10
842.4969377426721167
 20
85.8553684159818573
 30
0.0
 40
4.1919652932496687
 50
180.0824053218356937
 51
198.2064301889018907
  0
ARC
  5
F5DC
  8
0
 10
838.5828936219700154
 20
84.5632973396846097
 30
0.0
 40
0.0703159446697855
 50
194.5566219786711031
 51
257.847606922097782
  0
LINE
  5
F5DD
  8
0
 10
838.5680912302589149
 20
84.494557094744394
 30
0.0
 11
838.622352738068912
 21
84.4866743720596247
 31
0.0
  0
ARC
  5
F5DE
  8
0
 10
838.6248924088878312
 20
84.5061955348836165
 30
0.0
 40
0.0196856731118945
 50
262.5875472856907891
 51
353.0848592366399998
  0
LINE
  5
F5DF
  8
0
 10
838.6444348797590465
 20
84.5038253960443768
 30
0.0
 11
838.6447817731311716
 21
84.5407745345398354
 31
0.0
  0
LINE
  5
F5E0
  8
0
 10
839.8497809330094697
 20
85.6391472818442736
 30
0.0
 11
838.6700927865589392
 21
85.639147279944396
 31
0.0
  0
ARC
  5
F5E1
  8
0
 10
838.6700927865906579
 20
85.6194621917235992
 30
0.0
 40
0.019685088220804
 50
90.0000000922676548
 51
179.7003831847987954
  0
LINE
  5
F5E2
  8
0
 10
838.6504079675194134
 20
85.6195651304846734
 30
0.0
 11
838.645293822410963
 21
84.6415951210264126
 31
0.0
  0
LINE
  5
F5E3
  8
0
 10
838.6575745947590121
 20
85.6346542150097036
 30
0.0
 11
838.6575745947590121
 21
84.7719731791740543
 31
0.0
  0
ARC
  5
F5E4
  8
0
 10
839.2600775855296433
 20
85.0381430874831068
 30
0.0
 40
0.5514873682560806
 50
90.014636708234903
 51
173.1918611197895075
  0
ARC
  5
F5E5
  8
0
 10
841.9637649150149628
 20
84.3947839567787952
 30
0.0
 40
3.3276367204437141
 50
167.7026878882493861
 51
176.9208385488346096
  0
ARC
  5
F5E6
  8
0
 10
838.7444953595053221
 20
84.5690966757315437
 30
0.0
 40
0.1036578168267083
 50
177.5487264447953066
 51
206.7699500128433954
  0
ARC
  5
F5E7
  8
0
 10
836.9750772577615407
 20
84.2457063310420153
 30
0.0
 40
1.6995462006103419
 50
3.9560258473730481
 51
9.3699947402780897
  0
ARC
  5
F5E8
  8
0
 10
808.0831897701725666
 20
82.2257335312046536
 30
0.0
 40
30.6619602257060784
 50
2.2408142322272049
 51
3.9969198773660661
  0
ARC
  5
F5E9
  8
0
 10
837.7647445185123161
 20
84.9334917075887716
 30
0.0
 40
1.78675991339144
 50
291.5904508701256077
 51
302.3834797613470755
  0
ARC
  5
F5EA
  8
0
 10
839.056668731629884
 20
81.6713702940082555
 30
0.0
 40
1.721873034762603
 50
111.6210152211900066
 51
137.6434003979071861
  0
ARC
  5
F5EB
  8
0
 10
838.5576522886220801
 20
82.1282807020696879
 30
0.0
 40
1.045277770778698
 50
137.7219192043071132
 51
175.843984186724299
  0
LINE
  5
F5EC
  8
0
 10
837.5151231739589548
 20
82.2040346667443629
 30
0.0
 11
837.494190437684324
 21
81.7575594405344646
 31
0.0
  0
ARC
  5
F5ED
  8
0
 10
838.417328121405717
 20
81.7575673168327768
 30
0.0
 40
0.9231376837550682
 50
180.0004888530237963
 51
195.4075134296797103
  0
ARC
  5
F5EE
  8
0
 10
838.6291707216881832
 20
81.8377248742854846
 30
0.0
 40
1.1488550798216119
 50
196.4545789583175122
 51
228.5226234396276936
  0
ARC
  5
F5EF
  8
0
 10
839.1211592367850471
 20
82.419968856809831
 30
0.0
 40
1.9110141432122281
 50
229.033161882844297
 51
258.3752216941416009
  0
ARC
  5
F5F0
  8
0
 10
839.2651175074907997
 20
82.9841961369407528
 30
0.0
 40
2.4928255492574189
 50
257.7474451063563947
 51
269.8809229025915783
  0
ARC
  5
F5F1
  8
0
 10
838.4943244828426714
 20
82.1765403664386582
 30
0.0
 40
0.9795978351897526
 50
178.424191827518996
 51
219.0974050181505959
  0
ARC
  5
F5F2
  8
0
 10
838.9233795222651224
 20
82.5252019411288558
 30
0.0
 40
1.53245687733223
 50
219.097702943151603
 51
248.295440743967788
  0
ARC
  5
F5F3
  8
0
 10
839.2865306106688195
 20
83.4375490068376422
 30
0.0
 40
2.5144221930721788
 50
248.2954408206807955
 51
269.3939971301869036
  0
ARC
  5
F5F4
  8
0
 10
838.6265826420319627
 20
84.7341208698855155
 30
0.0
 40
0.0208730231215544
 50
250.7995721451653992
 51
336.5676047329326934
  0
LINE
  5
F5F5
  8
0
 10
838.6197180537119493
 20
84.7144089313346313
 30
0.0
 11
838.5304649856589094
 21
84.7330472270443948
 31
0.0
  0
ARC
  5
F5F6
  8
0
 10
838.5377922276866229
 20
84.7884320788805468
 30
0.0
 40
0.0558674349567402
 50
227.9525222908386013
 51
262.4637127417407783
  0
ARC
  5
F5F7
  8
0
 10
840.4244667902646597
 20
85.6295742472726289
 30
0.0
 40
2.116875503007499
 50
193.9839468025967903
 51
204.6421039271010898
  0
LINE
  5
F5F8
  8
0
 10
838.500375226658889
 20
84.7469454747445212
 30
0.0
 11
838.5148348379590288
 21
84.5456243661443665
 31
0.0
  0
LINE
  5
F5F9
  8
0
 10
840.2210444282003436
 20
86.849472978044389
 30
0.0
 11
840.2148966214554093
 21
85.8493393483443583
 31
0.0
  0
ARC
  5
F5FA
  8
0
 10
836.0229356638424179
 20
85.8553684159818573
 30
0.0
 40
4.1919652932496687
 50
341.7935698110979956
 51
359.9175946781625726
  0
ARC
  5
F5FB
  8
0
 10
839.9369797845444054
 20
84.5632973396846097
 30
0.0
 40
0.0703159446697855
 50
282.1523930779018201
 51
345.4433780213287832
  0
LINE
  5
F5FC
  8
0
 10
839.9517821762553922
 20
84.494557094744394
 30
0.0
 11
839.8975206684453951
 21
84.4866743720596247
 31
0.0
  0
ARC
  5
F5FD
  8
0
 10
839.894980997626476
 20
84.5061955348836165
 30
0.0
 40
0.0196856731118945
 50
186.9151407633600002
 51
277.4124527143093246
  0
LINE
  5
F5FE
  8
0
 10
839.8754385267554881
 20
84.5038253960443768
 30
0.0
 11
839.8750916333831356
 21
84.5407745345398354
 31
0.0
  0
ARC
  5
F5FF
  8
0
 10
839.849780616662656
 20
85.6194621903577655
 30
0.0
 40
0.019685091489017
 50
0.2996207408699222
 51
89.9990792351705267
  0
LINE
  5
F600
  8
0
 10
839.8694654389950074
 20
85.6195651304846734
 30
0.0
 11
839.8745795841033441
 21
84.6415951210264126
 31
0.0
  0
LINE
  5
F601
  8
0
 10
839.862298811755295
 20
85.6346542150097036
 30
0.0
 11
839.862298811755295
 21
84.7719731791740543
 31
0.0
  0
ARC
  5
F602
  8
0
 10
839.2597958209848912
 20
85.0381430874831068
 30
0.0
 40
0.5514873682560806
 50
6.8081388802105112
 51
89.985363291765097
  0
ARC
  5
F603
  8
0
 10
836.5561084914994581
 20
84.3947839567787952
 30
0.0
 40
3.3276367204437141
 50
3.0791614511653518
 51
12.2973121117505801
  0
ARC
  5
F604
  8
0
 10
839.775378047008985
 20
84.5690966757315437
 30
0.0
 40
0.1036578168267083
 50
333.2300499871565762
 51
2.4512735552047258
  0
ARC
  5
F605
  8
0
 10
841.5447961487528801
 20
84.2457063310420153
 30
0.0
 40
1.6995462006103419
 50
170.6300052597219121
 51
176.0439741526269017
  0
ARC
  5
F606
  8
0
 10
870.4366836363417406
 20
82.2257335312046536
 30
0.0
 40
30.6619602257060784
 50
176.0030801226338895
 51
177.7591857677728058
  0
ARC
  5
F607
  8
0
 10
840.7551288880019911
 20
84.9334917075887716
 30
0.0
 40
1.78675991339144
 50
237.6165202386526119
 51
248.4095491298681111
  0
ARC
  5
F608
  8
0
 10
839.4632046748846506
 20
81.6713702940082555
 30
0.0
 40
1.721873034762603
 50
42.3565996020927997
 51
68.378984778809965
  0
ARC
  5
F609
  8
0
 10
839.9622211178924545
 20
82.1282807020696879
 30
0.0
 40
1.045277770778698
 50
4.1560158132756841
 51
42.2780807956928584
  0
LINE
  5
F60A
  8
0
 10
841.0047502325553523
 20
82.2040346667443629
 30
0.0
 11
841.0256523042102117
 21
81.7575594405344646
 31
0.0
  0
ARC
  5
F60B
  8
0
 10
840.1042104484033644
 20
81.7572268476486954
 30
0.0
 40
0.9214419158313512
 50
344.5853872970607199
 51
0.020680814210354
  0
ARC
  5
F60C
  8
0
 10
839.8907026848263513
 20
81.8377248742854846
 30
0.0
 40
1.1488550798216119
 50
311.4773765603674178
 51
343.5454210416825163
  0
ARC
  5
F60D
  8
0
 10
839.39871416972926
 20
82.419968856809831
 30
0.0
 40
1.9110141432122281
 50
281.6247783058583991
 51
310.966838117155703
  0
ARC
  5
F60E
  8
0
 10
839.2547558990237349
 20
82.9841961369407528
 30
0.0
 40
2.4928255492574189
 50
270.1190770974084217
 51
282.2525548936370114
  0
ARC
  5
F60F
  8
0
 10
840.0255491955507523
 20
82.1765402161730947
 30
0.0
 40
0.9795975294276846
 50
320.902591774272878
 51
1.575817338168392
  0
ARC
  5
F610
  8
0
 10
839.5964938842494121
 20
82.5252019411288558
 30
0.0
 40
1.53245687733223
 50
291.704559256032212
 51
320.9022970568482833
  0
ARC
  5
F611
  8
0
 10
839.2333427958456014
 20
83.4375490068376422
 30
0.0
 40
2.514422193072186
 50
270.6060028698130964
 51
291.7045591793191761
  0
ARC
  5
F612
  8
0
 10
839.8932907644824581
 20
84.7341208698855155
 30
0.0
 40
0.0208730231215544
 50
203.4323952670673066
 51
289.2004278548345724
  0
LINE
  5
F613
  8
0
 10
839.9001553528024715
 20
84.7144089313346313
 30
0.0
 11
839.9894084208553977
 21
84.7330472270443948
 31
0.0
  0
ARC
  5
F614
  8
0
 10
839.9820811788279116
 20
84.7884320788805468
 30
0.0
 40
0.0558674349567402
 50
277.5362872582526279
 51
312.0474777091613987
  0
ARC
  5
F615
  8
0
 10
838.0954066162497611
 20
85.6295742472726289
 30
0.0
 40
2.116875503007499
 50
335.357896072898825
 51
346.0160531974028117
  0
LINE
  5
F616
  8
0
 10
840.0194981798556455
 20
84.7469454747445212
 30
0.0
 11
840.005038568555392
 21
84.5456243661443665
 31
0.0
  0
ARC
  5
F617
  8
0
 10
839.3682044400552513
 20
86.7293933532718171
 30
0.0
 40
0.0098433398727189
 50
359.2095694406798998
 51
89.9997124318955883
  0
LINE
  5
F618
  8
0
 10
839.3780468432554471
 20
86.7292575626443778
 30
0.0
 11
839.3780452891087407
 21
86.5520539178476866
 31
0.0
  0
ARC
  5
F619
  8
0
 10
839.3682043235547781
 20
86.5522288207447019
 30
0.0
 40
0.0098425197006734
 50
270.0006731969505154
 51
358.9817927100885981
  0
LINE
  5
F61A
  8
0
 10
838.2988292911680901
 20
86.8494459677719561
 30
0.0
 11
840.2210444282003436
 21
86.849472978044389
 31
0.0
  0
LINE
  5
F61B
  8
0
 10
837.5866935526341877
 20
86.8494594729581451
 30
0.0
 11
835.0276679765156587
 21
86.8494594729581451
 31
0.0
  0
LINE
  5
F61C
  8
0
 10
837.6063935526342448
 20
86.7077513841575467
 30
0.0
 11
837.6063935526342448
 21
86.8297594729581448
 31
0.0
  0
LINE
  5
F61D
  8
0
 10
835.6901457407917633
 20
86.0787414518467955
 30
0.0
 11
835.0836446112507474
 21
86.5525920667660245
 31
0.0
  0
LINE
  5
F61E
  8
0
 10
836.9242161675764464
 20
86.0787414518467955
 30
0.0
 11
837.530717297117576
 21
86.5525920667660245
 31
0.0
  0
LINE
  5
F61F
  8
0
 10
836.875763609471619
 20
86.0620578981581872
 30
0.0
 11
835.7385982988967044
 21
86.0620578981581872
 31
0.0
  0
ARC
  5
F620
  8
0
 10
836.875763609471619
 20
86.1407578981581565
 30
0.0
 40
0.0787
 50
270.0
 51
307.999999996981785
  0
ARC
  5
F621
  8
0
 10
835.7385982988967044
 20
86.1407578981581565
 30
0.0
 40
0.0787
 50
232.0000000030109959
 51
270.0
  0
ARC
  5
F622
  8
0
 10
837.4094935526342169
 20
86.7077513841575893
 30
0.0
 40
0.1969
 50
307.9999999969891178
 51
359.9999999999919282
  0
ARC
  5
F623
  8
0
 10
837.5866935526341877
 20
86.8297594729581448
 30
0.0
 40
0.0197
 50
359.9999999999575948
 51
90.0
  0
LINE
  5
F624
  8
0
 10
836.8217478833341829
 20
86.0030016959978667
 30
0.0
 11
836.8217478833341829
 21
86.0620578981581872
 31
0.0
  0
LINE
  5
F625
  8
0
 10
835.7926140250341405
 20
86.0620578981581872
 30
0.0
 11
835.7926140250341405
 21
86.0030016959978667
 31
0.0
  0
LINE
  5
F626
  8
0
 10
836.8977323485322586
 20
85.9833016196063937
 30
0.0
 11
836.8977322774361483
 21
85.4321504385081454
 31
0.0
  0
LINE
  5
F627
  8
0
 10
835.7166299863322365
 20
85.9833017720893338
 30
0.0
 11
835.7166299152360125
 21
85.4321505908876162
 31
0.0
  0
LINE
  5
F628
  8
0
 10
835.7363299126948277
 20
85.4124505883460188
 30
0.0
 11
836.8780322748948493
 21
85.4124504410497281
 31
0.0
  0
LINE
  5
F629
  8
0
 10
836.8780323510734434
 20
86.0030016221496965
 30
0.0
 11
835.7363299888735355
 21
86.0030017695460174
 31
0.0
  0
LINE
  5
F62A
  8
0
 10
836.8780323510734434
 20
86.0030016221497107
 30
0.0
 11
836.8977323485322586
 21
85.9833016196063937
 31
0.0
  0
LINE
  5
F62B
  8
0
 10
835.7363299888735355
 20
86.0030017695460174
 30
0.0
 11
835.7166299863322365
 21
85.9833017720893338
 31
0.0
  0
LINE
  5
F62C
  8
0
 10
835.7166299152360125
 20
85.4321505908876162
 30
0.0
 11
835.7363299126948277
 21
85.4124505883460188
 31
0.0
  0
LINE
  5
F62D
  8
0
 10
836.8780322748948493
 20
85.4124504410497281
 30
0.0
 11
836.8977322774361483
 21
85.4321504385081454
 31
0.0
  0
ARC
  5
F62E
  8
0
 10
836.0119054174125495
 20
85.505950194986454
 30
0.0
 40
0.4773659637438083
 50
66.5671811824329893
 51
113.4328243891848018
  0
ARC
  5
F62F
  8
0
 10
836.6024567942756676
 20
85.5055400824425504
 30
0.0
 40
0.4777422110132039
 50
66.5867626790258242
 51
113.4132481268845964
  0
LINE
  5
F630
  8
0
 10
835.8220695754987446
 20
85.9439463324876414
 30
0.0
 11
835.7166299812555508
 21
85.9439463324876414
 31
0.0
  0
LINE
  5
F631
  8
0
 10
836.2017412167342627
 20
85.9439463509478543
 30
0.0
 11
836.4126211080340454
 21
85.9439463237450951
 31
0.0
  0
LINE
  5
F632
  8
0
 10
836.7922923978342169
 20
85.9439463595478657
 30
0.0
 11
836.8977323434555728
 21
85.943946331570487
 31
0.0
  0
ARC
  5
F633
  8
0
 10
836.0119054174125495
 20
85.9095018631280851
 30
0.0
 40
0.4773659637438086
 50
246.5671756108152977
 51
293.4328188175671244
  0
ARC
  5
F634
  8
0
 10
836.6024567942756676
 20
85.9099119756719745
 30
0.0
 40
0.4777422110132039
 50
246.5867518731153041
 51
293.413237320967994
  0
LINE
  5
F635
  8
0
 10
835.8220695754987446
 20
85.4715057256268977
 30
0.0
 11
835.7166299812555508
 21
85.4715057256268977
 31
0.0
  0
LINE
  5
F636
  8
0
 10
836.2017412167342627
 20
85.4715057071666848
 30
0.0
 11
836.4126211080340454
 21
85.471505734369444
 31
0.0
  0
LINE
  5
F637
  8
0
 10
836.7922923978342169
 20
85.4715056985666592
 30
0.0
 11
836.8977323434555728
 21
85.4715057265440379
 31
0.0
  0
LINE
  5
F638
  8
0
 10
836.7922923978342169
 20
85.9439463595478657
 30
0.0
 11
836.7922923978342169
 21
85.4715056985666592
 31
0.0
  0
LINE
  5
F639
  8
0
 10
836.4126211080340454
 20
85.471505734369444
 30
0.0
 11
836.4126211080340454
 21
85.9439463237450951
 31
0.0
  0
LINE
  5
F63A
  8
0
 10
836.2017412167342627
 20
85.9439463509478543
 30
0.0
 11
836.2017412167342627
 21
85.4715057071666848
 31
0.0
  0
LINE
  5
F63B
  8
0
 10
835.8220695754987446
 20
85.4715057256268977
 30
0.0
 11
835.8220695754987446
 21
85.9439463324876414
 31
0.0
  0
LINE
  5
F63C
  8
0
 10
835.7363137796423871
 20
85.3258347674294839
 30
0.0
 11
838.3385525831588438
 21
85.3258347674294839
 31
0.0
  0
LINE
  5
F63D
  8
0
 10
835.8859212457342664
 20
85.3258347674294839
 30
0.0
 11
835.8859212457342664
 21
85.4124505690465554
 31
0.0
  0
LINE
  5
F63E
  8
0
 10
836.7284409307341093
 20
85.3258347674294839
 30
0.0
 11
836.7284409307341093
 21
85.4124504603492056
 31
0.0
  0
LINE
  5
F63F
  8
0
 10
837.0009228744424945
 20
85.3455280893107471
 30
0.0
 11
838.3360921722252215
 21
85.3455280893107471
 31
0.0
  0
LINE
  5
F640
  8
0
 10
837.4883540211080799
 20
85.3652137963107549
 30
0.0
 11
837.7245744865080042
 21
85.3652137963107549
 31
0.0
  0
LINE
  5
F641
  8
0
 10
837.7245744865080042
 20
85.3652137963107549
 30
0.0
 11
837.7245744865080042
 21
85.3455286724107367
 31
0.0
  0
LINE
  5
F642
  8
0
 10
837.4883540211080799
 20
85.3455286724107367
 30
0.0
 11
837.4883540211080799
 21
85.3652137963107549
 31
0.0
  0
ARC
  5
F643
  8
0
 10
837.0031168032256801
 20
85.3261460006780936
 30
0.0
 40
0.0195058627916284
 50
96.4580285287178754
 51
180.9142435033460004
  0
LINE
  5
F644
  8
0
 10
835.0079679765154879
 20
86.7077516804356065
 30
0.0
 11
835.0079679765154879
 21
86.8297594729581448
 31
0.0
  0
ARC
  5
F645
  8
0
 10
835.2048679765183579
 20
86.707751680436246
 30
0.0
 40
0.1969000000028427
 50
180.0000000001880949
 51
232.0001400367607118
  0
ARC
  5
F646
  8
0
 10
835.0276679765156587
 20
86.8297594729581448
 30
0.0
 40
0.0197
 50
90.0
 51
180.0
  0
LINE
  5
F647
  8
0
 10
835.7363137796423871
 20
85.3258347674294839
 30
0.0
 11
835.7363137796423871
 21
84.1727712967493886
 31
0.0
  0
LINE
  5
F648
  8
0
 10
835.767813779642438
 20
84.1412712967493945
 30
0.0
 11
837.5482504454895434
 21
84.1412712967493945
 31
0.0
  0
ARC
  5
F649
  8
0
 10
835.767813779642438
 20
84.1727712967493886
 30
0.0
 40
0.0315
 50
179.999999999980389
 51
270.0
  0
ARC
  5
F64A
  8
0
 10
327.3117758803441006
 20
50.592320582700971
 30
0.0
 40
512.0990297180443349
 50
3.6563273026726231
 51
3.6648675397862132
  0
ARC
  5
F64B
  8
0
 10
837.4923810927016348
 20
83.2700935184864335
 30
0.0
 40
0.8729674140081444
 50
3.6648675397862132
 51
86.3305991375749642
  0
LINE
  5
F64C
  8
0
 10
838.4929812565661678
 20
83.3018721926737413
 30
0.0
 11
838.4331900025340474
 21
84.3063366864042507
 31
0.0
  0
LINE
  5
F64D
  8
0
 10
838.7244815713255548
 20
79.4144201313581561
 30
0.0
 11
839.7953921480426516
 21
79.4144201313581561
 31
0.0
  0
LINE
  5
F64E
  8
0
 10
838.6066223012323917
 20
79.5249833911402106
 30
0.0
 11
838.5378687984466524
 21
80.6001481733082557
 31
0.0
  0
ARC
  5
F64F
  8
0
 10
838.7244815713255548
 20
79.5325201313581545
 30
0.0
 40
0.1181
 50
183.6589081165240032
 51
270.0
  0
ARC
  5
F650
  8
0
 10
839.3815937915289851
 20
84.2955491008170981
 30
0.0
 40
0.9484651385173815
 50
159.9210211648743893
 51
179.3483192718383918
  0
LINE
  5
F651
  8
0
 10
840.9331801667342461
 20
86.8494594729581451
 30
0.0
 11
843.4922057428526614
 21
86.8494594729581451
 31
0.0
  0
LINE
  5
F652
  8
0
 10
840.913480166734189
 20
86.7077513841575467
 30
0.0
 11
840.913480166734189
 21
86.8297594729581448
 31
0.0
  0
LINE
  5
F653
  8
0
 10
843.0471317972275074
 20
86.2485959304880367
 30
0.0
 11
843.4362291081176863
 21
86.5525920667660245
 31
0.0
  0
LINE
  5
F654
  8
0
 10
841.5956575517918736
 20
86.0787414518467955
 30
0.0
 11
840.9891564222506304
 21
86.5525920667660245
 31
0.0
  0
LINE
  5
F655
  8
0
 10
841.6441101098968147
 20
86.0620578981581872
 30
0.0
 11
841.9958185069814363
 21
86.0620578981581872
 31
0.0
  0
ARC
  5
F656
  8
0
 10
841.6441101098968147
 20
86.1407578981581565
 30
0.0
 40
0.0787
 50
232.0000000030181866
 51
270.0
  0
ARC
  5
F657
  8
0
 10
841.1103801667342168
 20
86.7077513841575893
 30
0.0
 40
0.1969
 50
180.0000000000081002
 51
232.0000000030109959
  0
ARC
  5
F658
  8
0
 10
840.9331801667342461
 20
86.8297594729581448
 30
0.0
 40
0.0197
 50
90.0
 51
180.0000000000422915
  0
LINE
  5
F659
  8
0
 10
841.6981258360342508
 20
86.0030016959978667
 30
0.0
 11
841.6981258360342508
 21
86.0620578981581872
 31
0.0
  0
LINE
  5
F65A
  8
0
 10
841.6221413708359478
 20
85.9833016196063937
 30
0.0
 11
841.6221413714213213
 21
85.9787646961722913
 31
0.0
  0
LINE
  5
F65B
  8
0
 10
841.6221414387656523
 20
85.4566988048184157
 30
0.0
 11
841.6221414419321718
 21
85.4321504385081454
 31
0.0
  0
LINE
  5
F65C
  8
0
 10
842.8032437699077946
 20
85.697465132035191
 30
0.0
 11
842.8032438041324212
 21
85.4321505908876162
 31
0.0
  0
LINE
  5
F65D
  8
0
 10
842.783543806673606
 20
85.4124505883460188
 30
0.0
 11
841.6418414444735845
 21
85.4124504410497281
 31
0.0
  0
LINE
  5
F65E
  8
0
 10
841.6418413682948767
 20
86.0030016221496965
 30
0.0
 11
841.7267781575375238
 21
86.0030016331152041
 31
0.0
  0
LINE
  5
F65F
  8
0
 10
841.6418413682948767
 20
86.0030016221497107
 30
0.0
 11
841.6221413708359478
 21
85.9833016196063937
 31
0.0
  0
LINE
  5
F660
  8
0
 10
842.8032438041324212
 20
85.4321505908876162
 30
0.0
 11
842.783543806673606
 21
85.4124505883460188
 31
0.0
  0
LINE
  5
F661
  8
0
 10
841.6418414444735845
 20
85.4124504410497281
 30
0.0
 11
841.6221414419321718
 21
85.4321504385081454
 31
0.0
  0
ARC
  5
F662
  8
0
 10
842.5079683019558843
 20
85.9095018631280851
 30
0.0
 40
0.4773659637438086
 50
246.5671811824329041
 51
293.4328243891845887
  0
ARC
  5
F663
  8
0
 10
841.9174169250926525
 20
85.9099119756719745
 30
0.0
 40
0.4777422110132039
 50
246.5867626790316933
 51
293.4132481268846959
  0
LINE
  5
F664
  8
0
 10
842.6978041438695755
 20
85.4715057256268977
 30
0.0
 11
842.8032437381127693
 21
85.4715057256268977
 31
0.0
  0
LINE
  5
F665
  8
0
 10
842.3181325026340573
 20
85.4715057071666848
 30
0.0
 11
842.1072526113342747
 21
85.471505734369444
 31
0.0
  0
LINE
  5
F666
  8
0
 10
841.7275813215342168
 20
85.4715056985666592
 30
0.0
 11
841.6853071825476036
 21
85.4715057097836564
 31
0.0
  0
LINE
  5
F667
  8
0
 10
841.7275813215342168
 20
85.4812919766156369
 30
0.0
 11
841.7275813215342168
 21
85.4715056985666592
 31
0.0
  0
LINE
  5
F668
  8
0
 10
842.1072526113342747
 20
85.471505734369444
 30
0.0
 11
842.1072526113342747
 21
85.5647758944791974
 31
0.0
  0
LINE
  5
F669
  8
0
 10
842.3181325026340573
 20
85.6077429272663011
 30
0.0
 11
842.3181325026340573
 21
85.4715057071666848
 31
0.0
  0
LINE
  5
F66A
  8
0
 10
842.6978041438695755
 20
85.4715057256268977
 30
0.0
 11
842.6978041438695755
 21
85.6790389232222935
 31
0.0
  0
LINE
  5
F66B
  8
0
 10
842.7835599397260467
 20
85.3258347674294839
 30
0.0
 11
841.1002218343265895
 21
85.3258347674294839
 31
0.0
  0
LINE
  5
F66C
  8
0
 10
842.6339524736340536
 20
85.3258347674294839
 30
0.0
 11
842.6339524736340536
 21
85.4124505690465554
 31
0.0
  0
LINE
  5
F66D
  8
0
 10
841.7914327886340971
 20
85.3258347674294839
 30
0.0
 11
841.7914327886340971
 21
85.4124504603492056
 31
0.0
  0
LINE
  5
F66E
  8
0
 10
841.5189508449257119
 20
85.3455280893107471
 30
0.0
 11
841.1750179513585408
 21
85.3455280893107471
 31
0.0
  0
ARC
  5
F66F
  8
0
 10
841.5167569161427537
 20
85.3261460006780936
 30
0.0
 40
0.0195058627916284
 50
359.0857564966540281
 51
83.5419714712821104
  0
LINE
  5
F670
  8
0
 10
843.5119057428527185
 20
86.7077516804356065
 30
0.0
 11
843.5119057428527185
 21
86.8297594729581448
 31
0.0
  0
ARC
  5
F671
  8
0
 10
843.3150057428499622
 20
86.707751680436246
 30
0.0
 40
0.1969000000028497
 50
307.9998599632402261
 51
359.999999999809404
  0
ARC
  5
F672
  8
0
 10
843.4922057428526614
 20
86.8297594729581448
 30
0.0
 40
0.0197
 50
0.0
 51
90.0
  0
LINE
  5
F673
  8
0
 10
842.7835599397260467
 20
85.3258347674294839
 30
0.0
 11
842.7835599397260467
 21
84.1727712967493886
 31
0.0
  0
LINE
  5
F674
  8
0
 10
842.7520599397259957
 20
84.1412712967493945
 30
0.0
 11
840.9716232738788904
 21
84.1412712967493945
 31
0.0
  0
ARC
  5
F675
  8
0
 10
842.7520599397259957
 20
84.1727712967493886
 30
0.0
 40
0.0315
 50
270.0
 51
0.0000000000195413
  0
ARC
  5
F676
  8
0
 10
841.0274926266665716
 20
83.2700935184864335
 30
0.0
 40
0.8729674140081444
 50
93.6694008624250642
 51
181.4339169172397987
  0
ARC
  5
F677
  8
0
 10
846.117319706637204
 20
66.4225588834125915
 30
0.0
 40
19.5577378601820584
 50
98.0930100979751529
 51
107.8097573420497071
  0
ARC
  5
F678
  8
0
 10
844.329559932265397
 20
78.9950089203435226
 30
0.0
 40
6.8588172390431721
 50
85.9163203660284154
 51
98.0930100979751529
  0
ARC
  5
F679
  8
0
 10
844.697214307543959
 20
84.1446200908547439
 30
0.0
 40
1.696098483666765
 50
53.2030032981701666
 51
85.9163203660284154
  0
ARC
  5
F67A
  8
0
 10
844.1668724594976538
 20
85.026536169785345
 30
0.0
 40
1.716425278134825
 50
346.4693052651404059
 51
356.9060346155334855
  0
ARC
  5
F67B
  8
0
 10
844.8478610419741699
 20
84.9386485298201706
 30
0.0
 40
1.0329457067978121
 50
359.7362978816976806
 51
33.1033374540343814
  0
ARC
  5
F67C
  8
0
 10
842.2872634911809655
 20
85.8145639609783331
 30
0.0
 40
3.7424968497897022
 50
304.1924593021823853
 51
341.4660672370068824
  0
ARC
  5
F67D
  8
0
 10
841.5004545426326104
 20
87.2295633547520168
 30
0.0
 40
5.357032617063286
 50
264.8464273665841802
 51
302.6480549741992832
  0
ARC
  5
F67E
  8
0
 10
841.4359246599734661
 20
87.9705686389042825
 30
0.0
 40
6.5979539553707651
 50
265.7676020081943875
 51
289.9346207568621026
  0
ARC
  5
F67F
  8
0
 10
842.2290525114210595
 20
85.7837067175392605
 30
0.0
 40
4.2717087292911549
 50
289.9346207568621026
 51
319.2455527855129844
  0
ARC
  5
F680
  8
0
 10
842.0895344047758044
 20
85.9039420799531825
 30
0.0
 40
4.4558875675345773
 50
319.2455527855129844
 51
342.0512611744346145
  0
ARC
  5
F681
  8
0
 10
842.7635031767454166
 20
85.2313617596110618
 30
0.0
 40
3.63324533489785
 50
348.8824325551166226
 51
355.8042132120850738
  0
ARC
  5
F682
  8
0
 10
833.6398829266141774
 20
84.3120547782998244
 30
0.0
 40
12.7638673315246507
 50
2.9346971553547472
 51
4.5067842193440564
  0
ARC
  5
F683
  8
0
 10
845.2214941866642448
 20
85.0567735568987047
 30
0.0
 40
1.1716027081984051
 50
12.7329360181943603
 51
66.2437345527405057
  0
ARC
  5
F684
  8
0
 10
844.3470572774614311
 20
82.5707993128151116
 30
0.0
 40
3.8045178965593758
 50
69.2740471409210414
 51
96.5305539554209986
  0
ARC
  5
F685
  8
0
 10
845.4192456241048603
 20
69.8237264827863982
 30
0.0
 40
16.59527825562758
 50
95.2028248730916147
 51
108.3097628348310053
  0
LINE
  5
F686
  8
0
 10
839.9132514181358147
 20
79.5249833911402106
 30
0.0
 11
839.982004920921554
 21
80.6001481733082557
 31
0.0
  0
ARC
  5
F687
  8
0
 10
839.7953921480426516
 20
79.5325201313581545
 30
0.0
 40
0.1181
 50
270.0
 51
356.3410918834759968
  0
LINE
  5
F688
  8
0
 10
840.0268924628021523
 20
83.3018721926737413
 30
0.0
 11
840.086683716834159
 21
84.3063366864042507
 31
0.0
  0
ARC
  5
F689
  8
0
 10
839.1382799278392213
 20
84.2955491008170981
 30
0.0
 40
0.9484651385173815
 50
0.6516807281616344
 51
20.0789788351254295
  0
LINE
  5
F68B
  8
0
 10
840.9891564222506304
 20
86.5525920667660245
 30
0.0
 11
843.4362291081176863
 21
86.5525920667660245
 31
0.0
  0
LINE
  5
F68C
  8
0
 10
837.530717297117576
 20
86.5525920667660245
 30
0.0
 11
835.0836446112507474
 21
86.5525920667660245
 31
0.0
  0
LINE
  5
F68D
  8
0
 10
839.1615107633341495
 20
86.5423863010443881
 30
0.0
 11
839.1615107633341495
 21
86.7392366931444059
 31
0.0
  0
LINE
  5
F68E
  8
0
 10
839.35836115703421
 20
86.542386301044715
 30
0.0
 11
839.35836115703421
 21
86.7392366931444059
 31
0.0
  0
LINE
  5
F68F
  8
0
 10
839.35836115703421
 20
86.723446904958152
 30
0.0
 11
839.1615107633341495
 21
86.723446904958152
 31
0.0
  0
LINE
  5
F690
  8
0
 10
839.35836115703421
 20
86.7165048363581263
 30
0.0
 11
839.1615107633341495
 21
86.7165048363581263
 31
0.0
  0
LINE
  5
F691
  8
0
 10
839.35836115703421
 20
86.6735344317581422
 30
0.0
 11
839.1615107633341495
 21
86.6735344317581422
 31
0.0
  0
LINE
  5
F692
  8
0
 10
839.35836115703421
 20
86.5642722662581434
 30
0.0
 11
839.1615107633341495
 21
86.5642722662581434
 31
0.0
  0
ENDSEC
  0
EOF
