  0
SECTION
  2
HEADER
  9
$ACADVER
  1
AC1009
  9
$INSBASE
 10
828.5803939353091891
 20
92.610638093497414
 30
0.0
  9
$EXTMIN
 10
821.1407861897869225
 20
85.9480478302660345
 30
-0.0000000349181948
  9
$EXTMAX
 10
828.6007587821463858
 20
119.3833191412338977
 30
0.0000000814935746
  9
$LIMMIN
 10
0.0
 20
0.0
  9
$LIMMAX
 10
11.6929133858000007
 20
8.2677165353999982
  9
$ORTHOMODE
 70
     0
  9
$REGENMODE
 70
     1
  9
$FILLMODE
 70
     1
  9
$QTEXTMODE
 70
     0
  9
$MIRRTEXT
 70
     0
  9
$DRAGMODE
 70
     2
  9
$LTSCALE
 40
0.6431102362
  9
$OSMODE
 70
  4095
  9
$ATTMODE
 70
     1
  9
$TEXTSIZE
 40
0.2
  9
$TRACEWID
 40
0.05
  9
$TEXTSTYLE
  7
STANDARD
  9
$CLAYER
  8
0
  9
$CELTYPE
  6
BYLAYER
  9
$CECOLOR
 62
   256
  9
$DIMSCALE
 40
1.0
  9
$DIMASZ
 40
0.1875
  9
$DIMEXO
 40
0.0625
  9
$DIMDLI
 40
0.4443307087
  9
$DIMRND
 40
0.0
  9
$DIMDLE
 40
0.0
  9
$DIMEXE
 40
0.125
  9
$DIMTP
 40
0.01
  9
$DIMTM
 40
0.01
  9
$DIMTXT
 40
1.0
  9
$DIMCEN
 40
0.1052362205
  9
$DIMTSZ
 40
0.0
  9
$DIMTOL
 70
     1
  9
$DIMLIM
 70
     0
  9
$DIMTIH
 70
     0
  9
$DIMTOH
 70
     1
  9
$DIMSE1
 70
     0
  9
$DIMSE2
 70
     0
  9
$DIMTAD
 70
     0
  9
$DIMZIN
 70
     0
  9
$DIMBLK
  1

  9
$DIMASO
 70
     1
  9
$DIMSHO
 70
     1
  9
$DIMPOST
  1
\X
  9
$DIMAPOST
  1

  9
$DIMALT
 70
     1
  9
$DIMALTD
 70
     2
  9
$DIMALTF
 40
25.3999999999999986
  9
$DIMLFAC
 40
1.0
  9
$DIMTOFL
 70
     0
  9
$DIMTVP
 40
0.0
  9
$DIMTIX
 70
     0
  9
$DIMSOXD
 70
     0
  9
$DIMSAH
 70
     0
  9
$DIMBLK1
  1

  9
$DIMBLK2
  1

  9
$DIMSTYLE
  2
STANDARD
  9
$DIMCLRD
 70
     0
  9
$DIMCLRE
 70
     0
  9
$DIMCLRT
 70
     0
  9
$DIMTFAC
 40
1.0
  9
$DIMGAP
 40
0.09
  9
$LUNITS
 70
     2
  9
$LUPREC
 70
     4
  9
$SKETCHINC
 40
0.1
  9
$FILLETRAD
 40
0.02
  9
$AUNITS
 70
     0
  9
$AUPREC
 70
     0
  9
$MENU
  1
.
  9
$ELEVATION
 40
0.0
  9
$PELEVATION
 40
0.0
  9
$THICKNESS
 40
0.0
  9
$LIMCHECK
 70
     0
  9
$BLIPMODE
 70
     0
  9
$CHAMFERA
 40
0.0
  9
$CHAMFERB
 40
0.0
  9
$SKPOLY
 70
     0
  9
$TDCREATE
 40
2458172.5207638889551163
  9
$TDUPDATE
 40
2459145.4462152780033648
  9
$TDINDWG
 40
0.3877784954
  9
$TDUSRTIMER
 40
0.3877784954
  9
$USRTIMER
 70
     1
  9
$ANGBASE
 50
0.0
  9
$ANGDIR
 70
     0
  9
$PDMODE
 70
     0
  9
$PDSIZE
 40
0.3125
  9
$PLINEWID
 40
0.0
  9
$COORDS
 70
     1
  9
$SPLFRAME
 70
     0
  9
$SPLINETYPE
 70
     6
  9
$SPLINESEGS
 70
     8
  9
$ATTDIA
 70
     1
  9
$ATTREQ
 70
     1
  9
$HANDLING
 70
     1
  9
$HANDSEED
  5
1003E
  9
$SURFTAB1
 70
     6
  9
$SURFTAB2
 70
     6
  9
$SURFTYPE
 70
     6
  9
$SURFU
 70
     6
  9
$SURFV
 70
     6
  9
$UCSNAME
  2

  9
$UCSORG
 10
0.0
 20
0.0
 30
0.0
  9
$UCSXDIR
 10
1.0
 20
0.0
 30
0.0
  9
$UCSYDIR
 10
0.0
 20
1.0
 30
0.0
  9
$PUCSNAME
  2

  9
$PUCSORG
 10
0.0
 20
0.0
 30
0.0
  9
$PUCSXDIR
 10
1.0
 20
0.0
 30
0.0
  9
$PUCSYDIR
 10
0.0
 20
1.0
 30
0.0
  9
$USERI1
 70
     0
  9
$USERI2
 70
     0
  9
$USERI3
 70
     0
  9
$USERI4
 70
     0
  9
$USERI5
 70
     0
  9
$USERR1
 40
0.0
  9
$USERR2
 40
0.0
  9
$USERR3
 40
0.0
  9
$USERR4
 40
0.0
  9
$USERR5
 40
0.0
  9
$WORLDVIEW
 70
     1
  9
$SHADEDGE
 70
     3
  9
$SHADEDIF
 70
    70
  9
$TILEMODE
 70
     1
  9
$MAXACTVP
 70
    64
  9
$PLIMCHECK
 70
     0
  9
$PEXTMIN
 10
1.0000000000000000E+20
 20
1.0000000000000000E+20
 30
1.0000000000000000E+20
  9
$PEXTMAX
 10
-1.0000000000000000E+20
 20
-1.0000000000000000E+20
 30
-1.0000000000000000E+20
  9
$PLIMMIN
 10
0.0
 20
0.0
  9
$PLIMMAX
 10
12.0
 20
9.0
  9
$UNITMODE
 70
     0
  9
$VISRETAIN
 70
     1
  9
$PLINEGEN
 70
     0
  9
$PSLTSCALE
 70
     1
  0
ENDSEC
  0
SECTION
  2
TABLES
  0
TABLE
  2
VPORT
 70
     1
  0
VPORT
  2
*ACTIVE
 70
     0
 10
0.0
 20
0.0
 11
1.0
 21
1.0
 12
358.1285707781365772
 22
13.5325363658201905
 13
0.0
 23
0.0
 14
1.0
 24
1.0
 15
0.0
 25
0.0
 16
0.0
 26
0.0
 36
24.1179433675886514
 17
466.74220170783002
 27
89.133147119929788
 37
0.0
 40
33.8301760902312907
 41
2.6055226824457591
 42
50.0
 43
0.0
 44
0.0
 50
0.0
 51
0.0
 71
     0
 72
   100
 73
     1
 74
     1
 75
     0
 76
     0
 77
     0
 78
     0
  0
ENDTAB
  0
TABLE
  2
LTYPE
 70
     2
  0
LTYPE
  2
CONTINUOUS
 70
     0
  3
Solid line
 72
    65
 73
     0
 40
0.0
  0
LTYPE
  2
PHANTOM2
 70
     0
  3
___ _ _ ___ _ _ ___ _ _ ___ _ _
 72
    65
 73
     6
 40
1.25
 49
0.625
 49
-0.125
 49
0.125
 49
-0.125
 49
0.125
 49
-0.125
  0
ENDTAB
  0
TABLE
  2
LAYER
 70
     2
  0
LAYER
  2
0
 70
     0
 62
   255
  6
CONTINUOUS
  0
LAYER
  2
DEFPOINTS
 70
     0
 62
     7
  6
CONTINUOUS
  0
ENDTAB
  0
TABLE
  2
STYLE
 70
     1
  0
STYLE
  2
STANDARD
 70
     0
 40
0.0
 41
0.8
 50
0.0
 71
     0
 42
0.2
  3
txt
  4

  0
ENDTAB
  0
TABLE
  2
VIEW
 70
     0
  0
ENDTAB
  0
TABLE
  2
UCS
 70
     0
  0
ENDTAB
  0
TABLE
  2
APPID
 70
    11
  0
APPID
  2
ACAD
 70
     0
  0
APPID
  2
ACAD_MLEADERVER
 70
     0
  0
APPID
  2
ACAD_EXEMPT_FROM_CAD_STANDARDS
 70
     0
  0
APPID
  2
ACAD_DSTYLE_DIMJAG
 70
     0
  0
APPID
  2
ACAD_DSTYLE_DIMTALN
 70
     0
  0
APPID
  2
ACAD_NAV_VCDISPLAY
 70
     0
  0
APPID
  2
ACAECLAYERSTANDARD
 70
     0
  0
APPID
  2
ACCMTRANSPARENCY
 70
     0
  0
APPID
  2
DCO15
 70
     0
  0
APPID
  2
ACDBATTR
 70
     0
  0
APPID
  2
ACADANNOTATIVE
 70
     0
  0
ENDTAB
  0
TABLE
  2
DIMSTYLE
 70
     1
  0
DIMSTYLE
  2
STANDARD
 70
     0
  3

  4

  5

  6

  7

 40
1.0
 41
0.1875
 42
0.0625
 43
0.38
 44
0.125
 45
0.0
 46
0.0
 47
0.01
 48
0.01
140
0.15625
141
0.09
142
0.0
143
25.3999999999999986
144
1.0
145
0.0
146
1.0
147
0.09
 71
     1
 72
     0
 73
     1
 74
     1
 75
     0
 76
     0
 77
     0
 78
     4
170
     0
171
     2
172
     0
173
     0
174
     0
175
     0
176
     0
177
     0
178
     0
  0
ENDTAB
  0
ENDSEC
  0
SECTION
  2
BLOCKS
  0
BLOCK
  8
0
  2
$MODEL_SPACE
 70
     0
 10
0.0
 20
0.0
 30
0.0
  3
$MODEL_SPACE
  1

  0
ENDBLK
  5
21
  8
0
  0
BLOCK
 67
     1
  8
0
  2
$PAPER_SPACE
 70
     0
 10
0.0
 20
0.0
 30
0.0
  3
$PAPER_SPACE
  1

  0
ENDBLK
  5
1D
 67
     1
  8
0
  0
ENDSEC
  0
SECTION
  2
ENTITIES
  0
ATTDEF
  5
829
  8
DEFPOINTS
 10
828.5825451951675404
 20
92.6109450335584938
 30
0.0
 40
0.001
  1
K-74036T-4
  3

  2
MODELNUMBER
 70
     0
1001
ACDBATTR
1070
     0
1070
     1
  0
ATTDEF
  5
82A
  8
DEFPOINTS
 10
828.5825451951675404
 20
92.6092783668918145
 30
0.0
 40
0.001
  1
TAUT
  3

  2
TRADENAME
 70
     0
1001
ACDBATTR
1070
     0
1070
     1
  0
ATTDEF
  5
82B
  8
DEFPOINTS
 10
828.5825451951675404
 20
92.6076117002251635
 30
0.0
 40
0.001
  1
BATH AND SHOWER FAUCET
  3

  2
PRODUCT
 70
     0
1001
ACDBATTR
1070
     0
1070
     1
  0
LINE
  5
FC31
  8
0
 10
828.5803939396607802
 20
109.6267943157098017
 30
0.0
 11
828.5803935351607379
 21
111.8848179561097993
 31
0.0
  0
LINE
  5
FC32
  8
0
 10
828.5803935351607379
 20
111.8848179561097993
 30
0.0
 11
828.4701572989606575
 21
111.8826907757098041
 31
0.0
  0
LINE
  5
FC33
  8
0
 10
828.4701572989606575
 20
111.8826907757098041
 30
0.0
 11
828.4701572996606274
 21
111.8787783948097996
 31
0.0
  0
LINE
  5
FC34
  8
0
 10
828.4701572996606274
 20
111.8787783948097996
 30
0.0
 11
828.2733069075607091
 21
111.8703355664098069
 31
0.0
  0
LINE
  5
FC35
  8
0
 10
828.2733069075607091
 20
111.8703355664098069
 30
0.0
 11
828.2733069847606657
 21
111.8742331113098061
 31
0.0
  0
ARC
  5
FC36
  8
0
 10
829.0740571679240247
 20
98.4087152150338227
 30
0.0
 40
13.4893058780192696
 50
93.4031843069283667
 51
97.1839257361060049
  0
ARC
  5
FC37
  8
0
 10
827.3897596446666967
 20
111.7726091178879955
 30
0.0
 40
0.0196917771208168
 50
97.6052936031478566
 51
179.9798737365636043
  0
LINE
  5
FC38
  8
0
 10
827.3700678687606569
 20
111.7726160350098041
 30
0.0
 11
827.3700678851606654
 21
111.6858032895837027
 31
0.0
  0
ARC
  5
FC39
  8
0
 10
827.3397796653260912
 20
111.7575155320924978
 30
0.0
 40
0.0778461430172318
 50
276.0623441862859977
 51
292.8971405921574274
  0
ARC
  5
FC3A
  8
0
 10
828.1841239846582994
 20
105.5002580559053058
 30
0.0
 40
6.2361531890938968
 50
97.7052342962423239
 51
105.9711917442101026
  0
ARC
  5
FC3B
  8
0
 10
826.4861158118774256
 20
111.4393347814671955
 30
0.0
 40
0.0591344156111774
 50
107.6140818541668978
 51
134.6288148061277923
  0
ARC
  5
FC3C
  8
0
 10
827.0013799789329596
 20
110.9284813978669035
 30
0.0
 40
0.784712622077446
 50
135.1997548671812126
 51
233.934633047477206
  0
ARC
  5
FC3D
  8
0
 10
826.5750944707123153
 20
110.3441953546576997
 30
0.0
 40
0.0614528302521954
 50
234.5055731085350885
 51
261.693299856881481
  0
ARC
  5
FC3E
  8
0
 10
826.2396581679585097
 20
107.1531850527637033
 30
0.0
 40
3.147190155169926
 50
52.4310988501492972
 51
84.044167124184014
  0
ARC
  5
FC3F
  8
0
 10
828.1958066502938891
 20
109.7004962895815936
 30
0.0
 40
0.0646089808048346
 50
234.7819661174488033
 51
267.3399728287031962
  0
LINE
  5
FC40
  8
0
 10
828.1928081761607245
 20
109.635956925209797
 30
0.0
 11
828.5803939396607802
 21
109.6267943157098017
 31
0.0
  0
ARC
  5
FC41
  8
0
 10
828.3517420846496861
 20
94.1747889245921783
 30
0.0
 40
17.3595911181875096
 50
89.2453079424154652
 51
96.1968341059400558
  0
ARC
  5
FC42
  8
0
 10
825.8669214607908771
 20
111.0489319918044941
 30
0.0
 40
0.7216139551172921
 50
32.1515759429196919
 51
36.8221511611031431
  0
LINE
  5
FC43
  8
0
 10
822.2410656169762433
 20
118.9748963357029936
 30
0.0
 11
822.6542057738452058
 21
119.3601558259037034
 31
0.0
  0
ARC
  5
FC44
  8
0
 10
822.6944797654182366
 20
119.3169672643727068
 30
0.0
 40
0.0590529105491513
 50
55.7932777118975878
 51
133.0000045390461878
  0
ARC
  5
FC45
  8
0
 10
817.8846303125900477
 20
111.0561681245705046
 30
0.0
 40
9.6179610880677853
 50
49.4914391774703972
 51
59.7653818694561778
  0
ARC
  5
FC46
  8
0
 10
817.1226477923929679
 20
110.219441771980101
 30
0.0
 40
10.7491459644413698
 50
34.6814146250332414
 51
49.3004194995243665
  0
ARC
  5
FC47
  8
0
 10
819.3747218534147123
 20
111.8989827540364956
 30
0.0
 40
7.9421460907074044
 50
0.5859004917618861
 51
33.9623210178589972
  0
ARC
  5
FC48
  8
0
 10
827.2574263597837216
 20
111.9781897430623019
 30
0.0
 40
0.0590604525986579
 50
290.4554367099711953
 51
1.947532835504443
  0
LINE
  5
FC49
  8
0
 10
827.2780667331761606
 20
111.9228533893030004
 30
0.0
 11
827.2200180775738545
 21
111.9025804972497014
 31
0.0
  0
LINE
  5
FC4A
  8
0
 10
827.2200180775738545
 20
111.9025804972497014
 30
0.0
 11
826.87094742177635
 21
111.8935066157030036
 31
0.0
  0
ARC
  5
FC4B
  8
0
 10
826.8232652420617796
 20
113.5481744901714052
 30
0.0
 40
1.655354755048057
 50
253.3521436182406035
 51
271.6506223723700941
  0
ARC
  5
FC4C
  8
0
 10
826.3189366601892516
 20
111.8615846202820023
 30
0.0
 40
0.1050238143816554
 50
73.3521436182406035
 51
90.0770692410519587
  0
ARC
  5
FC4D
  8
0
 10
826.3188224596101463
 20
111.9464849925902001
 30
0.0
 40
0.020123365267149
 50
90.077069241058453
 51
121.3088549481900031
  0
ARC
  5
FC4E
  8
0
 10
826.3101917805074663
 20
111.9606750252079053
 30
0.0
 40
0.0035147636564664
 50
121.308854948196597
 51
184.428158762180999
  0
LINE
  5
FC4F
  8
0
 10
826.3066875086761911
 20
111.960403653702997
 30
0.0
 11
826.3053555314812684
 21
111.8840445436755999
 31
0.0
  0
LINE
  5
FC50
  8
0
 10
826.3053555314812684
 20
111.8840445436755999
 30
0.0
 11
826.2580118182880824
 21
111.8965577195994996
 31
0.0
  0
ARC
  5
FC51
  8
0
 10
826.2759857023023642
 20
111.9530929111443953
 30
0.0
 40
0.0593235904980282
 50
187.7423199270031091
 51
252.3633000653329077
  0
LINE
  5
FC52
  8
0
 10
826.2172029077762545
 20
111.9451009491029936
 30
0.0
 11
826.2014416090991062
 21
112.0453628730887061
 31
0.0
  0
ARC
  5
FC53
  8
0
 10
826.2846647032214378
 20
112.057638249887205
 30
0.0
 40
0.0841235298286914
 50
181.5645569320427057
 51
188.3906070790905005
  0
ARC
  5
FC54
  8
0
 10
818.8004680125382038
 20
111.973374175621899
 30
0.0
 40
7.4005584633317909
 50
0.6346105058401874
 51
13.4419467065410707
  0
ARC
  5
FC55
  8
0
 10
818.8502709714003913
 20
111.9691467138822958
 30
0.0
 40
7.353119262036464
 50
13.5641949128639201
 51
35.5246586699199725
  0
ARC
  5
FC56
  8
0
 10
822.9706013737978765
 20
114.9635693250751984
 30
0.0
 40
2.2602129932103132
 50
34.4364349146235114
 51
46.4777348138067481
  0
LINE
  5
FC57
  8
0
 10
824.5270663234762196
 20
116.6024651836030017
 30
0.0
 11
822.2395944968715185
 21
118.8899606810402929
 31
0.0
  0
ARC
  5
FC58
  8
0
 10
822.2813601681566524
 20
118.9317178501471943
 30
0.0
 40
0.0590595671311896
 50
133.0212584056802996
 51
224.9941675962330976
  0
LINE
  5
FC59
  8
0
 10
822.6542800202380477
 20
119.360050443829806
 30
0.0
 11
824.8358903410761513
 21
117.1999877560029972
 31
0.0
  0
ARC
  5
FC5A
  8
0
 10
823.2702361248962006
 20
115.6187154086162963
 30
0.0
 40
2.225240517618829
 50
38.3648743935169776
 51
45.2843554296450819
  0
ARC
  5
FC5B
  8
0
 10
826.6244447868252792
 20
111.4766750630112
 30
0.0
 40
0.1887892948790717
 50
90.5629424269567664
 51
125.2525918345127991
  0
LINE
  5
FC5C
  8
0
 10
826.5154789792816246
 20
111.6308433173546035
 30
0.0
 11
826.4281319487695328
 21
111.5621875301961978
 31
0.0
  0
ARC
  5
FC5D
  8
0
 10
826.4499901280823906
 20
111.534843819428005
 30
0.0
 40
0.0350065496935732
 50
128.6383505107073972
 51
183.2318771735880887
  0
LINE
  5
FC5E
  8
0
 10
826.4150392544606802
 20
111.5328702555098062
 30
0.0
 11
826.4150392700203156
 21
111.4499969511530963
 31
0.0
  0
ARC
  5
FC5F
  8
0
 10
827.0054742592783441
 20
110.9179568404080953
 30
0.0
 40
0.7199318545642654
 50
85.1816547245630602
 51
119.3658495453502013
  0
LINE
  5
FC60
  8
0
 10
826.3053555314812684
 20
111.8840445436755999
 30
0.0
 11
826.3301344253108027
 21
111.8773028977598045
 31
0.0
  0
LINE
  5
FC61
  8
0
 10
826.3301344253108027
 20
111.8773028977598045
 30
0.0
 11
826.5914123357131302
 21
111.8841329672062983
 31
0.0
  0
LINE
  5
FC62
  8
0
 10
826.5914123357131302
 20
111.8841329672062983
 30
0.0
 11
826.87094742177635
 21
111.8935066157030036
 31
0.0
  0
ARC
  5
FC63
  8
0
 10
830.667226770229945
 20
120.9981824564364956
 30
0.0
 40
6.9234712031466419
 50
215.2751872379793099
 51
218.8745325154758916
  0
ARC
  5
FC64
  8
0
 10
826.2952091578421232
 20
115.4196454222391992
 30
0.0
 40
1.599169866346706
 50
116.4756339999837991
 51
129.5400023835935883
  0
LINE
  5
FC65
  8
0
 10
822.6541201740873248
 20
118.2515156387458006
 30
0.0
 11
822.5762016935683505
 21
118.3294341193647057
 31
0.0
  0
LINE
  5
FC66
  8
0
 10
822.4706688815891766
 20
118.2901913145813069
 30
0.0
 11
822.5939173398988942
 21
118.1669428563717048
 31
0.0
  0
LINE
  5
FC67
  8
0
 10
822.469289109740771
 20
118.3165189298904068
 30
0.0
 11
822.5025755150054465
 21
118.3576242170462933
 31
0.0
  0
LINE
  5
FC68
  8
0
 10
822.5142460609132513
 20
118.2698364276792944
 30
0.0
 11
822.5458606135712216
 21
118.3142934106117963
 31
0.0
  0
LINE
  5
FC69
  8
0
 10
822.6202449552022244
 20
118.1655630845390021
 30
0.0
 11
822.6345996982215638
 21
118.1771873262614037
 31
0.0
  0
LINE
  5
FC6A
  8
0
 10
822.5748219217305177
 20
118.3557617346542941
 30
0.0
 11
822.6110915514975659
 21
118.4005509972897983
 31
0.0
  0
LINE
  5
FC6B
  8
0
 10
822.6804477893573448
 20
118.2501358668594946
 30
0.0
 11
822.697964164652717
 21
118.2643203478323954
 31
0.0
  0
ARC
  5
FC6C
  8
0
 10
822.6680501776855863
 20
118.2654456423262985
 30
0.0
 40
0.0197
 50
224.9999999632258891
 51
308.9999998797525222
  0
ARC
  5
FC6D
  8
0
 10
822.5901316971667256
 20
118.3433641229451041
 30
0.0
 40
0.0197
 50
140.9999999796322072
 51
224.9999999632348135
  0
ARC
  5
FC6E
  8
0
 10
822.5303005617378176
 20
118.2584196416485014
 30
0.0
 40
0.0197
 50
144.5823471627226127
 51
225.0000000232689104
  0
ARC
  5
FC6F
  8
0
 10
822.6078473434826037
 20
118.1808728599667973
 30
0.0
 40
0.0197
 50
225.0000000232573996
 51
309.0000000594803851
  0
ARC
  5
FC70
  8
0
 10
822.4698846929792353
 20
118.2146909923663998
 30
0.0
 40
0.2334166196368558
 50
12.2760141118655906
 51
52.7743014622054929
  0
ARC
  5
FC71
  8
0
 10
822.0282881235560808
 20
117.8820349806501042
 30
0.0
 40
0.6743356973297017
 50
25.9568091575257611
 51
39.8674512110950801
  0
ARC
  5
FC72
  8
0
 10
822.4845988851728862
 20
118.3041213181762998
 30
0.0
 40
0.0197
 50
140.9999999612186912
 51
225.0000000232780906
  0
LINE
  5
FC73
  8
0
 10
822.2785876183836535
 20
118.6270481947869939
 30
0.0
 11
822.3867081508967658
 21
118.5189276622736969
 31
0.0
  0
LINE
  5
FC74
  8
0
 10
822.2772078465369532
 20
118.6533758100857057
 30
0.0
 11
822.3162822456854428
 21
118.7016286744506033
 31
0.0
  0
LINE
  5
FC75
  8
0
 10
822.3118312281919771
 20
118.6187524284302981
 30
0.0
 11
822.3515047155300408
 21
118.6677451050978931
 31
0.0
  0
LINE
  5
FC76
  8
0
 10
822.5189677145801852
 20
118.4116159419400987
 30
0.0
 11
822.5318532477970166
 21
118.4220504409274071
 31
0.0
  0
LINE
  5
FC77
  8
0
 10
822.4133418469330081
 20
118.5172418096808968
 30
0.0
 11
822.4504807797108015
 21
118.5631045721598014
 31
0.0
  0
ARC
  5
FC78
  8
0
 10
822.241967674216653
 20
118.3488173406667983
 30
0.0
 40
0.2989928640349144
 50
14.1778507711056392
 51
45.7824319320359976
  0
ARC
  5
FC79
  8
0
 10
821.7366409538566359
 20
118.2494293808761938
 30
0.0
 40
0.7436702834928229
 50
22.280006787468519
 51
34.2289771946542487
  0
ARC
  5
FC7A
  8
0
 10
822.327141003628185
 20
118.6063548167210939
 30
0.0
 40
0.0197
 50
140.9999999793913901
 51
225.0000000000158025
  0
ARC
  5
FC7B
  8
0
 10
822.2925176219730474
 20
118.6409781983763025
 30
0.0
 40
0.0197
 50
140.9999999785989075
 51
224.9999999999718057
  0
ARC
  5
FC7C
  8
0
 10
822.4006381544861597
 20
118.532857665863105
 30
0.0
 40
0.0197
 50
224.999999999983288
 51
320.9999999968759994
  0
LINE
  5
FC7D
  8
0
 10
822.4147216187836875
 20
118.4909141943870026
 30
0.0
 11
822.4926400993380184
 21
118.4129957138326006
 31
0.0
  0
ARC
  5
FC7E
  8
0
 10
822.428651622372854
 20
118.5048441979763965
 30
0.0
 40
0.0197
 50
140.9999999968528925
 51
225.0000000000086118
  0
ARC
  5
FC7F
  8
0
 10
822.5065701029274123
 20
118.4269257174219945
 30
0.0
 40
0.0197
 50
224.9999999999996874
 51
308.9999998099149252
  0
LINE
  5
FC80
  8
0
 10
823.2947056307834828
 20
117.6109301824869959
 30
0.0
 11
823.3726241113380411
 21
117.533011701932594
 31
0.0
  0
LINE
  5
FC81
  8
0
 10
823.3175010864850947
 20
117.6671117175806955
 30
0.0
 11
823.2933258589248453
 21
117.637257797770701
 31
0.0
  0
LINE
  5
FC82
  8
0
 10
823.4300106734983729
 20
117.5567829693112003
 30
0.0
 11
823.3989517266215898
 21
117.5316319300738002
 31
0.0
  0
ARC
  5
FC83
  8
0
 10
823.2890546636982663
 20
117.5255718609521978
 30
0.0
 40
0.1443701145795074
 50
12.4852429353784693
 51
78.636187689539824
  0
ARC
  5
FC84
  8
0
 10
823.3086356343728767
 20
117.624860186076404
 30
0.0
 40
0.0197
 50
141.0000000347889113
 51
224.999999999983288
  0
ARC
  5
FC85
  8
0
 10
823.3865541149272076
 20
117.5469417055220021
 30
0.0
 40
0.0197
 50
225.0000000000158025
 51
308.9999999651599865
  0
LINE
  5
FC86
  8
0
 10
823.1719363037835819
 20
117.4881608554869956
 30
0.0
 11
823.2498547843380265
 21
117.4102423749325936
 31
0.0
  0
LINE
  5
FC87
  8
0
 10
823.1947317594850801
 20
117.5443423905806952
 30
0.0
 11
823.1705565319249445
 21
117.5144884707707007
 31
0.0
  0
LINE
  5
FC88
  8
0
 10
823.3033713213040983
 20
117.431859212859905
 30
0.0
 11
823.276182399621689
 21
117.4088626030737998
 31
0.0
  0
ARC
  5
FC89
  8
0
 10
822.9750137651202522
 20
117.223427057335698
 30
0.0
 40
0.3889249904021436
 50
32.4062334133591676
 51
55.6021053573656232
  0
ARC
  5
FC8A
  8
0
 10
823.1858663073729758
 20
117.5020908590764037
 30
0.0
 40
0.0197
 50
141.0000000347889113
 51
224.999999999983288
  0
ARC
  5
FC8B
  8
0
 10
823.2637847879274204
 20
117.4241723785220017
 30
0.0
 40
0.0197
 50
225.0000000000158025
 51
308.9999999651599865
  0
LINE
  5
FC8C
  8
0
 10
823.091795353483576
 20
117.6690648427869945
 30
0.0
 11
823.169713834037907
 21
117.5911463622326067
 31
0.0
  0
LINE
  5
FC8D
  8
0
 10
823.1145908091851879
 20
117.7252463778806941
 30
0.0
 11
823.0904155816247112
 21
117.6953924580706996
 31
0.0
  0
LINE
  5
FC8E
  8
0
 10
823.2271003961984661
 20
117.6149176296111989
 30
0.0
 11
823.1960414493216831
 21
117.5897665903737987
 31
0.0
  0
ARC
  5
FC8F
  8
0
 10
823.0060574975660757
 20
117.5020365763917027
 30
0.0
 40
0.2481976938080239
 50
27.0522589672788314
 51
64.0691716576348114
  0
ARC
  5
FC90
  8
0
 10
823.1057253570729699
 20
117.6829948463764026
 30
0.0
 40
0.0197
 50
141.0000000347889113
 51
224.999999999983288
  0
ARC
  5
FC91
  8
0
 10
823.1836438376273009
 20
117.6050763658220006
 30
0.0
 40
0.0197
 50
225.0000000000158025
 51
308.9999999651599865
  0
LINE
  5
FC92
  8
0
 10
823.0330204439835597
 20
117.5719557929869978
 30
0.0
 11
823.1109389245380044
 21
117.4940373124325959
 31
0.0
  0
LINE
  5
FC93
  8
0
 10
823.055815899685058
 20
117.6281373280806974
 30
0.0
 11
823.0316406721248086
 21
117.5982834082707029
 31
0.0
  0
LINE
  5
FC94
  8
0
 10
823.1683254866985635
 20
117.5178085798112022
 30
0.0
 11
823.1372665398217805
 21
117.4926575405738021
 31
0.0
  0
ARC
  5
FC95
  8
0
 10
823.0273694768983432
 20
117.4865974714521997
 30
0.0
 40
0.1443701145795074
 50
12.4852429353784693
 51
78.636187689539824
  0
ARC
  5
FC96
  8
0
 10
823.0469504475730673
 20
117.5858857965764059
 30
0.0
 40
0.0197
 50
141.0000000347889113
 51
224.999999999983288
  0
ARC
  5
FC97
  8
0
 10
823.1248689281273982
 20
117.507967316022004
 30
0.0
 40
0.0197
 50
225.0000000000158025
 51
308.9999999651599865
  0
LINE
  5
FC98
  8
0
 10
823.0317149370836205
 20
117.8739208761370065
 30
0.0
 11
823.1096334176379514
 21
117.7960023955826045
 31
0.0
  0
LINE
  5
FC99
  8
0
 10
823.0586501141419831
 20
117.9348184817218055
 30
0.0
 11
823.0303351652247557
 21
117.9002484914207969
 31
0.0
  0
LINE
  5
FC9A
  8
0
 10
823.1670199797985106
 20
117.8197736629611967
 30
0.0
 11
823.1359610329217276
 21
117.7946226237237966
 31
0.0
  0
ARC
  5
FC9B
  8
0
 10
823.0079908479197002
 20
117.7785349817652047
 30
0.0
 40
0.1642890550609234
 50
14.5374617352666498
 51
72.0399082046531731
  0
ARC
  5
FC9C
  8
0
 10
823.0456449406730144
 20
117.8878508797264004
 30
0.0
 40
0.0197
 50
141.0000000347889113
 51
224.999999999983288
  0
ARC
  5
FC9D
  8
0
 10
823.1235634212273453
 20
117.8099323991719984
 30
0.0
 40
0.0197
 50
225.0000000000158025
 51
308.9999999651599865
  0
LINE
  5
FC9E
  8
0
 10
822.9283460426836427
 20
117.7317511165870059
 30
0.0
 11
823.00626452323786
 21
117.6538326360326039
 31
0.0
  0
LINE
  5
FC9F
  8
0
 10
822.9511414983852546
 20
117.7879326516807055
 30
0.0
 11
822.9269662708246642
 21
117.7580787318706967
 31
0.0
  0
LINE
  5
FCA0
  8
0
 10
823.0555508199297492
 20
117.6710444377780931
 30
0.0
 11
823.0325921385217498
 21
117.6524528641737959
 31
0.0
  0
ARC
  5
FCA1
  8
0
 10
822.7592998800150781
 20
117.5114964514286982
 30
0.0
 40
0.336482063932679
 50
28.3049910853139899
 51
55.2400660857269372
  0
ARC
  5
FCA2
  8
0
 10
822.9422760462730366
 20
117.7456811201763998
 30
0.0
 40
0.0197
 50
141.0000000347889113
 51
224.999999999983288
  0
ARC
  5
FCA3
  8
0
 10
823.0201945268272539
 20
117.6677626396219978
 30
0.0
 40
0.0197
 50
225.0000000000158025
 51
308.9999999651599865
  0
LINE
  5
FCA4
  8
0
 10
822.7866462972834825
 20
118.1189895159869963
 30
0.0
 11
822.8645647778380408
 21
118.0410710354325943
 31
0.0
  0
LINE
  5
FCA5
  8
0
 10
822.8161662214108674
 20
118.1834743464600024
 30
0.0
 11
822.785266525424845
 21
118.1453171312707013
 31
0.0
  0
LINE
  5
FCA6
  8
0
 10
822.9114155526333434
 20
118.0581072725014025
 30
0.0
 11
822.8908923931215895
 21
118.0396912635738005
 31
0.0
  0
ARC
  5
FCA7
  8
0
 10
822.7717017142357463
 20
118.050824814074204
 30
0.0
 40
0.1399035054615399
 50
2.9837907943084381
 51
71.4686991543244403
  0
ARC
  5
FCA8
  8
0
 10
822.8005763008728763
 20
118.1329195195764044
 30
0.0
 40
0.0197
 50
141.0000000347889113
 51
224.999999999983288
  0
ARC
  5
FCA9
  8
0
 10
822.8784947814272073
 20
118.0550010390220024
 30
0.0
 40
0.0197
 50
225.0000000000158025
 51
308.9999999651599865
  0
LINE
  5
FCAA
  8
0
 10
822.8464930279335476
 20
117.9143671682870007
 30
0.0
 11
822.9244115084878786
 21
117.8364486877325987
 31
0.0
  0
LINE
  5
FCAB
  8
0
 10
822.8692884836351595
 20
117.9705487033807003
 30
0.0
 11
822.8451132560746828
 21
117.9406947835707058
 31
0.0
  0
LINE
  5
FCAC
  8
0
 10
822.9817980706485514
 20
117.8602199551112051
 30
0.0
 11
822.9507391237716547
 21
117.8350689158738049
 31
0.0
  0
ARC
  5
FCAD
  8
0
 10
822.8408420608484448
 20
117.8290088467522025
 30
0.0
 40
0.1443701145795074
 50
12.4852429353784693
 51
78.636187689539824
  0
ARC
  5
FCAE
  8
0
 10
822.8604230315230552
 20
117.9282971718763946
 30
0.0
 40
0.0197
 50
141.0000000347889113
 51
224.999999999983288
  0
ARC
  5
FCAF
  8
0
 10
822.9383415120772725
 20
117.8503786913220068
 30
0.0
 40
0.0197
 50
225.0000000000158025
 51
308.9999999651599865
  0
LINE
  5
FCB0
  8
0
 10
822.6844607631614963
 20
117.9756363961090955
 30
0.0
 11
822.8279446416379415
 21
117.8321525176325935
 31
0.0
  0
LINE
  5
FCB1
  8
0
 10
822.7775890284948446
 20
117.9698634989317014
 30
0.0
 11
822.7486463892247457
 21
117.9363986134708
 31
0.0
  0
LINE
  5
FCB2
  8
0
 10
822.8734461966936351
 20
117.8462994960353996
 30
0.0
 11
822.8542722569217176
 21
117.8307727457737997
 31
0.0
  0
ARC
  5
FCB3
  8
0
 10
822.3325145829385292
 20
117.5256248496846041
 30
0.0
 40
0.6288395976493827
 50
30.66027620638339
 51
44.9461521625590592
  0
ARC
  5
FCB4
  8
0
 10
822.7639561646730044
 20
117.9240010017764035
 30
0.0
 40
0.0197
 50
141.0000000347889113
 51
224.999999999983288
  0
ARC
  5
FCB5
  8
0
 10
822.8418746452273353
 20
117.8460825212220016
 30
0.0
 40
0.0197
 50
225.0000000000158025
 51
308.9999999651599865
  0
LINE
  5
FCB6
  8
0
 10
822.7120382445765472
 20
118.0377232411663044
 30
0.0
 11
822.6830809913026314
 21
118.0019640113929
 31
0.0
  0
ARC
  5
FCB7
  8
0
 10
822.6983907667508902
 20
117.9895663996985036
 30
0.0
 40
0.0197
 50
141.0000000347889113
 51
224.9999999999996874
  0
LINE
  5
FCB8
  8
0
 10
822.6465200689335688
 20
118.1143401272869937
 30
0.0
 11
822.7244385494881271
 21
118.036421646732606
 31
0.0
  0
LINE
  5
FCB9
  8
0
 10
822.6760399930608401
 20
118.1788249577599998
 30
0.0
 11
822.6451402970749314
 21
118.1406677425706988
 31
0.0
  0
LINE
  5
FCBA
  8
0
 10
822.7670232260791181
 20
118.0496297937563952
 30
0.0
 11
822.7507661647716759
 21
118.035041874873798
 31
0.0
  0
ARC
  5
FCBB
  8
0
 10
822.4808690468320265
 20
117.9447453506898995
 30
0.0
 40
0.3047703409090871
 50
20.1294627815719096
 51
50.1793212536387685
  0
ARC
  5
FCBC
  8
0
 10
822.6604500725229627
 20
118.1282701308764018
 30
0.0
 40
0.0197
 50
141.0000000347889113
 51
224.999999999983288
  0
ARC
  5
FCBD
  8
0
 10
822.7383685530774073
 20
118.0503516503219998
 30
0.0
 40
0.0197
 50
225.0000000000158025
 51
308.9999999651599865
  0
LINE
  5
FCBE
  8
0
 10
822.92166504538352
 20
117.6833111915868955
 30
0.0
 11
822.9995835259379646
 21
117.605392711032593
 31
0.0
  0
LINE
  5
FCBF
  8
0
 10
823.0259111411793356
 20
117.6040129391394942
 30
0.0
 11
823.0456841497018559
 21
117.6200248056187974
 31
0.0
  0
LINE
  5
FCC0
  8
0
 10
822.9202852735638771
 20
117.7096388069190027
 30
0.0
 11
822.9337861538109564
 21
117.7263110054598059
 31
0.0
  0
ARC
  5
FCC1
  8
0
 10
822.9355950489729139
 20
117.6972411951763036
 30
0.0
 40
0.0197
 50
140.9999998541121897
 51
224.9999999999924967
  0
ARC
  5
FCC2
  8
0
 10
823.0135135295273585
 20
117.6193227146220011
 30
0.0
 40
0.0197
 50
225.0000000000273985
 51
308.9999998067701767
  0
ARC
  5
FCC3
  8
0
 10
826.1362366363759975
 20
120.4159217444875054
 30
0.0
 40
4.167559761498687
 50
218.5300767864628995
 51
219.6325590408775952
  0
ARC
  5
FCC4
  8
0
 10
826.1362366363759975
 20
120.4159217444875054
 30
0.0
 40
4.167559761498687
 50
221.6166182195628096
 51
222.1728801591804938
  0
ARC
  5
FCC5
  8
0
 10
826.1362366363759975
 20
120.4159217444875054
 30
0.0
 40
4.167559761498687
 50
224.2935106154644131
 51
226.5095327514665939
  0
ARC
  5
FCC6
  8
0
 10
826.7891648146339776
 20
120.9358441123021066
 30
0.0
 40
5.0022060785200599
 50
210.6991937433010946
 51
211.7777298158682981
  0
ARC
  5
FCC7
  8
0
 10
826.7891648146339776
 20
120.9358441123021066
 30
0.0
 40
5.0022060785200599
 50
213.600869945575198
 51
214.0172702266457065
  0
ARC
  5
FCC8
  8
0
 10
826.7891648146339776
 20
120.9358441123021066
 30
0.0
 40
5.0022060785200599
 50
214.8810110566163871
 51
216.5116554386339089
  0
ARC
  5
FCC9
  8
0
 10
826.7891648146339776
 20
120.9358441123021066
 30
0.0
 40
5.0022060785200599
 50
218.2759159500241992
 51
218.5300767864628995
  0
ARC
  5
FCCA
  8
0
 10
826.1335012160642464
 20
120.5465520353650959
 30
0.0
 40
4.2396819309316598
 50
203.7458092090062962
 51
206.5204286719421987
  0
ARC
  5
FCCB
  8
0
 10
826.1335012160642464
 20
120.5465520353650959
 30
0.0
 40
4.2396819309316598
 50
208.6098547140476001
 51
208.6252197288644084
  0
ARC
  5
FCCC
  8
0
 10
826.1335012160642464
 20
120.5465520353650959
 30
0.0
 40
4.2396819309316598
 50
209.3812562133840061
 51
210.6991937433010946
  0
ARC
  5
FCCD
  8
0
 10
822.2959673605155331
 20
118.8583317486309028
 30
0.0
 40
0.0472179979890088
 50
189.5755785045462005
 51
203.7458092090062962
  0
ARC
  5
FCCE
  8
0
 10
822.2686283275779715
 20
118.8537196826902971
 30
0.0
 40
0.0194926688802118
 50
132.6971898108558889
 51
189.5755785045462005
  0
LINE
  5
FCCF
  8
0
 10
822.2554098907901334
 20
118.8680457801716983
 30
0.0
 11
822.258566042439611
 21
118.8709889391541026
 31
0.0
  0
LINE
  5
FCD0
  8
0
 10
824.0132095670483068
 20
116.8924262446877975
 30
0.0
 11
824.0911280476042293
 21
116.814507764105997
 31
0.0
  0
LINE
  5
FCD1
  8
0
 10
824.0518852427355796
 20
116.7089749521584991
 30
0.0
 11
823.9286367846256098
 21
116.8322234105675932
 31
0.0
  0
LINE
  5
FCD2
  8
0
 10
824.078212858043571
 20
116.7075951802887062
 30
0.0
 11
824.1193181452263161
 21
116.7408815855202988
 31
0.0
  0
LINE
  5
FCD3
  8
0
 10
824.0315303558687674
 20
116.7525521314990016
 30
0.0
 11
824.0759873388268488
 21
116.7841666841209047
 31
0.0
  0
LINE
  5
FCD4
  8
0
 10
823.927257012813925
 20
116.8585510258720035
 30
0.0
 11
823.9388812545480505
 21
116.8729057688821058
 31
0.0
  0
LINE
  5
FCD5
  8
0
 10
824.1174556628925529
 20
116.8131279922468053
 30
0.0
 11
824.1622449255576157
 21
116.8493976219779
 31
0.0
  0
LINE
  5
FCD6
  8
0
 10
824.0118297951831892
 20
116.9187538599587981
 30
0.0
 11
824.0260142761701445
 21
116.9362702352428016
 31
0.0
  0
ARC
  5
FCD7
  8
0
 10
824.0271395706398607
 20
116.9063562482749035
 30
0.0
 40
0.0197
 50
141.0000000739975974
 51
224.9999999905207062
  0
ARC
  5
FCD8
  8
0
 10
824.105058051195897
 20
116.828437767693103
 30
0.0
 40
0.0197
 50
224.9999999905134871
 51
308.9999999741201009
  0
ARC
  5
FCD9
  8
0
 10
824.0201135698508779
 20
116.7686066323328049
 30
0.0
 40
0.0197
 50
224.9999999304777134
 51
305.4176527910258869
  0
ARC
  5
FCDA
  8
0
 10
823.9425667882319431
 20
116.8461534141401046
 30
0.0
 40
0.0197
 50
140.9999998942687967
 51
224.9999999304938001
  0
ARC
  5
FCDB
  8
0
 10
823.9763849205199904
 20
116.7081907636093945
 30
0.0
 40
0.2334166196368558
 50
37.2256984915434401
 51
77.7239858418868721
  0
ARC
  5
FCDC
  8
0
 10
823.6437289084474287
 20
116.2665941944548962
 30
0.0
 40
0.6743356973297017
 50
50.1325487426495968
 51
64.0431907962224614
  0
ARC
  5
FCDD
  8
0
 10
824.0658152463419128
 20
116.7229049557309963
 30
0.0
 40
0.0197
 50
224.9999999304704943
 51
308.9999999925275915
  0
LINE
  5
FCDE
  8
0
 10
824.3887421227864252
 20
116.516893688680895
 30
0.0
 11
824.2806215903601696
 21
116.6250142212815035
 31
0.0
  0
LINE
  5
FCDF
  8
0
 10
824.4150697380839574
 20
116.5155139168130063
 30
0.0
 11
824.4633226024803889
 21
116.5545883159225014
 31
0.0
  0
LINE
  5
FCE0
  8
0
 10
824.3804463564564458
 20
116.5501372984959971
 30
0.0
 11
824.4294390331559725
 21
116.5898107857945973
 31
0.0
  0
LINE
  5
FCE1
  8
0
 10
824.1733098701334939
 20
116.7572737850514955
 30
0.0
 11
824.1837443691310909
 21
116.7701593182598003
 31
0.0
  0
LINE
  5
FCE2
  8
0
 10
824.2789357377888564
 20
116.6516479173188969
 30
0.0
 11
824.3247985002977885
 21
116.6887868500596994
 31
0.0
  0
ARC
  5
FCE3
  8
0
 10
824.1105112686366283
 20
116.480273744738497
 30
0.0
 40
0.2989928640349144
 50
44.2175680217135465
 51
75.8221491826435283
  0
ARC
  5
FCE4
  8
0
 10
824.0111233084379592
 20
115.9749470244587002
 30
0.0
 40
0.7436702834928229
 50
55.7710227590925101
 51
67.7199931662843824
  0
ARC
  5
FCE5
  8
0
 10
824.3680487447595624
 20
116.5654470739422948
 30
0.0
 40
0.0197
 50
224.9999999537353972
 51
308.999999974356399
  0
ARC
  5
FCE6
  8
0
 10
824.4026721263868467
 20
116.530823692259105
 30
0.0
 40
0.0197
 50
224.9999999537766087
 51
308.9999999751508994
  0
ARC
  5
FCE7
  8
0
 10
824.2945515939609322
 20
116.6389442248595998
 30
0.0
 40
0.0197
 50
128.9999999568721023
 51
224.9999999537650126
  0
LINE
  5
FCE8
  8
0
 10
824.2526081224962127
 20
116.6530276891909068
 30
0.0
 11
824.1746896420047506
 21
116.7309461698081066
 31
0.0
  0
ARC
  5
FCE9
  8
0
 10
824.2665381260967479
 20
116.6669576927690031
 30
0.0
 40
0.0197
 50
224.9999999537396889
 51
308.9999999568956923
  0
ARC
  5
FCEA
  8
0
 10
824.1886196456051721
 20
116.7448761733862028
 30
0.0
 40
0.0197
 50
141.000000143832807
 51
224.9999999537477038
  0
LINE
  5
FCEB
  8
0
 10
823.4307587714426973
 20
117.3301014245542007
 30
0.0
 11
823.3528402909511215
 21
117.4080199051714999
 31
0.0
  0
LINE
  5
FCEC
  8
0
 10
823.4869403065548568
 20
117.3528968802103947
 30
0.0
 11
823.4570863867253365
 21
117.3287216526742043
 31
0.0
  0
LINE
  5
FCED
  8
0
 10
823.3766115583762257
 20
117.4654064673128033
 30
0.0
 11
823.3514605191137434
 21
117.4343475204563987
 31
0.0
  0
ARC
  5
FCEE
  8
0
 10
823.2637305049780707
 20
117.2443635687716039
 30
0.0
 40
0.2481976938080239
 50
25.9308282961128214
 51
62.9477409864746704
  0
ARC
  5
FCEF
  8
0
 10
823.4446887750433461
 20
117.3440314281323964
 30
0.0
 40
0.0197
 50
224.9999999537650126
 51
308.9999999189603841
  0
ARC
  5
FCF0
  8
0
 10
823.366770294551884
 20
117.4219499087496956
 30
0.0
 40
0.0197
 50
140.9999999885866089
 51
224.9999999537353972
  0
LINE
  5
FCF1
  8
0
 10
823.3336497215952932
 20
117.2713265151326993
 30
0.0
 11
823.2557312411039447
 21
117.3492449957498991
 31
0.0
  0
LINE
  5
FCF2
  8
0
 10
823.3898312567074527
 20
117.2941219707887939
 30
0.0
 11
823.3599773368778187
 21
117.269946743252504
 31
0.0
  0
LINE
  5
FCF3
  8
0
 10
823.2795025085287079
 20
117.406631557891302
 30
0.0
 11
823.254351469266112
 21
117.3755726110347979
 31
0.0
  0
ARC
  5
FCF4
  8
0
 10
823.2482914000559049
 20
117.265675548116306
 30
0.0
 40
0.1443701145795074
 50
11.3638122642106403
 51
77.5147570183747661
  0
ARC
  5
FCF5
  8
0
 10
823.3475797251958284
 20
117.2852565187107956
 30
0.0
 40
0.0197
 50
224.9999999537650126
 51
308.9999999189603841
  0
ARC
  5
FCF6
  8
0
 10
823.2696612447043663
 20
117.3631749993279954
 30
0.0
 40
0.0197
 50
140.9999999885866089
 51
224.9999999537353972
  0
LINE
  5
FCF7
  8
0
 10
823.6356148047442503
 20
117.2700210079889018
 30
0.0
 11
823.5576963242526745
 21
117.3479394886061016
 31
0.0
  0
LINE
  5
FCF8
  8
0
 10
823.6965124103506923
 20
117.2969561849981943
 30
0.0
 11
823.6619424200267758
 21
117.268641236108806
 31
0.0
  0
LINE
  5
FCF9
  8
0
 10
823.5814675916775514
 20
117.4053260507475045
 30
0.0
 11
823.5563165524150691
 21
117.3742671038910004
 31
0.0
  0
ARC
  5
FCFA
  8
0
 10
823.5402289103532212
 20
117.2462969189021038
 30
0.0
 40
0.1642890550609234
 50
17.9600917490928609
 51
75.4625382184778033
  0
ARC
  5
FCFB
  8
0
 10
823.6495448083448991
 20
117.2839510115669981
 30
0.0
 40
0.0197
 50
224.9999999537650126
 51
308.9999999189603841
  0
ARC
  5
FCFC
  8
0
 10
823.5716263278535507
 20
117.3618694921842973
 30
0.0
 40
0.0197
 50
140.9999999885866089
 51
224.9999999537353972
  0
LINE
  5
FCFD
  8
0
 10
823.493445045110775
 20
117.1666521137037051
 30
0.0
 11
823.4155265646191992
 21
117.2445705943209049
 31
0.0
  0
LINE
  5
FCFE
  8
0
 10
823.5496265802229345
 20
117.1894475693597997
 30
0.0
 11
823.5197726603933006
 21
117.1652723418234956
 31
0.0
  0
LINE
  5
FCFF
  8
0
 10
823.4327383664045783
 20
117.2938568909987964
 30
0.0
 11
823.4141467927815938
 21
117.2708982096058037
 31
0.0
  0
ARC
  5
FD00
  8
0
 10
823.2731903798160147
 20
116.9976059512130036
 30
0.0
 40
0.336482063932679
 50
34.7599338680241914
 51
61.6950088684308113
  0
ARC
  5
FD01
  8
0
 10
823.5073750487114239
 20
117.1805821172818014
 30
0.0
 40
0.0197
 50
224.9999999537650126
 51
308.9999999189603841
  0
ARC
  5
FD02
  8
0
 10
823.4294565682198481
 20
117.2585005978990011
 30
0.0
 40
0.0197
 50
140.9999999885866089
 51
224.9999999537353972
  0
LINE
  5
FD03
  8
0
 10
823.8806834443962543
 20
117.024952367991105
 30
0.0
 11
823.8027649639050196
 21
117.1028708486083048
 31
0.0
  0
LINE
  5
FD04
  8
0
 10
823.9451682748931489
 20
117.054472292066194
 30
0.0
 11
823.9070110596792347
 21
117.0235725961109949
 31
0.0
  0
LINE
  5
FD05
  8
0
 10
823.8198012010113871
 20
117.1497216233898939
 30
0.0
 11
823.8013851920674142
 21
117.1291984638932036
 31
0.0
  0
ARC
  5
FD06
  8
0
 10
823.812518742471525
 20
117.0100077849982938
 30
0.0
 40
0.1399035054615399
 50
18.5313007994241801
 51
87.016209159444557
  0
ARC
  5
FD07
  8
0
 10
823.8946134479970169
 20
117.0388823715692013
 30
0.0
 40
0.0197
 50
224.9999999537650126
 51
308.9999999189603841
  0
ARC
  5
FD08
  8
0
 10
823.8166949675055548
 20
117.116800852186401
 30
0.0
 40
0.0197
 50
140.9999999885866089
 51
224.9999999537353972
  0
LINE
  5
FD09
  8
0
 10
823.676061096744661
 20
117.0847990988062008
 30
0.0
 11
823.5981426162533126
 21
117.1627175794235001
 31
0.0
  0
LINE
  5
FD0A
  8
0
 10
823.7322426318568205
 20
117.1075945544623949
 30
0.0
 11
823.7023887120274139
 21
117.083419326926105
 31
0.0
  0
LINE
  5
FD0B
  8
0
 10
823.6219138836781894
 20
117.2201041415648035
 30
0.0
 11
823.5967628444157071
 21
117.1890451947082994
 31
0.0
  0
ARC
  5
FD0C
  8
0
 10
823.5907027752053864
 20
117.079148131789907
 30
0.0
 40
0.1443701145795074
 50
11.3638122642106403
 51
77.5147570183747661
  0
ARC
  5
FD0D
  8
0
 10
823.6899911003453099
 20
117.0987291023843966
 30
0.0
 40
0.0197
 50
224.9999999537650126
 51
308.9999999189603841
  0
ARC
  5
FD0E
  8
0
 10
823.6120726198538478
 20
117.1766475830015963
 30
0.0
 40
0.0197
 50
140.9999999885866089
 51
224.9999999537353972
  0
LINE
  5
FD0F
  8
0
 10
823.7373303244361296
 20
116.9227668339845962
 30
0.0
 11
823.5938464460755313
 21
117.066250712577002
 31
0.0
  0
LINE
  5
FD10
  8
0
 10
823.7315574273337688
 20
117.0158950993227052
 30
0.0
 11
823.6980925418494053
 21
116.9869524600796069
 31
0.0
  0
LINE
  5
FD11
  8
0
 10
823.6079934245148024
 20
117.111752267621398
 30
0.0
 11
823.5924666742376985
 21
117.0925783278618013
 31
0.0
  0
ARC
  5
FD12
  8
0
 10
823.2873187777273642
 20
116.5708206541250007
 30
0.0
 40
0.6288395976493827
 50
45.0538477911863779
 51
59.3397237473665768
  0
ARC
  5
FD13
  8
0
 10
823.6856949301675286
 20
117.002262235537799
 30
0.0
 40
0.0197
 50
224.9999999537650126
 51
308.9999999189603841
  0
ARC
  5
FD14
  8
0
 10
823.6077764496759528
 20
117.0801807161550983
 30
0.0
 40
0.0197
 50
140.9999999885866089
 51
224.9999999537353972
  0
LINE
  5
FD15
  8
0
 10
823.7994171695154364
 20
116.950344315349497
 30
0.0
 11
823.7636579397187688
 21
116.9213870621045004
 31
0.0
  0
ARC
  5
FD16
  8
0
 10
823.7512603280365511
 20
116.9366968375628062
 30
0.0
 40
0.0197
 50
224.9999999537477038
 51
308.9999999189603841
  0
LINE
  5
FD17
  8
0
 10
823.8760340555833181
 20
116.8848261396448009
 30
0.0
 11
823.798115575091856
 21
116.9627446202621002
 31
0.0
  0
LINE
  5
FD18
  8
0
 10
823.9405188860802127
 20
116.9143460637200036
 30
0.0
 11
823.9023616708659574
 21
116.8834463677647051
 31
0.0
  0
LINE
  5
FD19
  8
0
 10
823.811323722150064
 20
117.0053292968426035
 30
0.0
 11
823.7967358032542506
 21
116.9890722355468995
 31
0.0
  0
ARC
  5
FD1A
  8
0
 10
823.7064392788524856
 20
116.7191751176800949
 30
0.0
 40
0.3047703409090871
 50
39.8206787001077132
 51
69.8705371721750765
  0
ARC
  5
FD1B
  8
0
 10
823.8899640591838534
 20
116.8987561432229967
 30
0.0
 40
0.0197
 50
224.9999999537650126
 51
308.9999999189603841
  0
ARC
  5
FD1C
  8
0
 10
823.8120455786923912
 20
116.9766746238401964
 30
0.0
 40
0.0197
 50
140.9999999885866089
 51
224.9999999537353972
  0
LINE
  5
FD1D
  8
0
 10
823.4450051201054066
 20
117.1599711164428044
 30
0.0
 11
823.3670866396138308
 21
117.2378895970600041
 31
0.0
  0
LINE
  5
FD1E
  8
0
 10
823.3657068677420057
 20
117.2642172123025972
 30
0.0
 11
823.3817187342372108
 21
117.2839902208121003
 31
0.0
  0
LINE
  5
FD1F
  8
0
 10
823.4713327354362491
 20
117.1585913446018026
 30
0.0
 11
823.4880049339880088
 21
117.1720922248351968
 31
0.0
  0
ARC
  5
FD20
  8
0
 10
823.4589351237058281
 20
117.1739011200209006
 30
0.0
 40
0.0197
 50
224.9999999537560882
 51
309.0000000996354856
  0
ARC
  5
FD21
  8
0
 10
823.3810166432145934
 20
117.2518196006381999
 30
0.0
 40
0.0197
 50
141.0000001469794881
 51
224.9999999537191968
  0
ARC
  5
FD22
  8
0
 10
826.1776156756008049
 20
120.3745427052294019
 30
0.0
 40
4.167559761498687
 50
230.3674409128736045
 51
231.4699231672852022
  0
ARC
  5
FD23
  8
0
 10
826.1776156756008049
 20
120.3745427052294019
 30
0.0
 40
4.167559761498687
 50
227.8271197945666131
 51
228.383381734187509
  0
ARC
  5
FD24
  8
0
 10
826.6975380439425862
 20
121.0274708830677071
 30
0.0
 40
5.0022060785200599
 50
238.2222701378796899
 51
239.3008062104470923
  0
ARC
  5
FD25
  8
0
 10
826.6975380439425862
 20
121.0274708830677071
 30
0.0
 40
5.0022060785200599
 50
235.9827297271023099
 51
236.3991300081754048
  0
ARC
  5
FD26
  8
0
 10
826.6975380439425862
 20
121.0274708830677071
 30
0.0
 40
5.0022060785200599
 50
233.4883445151099011
 51
235.1189888971316861
  0
ARC
  5
FD27
  8
0
 10
826.6975380439425862
 20
121.0274708830677071
 30
0.0
 40
5.0022060785200599
 50
231.4699231672852022
 51
231.7240840037244141
  0
ARC
  5
FD28
  8
0
 10
826.3082459664761927
 20
120.3718072848121068
 30
0.0
 40
4.2396819309316598
 50
243.4795712818082905
 51
246.2541907447429992
  0
ARC
  5
FD29
  8
0
 10
826.3082459664761927
 20
120.3718072848121068
 30
0.0
 40
4.2396819309316598
 50
241.3747802248853134
 51
241.3901452396987111
  0
ARC
  5
FD2A
  8
0
 10
826.3082459664761927
 20
120.3718072848121068
 30
0.0
 40
4.2396819309316598
 50
239.3008062104470923
 51
240.6187437403640956
  0
ARC
  5
FD2B
  8
0
 10
824.620025676644218
 20
116.5342734306260013
 30
0.0
 40
0.0472179979890088
 50
246.2541907447429992
 51
260.4244214491981211
  0
ARC
  5
FD2C
  8
0
 10
824.6154136106814576
 20
116.5069343976924046
 30
0.0
 40
0.0194926688802118
 50
260.4244214492046012
 51
317.3028101428935202
  0
LINE
  5
FD2D
  8
0
 10
824.6297397081523286
 20
116.4937159608927999
 30
0.0
 11
824.631931166234267
 21
116.4960660120015064
 31
0.0
  0
LINE
  5
FD2E
  8
0
 10
826.3301344253108027
 20
111.6851459633363959
 30
0.0
 11
826.3301344253108027
 21
111.8773028977598045
 31
0.0
  0
LINE
  5
FD2F
  8
0
 10
827.2086058055108424
 20
111.6851464138597976
 30
0.0
 11
827.2086058055108424
 21
111.9022838421080053
 31
0.0
  0
ARC
  5
FD30
  8
0
 10
827.1889058055106716
 20
111.6851464138597976
 30
0.0
 40
0.0197
 50
271.7157120016643717
 51
0.0000000000097707
  0
ARC
  5
FD31
  8
0
 10
826.3498344253107462
 20
111.6851459633363959
 30
0.0
 40
0.0197
 50
180.0000000000098055
 51
268.2410682101489101
  0
LINE
  5
FD32
  8
0
 10
826.3171259768801065
 20
111.6531640051938012
 30
0.0
 11
826.330369421612545
 21
111.3353213310247014
 31
0.0
  0
ARC
  5
FD33
  8
0
 10
827.0055905878107296
 20
110.9174149177597997
 30
0.0
 40
0.7204724409000003
 50
244.4806412242344038
 51
272.5166928601415179
  0
LINE
  5
FD34
  8
0
 10
828.5803939353091891
 20
93.890157770458103
 30
0.0
 11
828.5803939353091891
 21
91.3311325735580652
 31
0.0
  0
LINE
  5
FD35
  8
0
 10
827.8096759141978964
 20
91.9936090202313892
 30
0.0
 11
828.2835272622631919
 21
91.3871069523292334
 31
0.0
  0
LINE
  5
FD36
  8
0
 10
828.0589968876029161
 20
93.546795740690655
 30
0.0
 11
828.2835272622631919
 21
93.8341815149415339
 31
0.0
  0
LINE
  5
FD37
  8
0
 10
827.7929923605092881
 20
92.1551469176189642
 30
0.0
 11
827.7929923605092881
 21
92.042061578336245
 31
0.0
  0
ARC
  5
FD38
  8
0
 10
827.8716923605092006
 20
92.042061578336245
 30
0.0
 40
0.0787
 50
179.9999999999967031
 51
217.9999999969872135
  0
LINE
  5
FD39
  8
0
 10
827.7929923605092881
 20
92.0960773044737238
 30
0.0
 11
827.775093354780779
 21
92.0960773044737238
 31
0.0
  0
LINE
  5
FD3A
  8
0
 10
827.0567729840339553
 20
92.1893845251736792
 30
0.0
 11
827.1433871033461855
 21
92.1893845251736792
 31
0.0
  0
LINE
  5
FD3B
  8
0
 10
827.0567730463010321
 20
93.0319042101737068
 30
0.0
 11
827.1433869946488358
 21
93.0319042101737068
 31
0.0
  0
LINE
  5
FD3C
  8
0
 10
827.1433871911010556
 20
92.0397787987199365
 30
0.0
 11
827.1433871911010556
 21
93.1815113663277259
 31
0.0
  0
LINE
  5
FD3D
  8
0
 10
827.2024419522158496
 20
93.240566173142156
 30
0.0
 11
827.5153152020847074
 21
93.240566173142156
 31
0.0
  0
LINE
  5
FD3E
  8
0
 10
827.1433871911010556
 20
93.1815113663277259
 30
0.0
 11
827.2024419522158496
 21
93.240566173142156
 31
0.0
  0
LINE
  5
FD3F
  8
0
 10
827.2024423750167443
 20
91.980723660604383
 30
0.0
 11
827.1433871911010556
 21
92.0397787987199365
 31
0.0
  0
LINE
  5
FD40
  8
0
 10
827.2024423750167443
 20
91.980723660604383
 30
0.0
 11
827.2029956793928704
 21
91.980723660604383
 31
0.0
  0
LINE
  5
FD41
  8
0
 10
827.2024423119678431
 20
91.989610970645316
 30
0.0
 11
827.2061647879039583
 21
91.989610970645316
 31
0.0
  0
LINE
  5
FD42
  8
0
 10
827.2024423750167443
 20
92.2088143236681788
 30
0.0
 11
827.279774269396853
 21
92.2088143236681788
 31
0.0
  0
LINE
  5
FD43
  8
0
 10
827.2024423342003274
 20
92.3914416729367645
 30
0.0
 11
827.3345589060490965
 21
92.3914416729367645
 31
0.0
  0
LINE
  5
FD44
  8
0
 10
827.2024423750167443
 20
92.8298483307138156
 30
0.0
 11
827.4427320831030102
 21
92.8298483307138156
 31
0.0
  0
LINE
  5
FD45
  8
0
 10
827.202442299267318
 20
93.0124756402236983
 30
0.0
 11
827.4783731211091435
 21
93.0124756402236983
 31
0.0
  0
LINE
  5
FD46
  8
0
 10
827.514031586881174
 20
93.2316789801913615
 30
0.0
 11
827.2024420042630481
 21
93.2316789801913615
 31
0.0
  0
LINE
  5
FD47
  8
0
 10
827.2024423750167443
 20
93.0124755487670427
 30
0.0
 11
827.2024423750167443
 21
92.8298483307133324
 31
0.0
  0
LINE
  5
FD48
  8
0
 10
827.2024423750167443
 20
92.3914415629742649
 30
0.0
 11
827.2024423750167443
 21
92.208814323668463
 31
0.0
  0
LINE
  5
FD49
  8
0
 10
827.2024423750167443
 20
91.9896108945216326
 30
0.0
 11
827.2024423750167443
 21
91.980723660604383
 31
0.0
  0
LINE
  5
FD4A
  8
0
 10
827.2024423750167443
 20
93.2316794278257532
 30
0.0
 11
827.2024423750167443
 21
93.240566173142156
 31
0.0
  0
ARC
  5
FD4B
  8
0
 10
827.334772209554103
 20
92.0992126090950478
 30
0.0
 40
0.1718246808409198
 50
140.3668674483866994
 51
219.6331307539130933
  0
ARC
  5
FD4C
  8
0
 10
827.7929955047593467
 20
92.6106449468437916
 30
0.0
 40
0.6299231084416642
 50
159.6359215419506938
 51
200.3640784580491925
  0
ARC
  5
FD4D
  8
0
 10
827.3347712988035028
 20
93.1220774882963838
 30
0.0
 40
0.1718241229257742
 50
140.3666159597227931
 51
219.6333840402772069
  0
LINE
  5
FD4E
  8
0
 10
823.9760491739011741
 20
91.1992227786866465
 30
0.0
 11
823.0115121661010562
 21
91.1992227786866465
 31
0.0
  0
LINE
  5
FD4F
  8
0
 10
823.4937802037062511
 20
90.7897739597866433
 30
0.0
 11
823.4937802037062511
 21
91.0850495503866426
 31
0.0
  0
LINE
  5
FD50
  8
0
 10
823.0449617724011659
 20
90.7089377393866414
 30
0.0
 11
823.0449617724011659
 21
90.7897739597866433
 31
0.0
  0
LINE
  5
FD51
  8
0
 10
823.0449617724011659
 20
91.0850495503866426
 30
0.0
 11
823.0449617724011659
 21
91.1874227786866385
 31
0.0
  0
LINE
  5
FD52
  8
0
 10
823.9425995676010643
 20
90.7089377393866414
 30
0.0
 11
823.9425995676010643
 21
90.7897739597866433
 31
0.0
  0
LINE
  5
FD53
  8
0
 10
823.9425995676010643
 20
91.0850495503866426
 30
0.0
 11
823.9425995676010643
 21
91.1874227786866385
 31
0.0
  0
LINE
  5
FD54
  8
0
 10
823.9131995676010547
 20
90.6795377393866318
 30
0.0
 11
823.0743617724011756
 21
90.6795377393866318
 31
0.0
  0
ARC
  5
FD55
  8
0
 10
823.9131995676010547
 20
90.7089377393866414
 30
0.0
 40
0.0294
 50
269.9999999999935199
 51
0.0000000000032569
  0
ARC
  5
FD56
  8
0
 10
823.0743617724011756
 20
90.7089377393866414
 30
0.0
 40
0.0294
 50
179.9999999999930083
 51
270.0
  0
ARC
  5
FD57
  8
0
 10
823.0567617724010461
 20
91.1874227786866385
 30
0.0
 40
0.0118
 50
89.9999999999934914
 51
179.9999999999909903
  0
ARC
  5
FD58
  8
0
 10
823.9307995676010705
 20
91.1874227786866385
 30
0.0
 40
0.0118
 50
0.0000000000085493
 51
89.9999999999934914
  0
LINE
  5
FD59
  8
0
 10
823.0336912819010422
 20
91.0850495503866426
 30
0.0
 11
823.954403633401057
 21
91.0850495503866426
 31
0.0
  0
LINE
  5
FD5A
  8
0
 10
823.954403633401057
 20
91.0850495503866426
 30
0.0
 11
823.954403633401057
 21
90.7897739597866433
 31
0.0
  0
LINE
  5
FD5B
  8
0
 10
823.954403633401057
 20
90.7897739597866433
 30
0.0
 11
823.0336912819010422
 21
90.7897739597866433
 31
0.0
  0
LINE
  5
FD5C
  8
0
 10
823.0336912819010422
 20
90.7897739597866433
 30
0.0
 11
823.0336912819010422
 21
91.0850495503866426
 31
0.0
  0
LINE
  5
FD5D
  8
0
 10
823.4717415369010496
 20
90.7897739597866433
 30
0.0
 11
823.4717415369010496
 21
91.0850495503866426
 31
0.0
  0
LINE
  5
FD5E
  8
0
 10
823.4510333625009935
 20
90.7897739597866433
 30
0.0
 11
823.4510333625009935
 21
91.0850495503866426
 31
0.0
  0
LINE
  5
FD5F
  8
0
 10
823.4278690441011577
 20
90.7897739597866433
 30
0.0
 11
823.4278690441011577
 21
91.0850495503866426
 31
0.0
  0
LINE
  5
FD60
  8
0
 10
823.4086851751012546
 20
90.7897739597866433
 30
0.0
 11
823.4086851751012546
 21
91.0850495503866426
 31
0.0
  0
LINE
  5
FD61
  8
0
 10
823.3846119504011085
 20
90.7897739597866433
 30
0.0
 11
823.3846119504011085
 21
91.0850495503866426
 31
0.0
  0
LINE
  5
FD62
  8
0
 10
823.3671315014009906
 20
90.7897739597866433
 30
0.0
 11
823.3671315014009906
 21
91.0850495503866426
 31
0.0
  0
LINE
  5
FD63
  8
0
 10
823.3423741356010623
 20
90.7897739597866433
 30
0.0
 11
823.3423741356010623
 21
91.0850495503866426
 31
0.0
  0
LINE
  5
FD64
  8
0
 10
823.3267603169010727
 20
90.7897739597866433
 30
0.0
 11
823.3267603169010727
 21
91.0850495503866426
 31
0.0
  0
LINE
  5
FD65
  8
0
 10
823.3015499628011185
 20
90.7897739597866433
 30
0.0
 11
823.3015499628011185
 21
91.0850495503866426
 31
0.0
  0
LINE
  5
FD66
  8
0
 10
823.2879485564010338
 20
90.7897739597866433
 30
0.0
 11
823.2879485564010338
 21
91.0850495503866426
 31
0.0
  0
LINE
  5
FD67
  8
0
 10
823.2584684018011103
 20
90.7897739597866433
 30
0.0
 11
823.2584684018011103
 21
91.0850495503866426
 31
0.0
  0
LINE
  5
FD68
  8
0
 10
823.2470064003010748
 20
90.7897739597866433
 30
0.0
 11
823.2470064003010748
 21
91.0850495503866426
 31
0.0
  0
LINE
  5
FD69
  8
0
 10
823.2215982483010066
 20
90.7897739597866433
 30
0.0
 11
823.2215982483010066
 21
91.0850495503866426
 31
0.0
  0
LINE
  5
FD6A
  8
0
 10
823.2123826694009949
 20
90.7897739597866433
 30
0.0
 11
823.2123826694009949
 21
91.0850495503866426
 31
0.0
  0
LINE
  5
FD6B
  8
0
 10
823.1872315546011123
 20
90.7897739597866433
 30
0.0
 11
823.1872315546011123
 21
91.0850495503866426
 31
0.0
  0
LINE
  5
FD6C
  8
0
 10
823.1803484416011543
 20
90.7897739597866433
 30
0.0
 11
823.1803484416011543
 21
91.0850495503866426
 31
0.0
  0
LINE
  5
FD6D
  8
0
 10
823.155689193000967
 20
90.7897739597866433
 30
0.0
 11
823.155689193000967
 21
91.0850495503866426
 31
0.0
  0
LINE
  5
FD6E
  8
0
 10
823.1512028118011131
 20
90.7897739597866433
 30
0.0
 11
823.1512028118011131
 21
91.0850495503866426
 31
0.0
  0
LINE
  5
FD6F
  8
0
 10
823.1272656663010139
 20
90.7897739597866433
 30
0.0
 11
823.1272656663010139
 21
91.0850495503866426
 31
0.0
  0
LINE
  5
FD70
  8
0
 10
823.1022263571011308
 20
90.7897739597866433
 30
0.0
 11
823.1022263571011308
 21
91.0850495503866426
 31
0.0
  0
LINE
  5
FD71
  8
0
 10
823.0808050509010627
 20
90.7897739597866433
 30
0.0
 11
823.0808050509010627
 21
91.0850495503866426
 31
0.0
  0
LINE
  5
FD72
  8
0
 10
823.0632017524012554
 20
90.7897739597866433
 30
0.0
 11
823.0632017524012554
 21
91.0850495503866426
 31
0.0
  0
LINE
  5
FD73
  8
0
 10
823.049580819101152
 20
90.7897739597866433
 30
0.0
 11
823.049580819101152
 21
91.0850495503866426
 31
0.0
  0
LINE
  5
FD74
  8
0
 10
823.0400694258009935
 20
90.7897739597866433
 30
0.0
 11
823.0400694258009935
 21
91.0850495503866426
 31
0.0
  0
LINE
  5
FD75
  8
0
 10
823.51581887051168
 20
90.7897739597866433
 30
0.0
 11
823.51581887051168
 21
91.0850495503866426
 31
0.0
  0
LINE
  5
FD76
  8
0
 10
823.5365270449117361
 20
90.7897739597866433
 30
0.0
 11
823.5365270449117361
 21
91.0850495503866426
 31
0.0
  0
LINE
  5
FD77
  8
0
 10
823.5596913633115719
 20
90.7897739597866433
 30
0.0
 11
823.5596913633115719
 21
91.0850495503866426
 31
0.0
  0
LINE
  5
FD78
  8
0
 10
823.5788752323117023
 20
90.7897739597866433
 30
0.0
 11
823.5788752323117023
 21
91.0850495503866426
 31
0.0
  0
LINE
  5
FD79
  8
0
 10
823.6029484570117347
 20
90.7897739597866433
 30
0.0
 11
823.6029484570117347
 21
91.0850495503866426
 31
0.0
  0
LINE
  5
FD7A
  8
0
 10
823.6204289060117389
 20
90.7897739597866433
 30
0.0
 11
823.6204289060117389
 21
91.0850495503866426
 31
0.0
  0
LINE
  5
FD7B
  8
0
 10
823.6451862718115535
 20
90.7897739597866433
 30
0.0
 11
823.6451862718115535
 21
91.0850495503866426
 31
0.0
  0
LINE
  5
FD7C
  8
0
 10
823.6608000905115432
 20
90.7897739597866433
 30
0.0
 11
823.6608000905115432
 21
91.0850495503866426
 31
0.0
  0
LINE
  5
FD7D
  8
0
 10
823.6860104446117248
 20
90.7897739597866433
 30
0.0
 11
823.6860104446117248
 21
91.0850495503866426
 31
0.0
  0
LINE
  5
FD7E
  8
0
 10
823.6996118510115821
 20
90.7897739597866433
 30
0.0
 11
823.6996118510115821
 21
91.0850495503866426
 31
0.0
  0
LINE
  5
FD7F
  8
0
 10
823.7250398110115839
 20
90.7897739597866433
 30
0.0
 11
823.7250398110115839
 21
91.0850495503866426
 31
0.0
  0
LINE
  5
FD80
  8
0
 10
823.7365018125117331
 20
90.7897739597866433
 30
0.0
 11
823.7365018125117331
 21
91.0850495503866426
 31
0.0
  0
LINE
  5
FD81
  8
0
 10
823.7619099645116876
 20
90.7897739597866433
 30
0.0
 11
823.7619099645116876
 21
91.0850495503866426
 31
0.0
  0
LINE
  5
FD82
  8
0
 10
823.7711255434116993
 20
90.7897739597866433
 30
0.0
 11
823.7711255434116993
 21
91.0850495503866426
 31
0.0
  0
LINE
  5
FD83
  8
0
 10
823.7962766582115819
 20
90.7897739597866433
 30
0.0
 11
823.7962766582115819
 21
91.0850495503866426
 31
0.0
  0
LINE
  5
FD84
  8
0
 10
823.8031597712116536
 20
90.7897739597866433
 30
0.0
 11
823.8031597712116536
 21
91.0850495503866426
 31
0.0
  0
LINE
  5
FD85
  8
0
 10
823.8278190198117272
 20
90.7897739597866433
 30
0.0
 11
823.8278190198117272
 21
91.0850495503866426
 31
0.0
  0
LINE
  5
FD86
  8
0
 10
823.8323054010115811
 20
90.7897739597866433
 30
0.0
 11
823.8323054010115811
 21
91.0850495503866426
 31
0.0
  0
LINE
  5
FD87
  8
0
 10
823.8562425465116803
 20
90.7897739597866433
 30
0.0
 11
823.8562425465116803
 21
91.0850495503866426
 31
0.0
  0
LINE
  5
FD88
  8
0
 10
823.8858676256115814
 20
90.7897739597866433
 30
0.0
 11
823.8858676256115814
 21
91.0850495503866426
 31
0.0
  0
LINE
  5
FD89
  8
0
 10
823.9072889318116495
 20
90.7897739597866433
 30
0.0
 11
823.9072889318116495
 21
91.0850495503866426
 31
0.0
  0
LINE
  5
FD8A
  8
0
 10
823.9248922303116842
 20
90.7897739597866433
 30
0.0
 11
823.9248922303116842
 21
91.0850495503866426
 31
0.0
  0
LINE
  5
FD8B
  8
0
 10
823.9385131636116739
 20
90.7897739597866433
 30
0.0
 11
823.9385131636116739
 21
91.0850495503866426
 31
0.0
  0
LINE
  5
FD8C
  8
0
 10
823.9480245569117187
 20
90.7897739597866433
 30
0.0
 11
823.9480245569117187
 21
91.0850495503866426
 31
0.0
  0
LINE
  5
FD8D
  8
0
 10
823.9957491739010038
 20
91.2189227786866468
 30
0.0
 11
823.9957491739010038
 21
91.6244201736866444
 31
0.0
  0
LINE
  5
FD8E
  8
0
 10
822.9918121661011128
 20
91.2189227786866468
 30
0.0
 11
822.9918121661011128
 21
91.6244201736866444
 31
0.0
  0
ARC
  5
FD8F
  8
0
 10
823.0115121661010562
 20
91.2189227786866326
 30
0.0
 40
0.0197
 50
179.9999999999791953
 51
269.999999999980389
  0
ARC
  5
FD90
  8
0
 10
823.9760491739011741
 20
91.2189227786866468
 30
0.0
 40
0.0197
 50
270.000000000019611
 51
0.0
  0
LINE
  5
FD91
  8
0
 10
823.1985994502452968
 20
90.0161519125866363
 30
0.0
 11
823.1978707471607777
 21
90.6795377393866318
 31
0.0
  0
LINE
  5
FD92
  8
0
 10
823.78905626050107
 20
90.0161519125866363
 30
0.0
 11
823.78905626050107
 21
90.6795377393866318
 31
0.0
  0
LINE
  5
FD93
  8
0
 10
822.9214686934382144
 20
91.6244201736866444
 30
0.0
 11
827.0636644350150846
 21
91.6244201736866444
 31
0.0
  0
LINE
  5
FD94
  8
0
 10
821.1453557235009839
 20
93.1520590077431052
 30
0.0
 11
821.1453557235009839
 21
92.527786963092467
 31
0.0
  0
ARC
  5
FD95
  8
0
 10
819.6577767942005721
 20
87.4901606377970467
 30
0.0
 40
5.2604974795916508
 50
51.9228406345837996
 51
59.6968629347596789
  0
ARC
  5
FD96
  8
0
 10
821.7881403966317748
 20
91.5165082583664571
 30
0.0
 40
0.7349552916797345
 50
44.5284469805933867
 51
64.7730038881810515
  0
ARC
  5
FD97
  8
0
 10
820.7831861381168892
 20
89.2424090136295263
 30
0.0
 40
3.2210436845192159
 50
65.8425789015547593
 51
72.6285601175210047
  0
ARC
  5
FD98
  8
0
 10
817.1677312224104526
 20
77.6852932518343948
 30
0.0
 40
15.3304796325325992
 50
72.6285601175210047
 51
74.1583491254882858
  0
ARC
  5
FD99
  8
0
 10
820.0738446998767586
 20
89.0442196229587353
 30
0.0
 40
3.6225217201712399
 50
69.328314019931824
 51
72.4305146344013764
  0
ARC
  5
FD9A
  8
0
 10
822.9214686934382144
 20
91.6559201736866385
 30
0.0
 40
0.0315
 50
231.922840634574186
 51
269.9999999999869829
  0
ARC
  5
FD9B
  8
0
 10
821.1768557235011485
 20
92.527786963092467
 30
0.0
 40
0.0315
 50
179.9999999999967031
 51
252.4305146344082118
  0
LINE
  5
FD9C
  8
0
 10
823.1985994502452968
 20
90.0161519125866363
 30
0.0
 11
823.78905626050107
 21
90.0161519125866363
 31
0.0
  0
LINE
  5
FD9D
  8
0
 10
825.2418298424011027
 20
94.268120715438755
 30
0.0
 11
825.9462475676367603
 21
94.268120715438755
 31
0.0
  0
LINE
  5
FD9E
  8
0
 10
825.2418056240557007
 20
94.1756020326866405
 30
0.0
 11
826.8559489437647017
 21
94.1756020326866405
 31
0.0
  0
ARC
  5
FD9F
  8
0
 10
822.1139108281797689
 20
92.1737470280727536
 30
0.0
 40
0.0393700797044877
 50
296.9956282813855069
 51
334.1499170276870814
  0
LINE
  5
FDA0
  8
0
 10
822.1317817937292602
 20
92.1386666665253671
 30
0.0
 11
822.1215100045011468
 21
92.1334329495866484
 31
0.0
  0
LINE
  5
FDA1
  8
0
 10
822.1215100045011468
 20
92.1334329495866484
 30
0.0
 11
821.4849904070009643
 21
92.3402518532866452
 31
0.0
  0
LINE
  5
FDA2
  8
0
 10
821.4849904070009643
 20
92.3402518532866452
 30
0.0
 11
821.4800880397491483
 21
92.3498504779645657
 31
0.0
  0
LINE
  5
FDA3
  8
0
 10
821.4773857624276161
 20
92.3805965772394586
 30
0.0
 11
821.4824151327217123
 21
92.3960753016643537
 31
0.0
  0
ARC
  5
FDA4
  8
0
 10
821.5148783301434605
 20
92.3684000009239838
 30
0.0
 40
0.0394265026057197
 50
161.9799558959039132
 51
208.0656927634962017
  0
LINE
  5
FDA5
  8
0
 10
821.7398022084114473
 20
92.2072190626568897
 30
0.0
 11
821.7545669707858451
 21
92.2526606312659254
 31
0.0
  0
ARC
  5
FDA6
  8
0
 10
821.9698268735111242
 20
92.7488484039787267
 30
0.0
 40
0.5884502442304878
 50
228.2031461946137085
 51
246.9895450088386042
  0
LINE
  5
FDA7
  8
0
 10
821.795482914143804
 20
92.2393661614924554
 30
0.0
 11
821.7864069219932617
 21
92.2401960688627156
 31
0.0
  0
LINE
  5
FDA8
  8
0
 10
821.7864069219932617
 20
92.2401960688627156
 30
0.0
 11
821.7839852507509022
 21
92.2331689029092701
 31
0.0
  0
LINE
  5
FDA9
  8
0
 10
821.7839852507509022
 20
92.2331689029092701
 30
0.0
 11
821.7637747353011264
 21
92.2403828520866256
 31
0.0
  0
LINE
  5
FDAA
  8
0
 10
821.7637747353011264
 20
92.2403828520866256
 30
0.0
 11
821.7665038130359108
 21
92.2487820945523538
 31
0.0
  0
LINE
  5
FDAB
  8
0
 10
821.7637747353011264
 20
92.2403828520866256
 30
0.0
 11
821.7529965196561079
 21
92.2478272475010215
 31
0.0
  0
LINE
  5
FDAC
  8
0
 10
821.8020475274011005
 20
92.2331651826866334
 30
0.0
 11
821.7842275057548704
 21
92.2338718745126869
 31
0.0
  0
LINE
  5
FDAD
  8
0
 10
821.7120553149012494
 20
92.2237464219866467
 30
0.0
 11
821.7112775915412612
 21
92.2240691363699625
 31
0.0
  0
LINE
  5
FDAE
  8
0
 10
821.7112775915412612
 20
92.2240691363699625
 30
0.0
 11
821.6962624536010935
 21
92.233024955586643
 31
0.0
  0
LINE
  5
FDAF
  8
0
 10
821.6962624536010935
 20
92.233024955586643
 30
0.0
 11
821.6971447407011055
 21
92.2357403881866418
 31
0.0
  0
LINE
  5
FDB0
  8
0
 10
821.6971447407011055
 20
92.2357403881866418
 30
0.0
 11
821.7130346529010012
 21
92.2294768792866364
 31
0.0
  0
LINE
  5
FDB1
  8
0
 10
821.7130346529010012
 20
92.2294768792866364
 30
0.0
 11
821.7137687132010342
 21
92.2290197823866436
 31
0.0
  0
LINE
  5
FDB2
  8
0
 10
821.7137687132010342
 20
92.2290197823866436
 30
0.0
 11
821.7120553149012494
 21
92.2237464219866467
 31
0.0
  0
LINE
  5
FDB3
  8
0
 10
821.7043785510562657
 20
92.237756903723664
 30
0.0
 11
821.7031946324588034
 21
92.2341131502320053
 31
0.0
  0
LINE
  5
FDB4
  8
0
 10
821.7031946324588034
 20
92.2341131502320053
 30
0.0
 11
821.6874136982310119
 21
92.2407120566396657
 31
0.0
  0
LINE
  5
FDB5
  8
0
 10
821.6874136982310119
 20
92.2407120566396657
 30
0.0
 11
821.6728235883239222
 21
92.2509759704571195
 31
0.0
  0
LINE
  5
FDB6
  8
0
 10
821.6728235883239222
 20
92.2509759704571195
 30
0.0
 11
821.6740214818430559
 21
92.2546627341805134
 31
0.0
  0
LINE
  5
FDB7
  8
0
 10
821.6740214818430559
 20
92.2546627341805134
 30
0.0
 11
821.689795428293337
 21
92.248042321572342
 31
0.0
  0
LINE
  5
FDB8
  8
0
 10
821.689795428293337
 20
92.248042321572342
 30
0.0
 11
821.7043785511010583
 21
92.2377569036866305
 31
0.0
  0
LINE
  5
FDB9
  8
0
 10
821.707114770913563
 20
92.2461781617887482
 30
0.0
 11
821.6910414678902725
 21
92.2518772546535075
 31
0.0
  0
LINE
  5
FDBA
  8
0
 10
821.6910414678902725
 20
92.2518772546535075
 30
0.0
 11
821.6767907432850961
 21
92.2631856831420976
 31
0.0
  0
LINE
  5
FDBB
  8
0
 10
821.6767907432850961
 20
92.2631856831420976
 30
0.0
 11
821.6786327988082803
 21
92.2688549626091969
 31
0.0
  0
LINE
  5
FDBC
  8
0
 10
821.6786327988082803
 20
92.2688549626091969
 30
0.0
 11
821.6947029889010992
 21
92.263146195086648
 31
0.0
  0
LINE
  5
FDBD
  8
0
 10
821.6947029889010992
 20
92.263146195086648
 30
0.0
 11
821.7089342610011045
 21
92.2517779922866339
 31
0.0
  0
LINE
  5
FDBE
  8
0
 10
821.7089342610011045
 20
92.2517779922866339
 30
0.0
 11
821.707114770913563
 21
92.2461781617887482
 31
0.0
  0
LINE
  5
FDBF
  8
0
 10
821.7135512139400362
 20
92.2659875325877437
 30
0.0
 11
821.7128814860868715
 21
92.2639263204428346
 31
0.0
  0
LINE
  5
FDC0
  8
0
 10
821.7128814860868715
 20
92.2639263204428346
 30
0.0
 11
821.6965009931326449
 21
92.2686799852840238
 31
0.0
  0
LINE
  5
FDC1
  8
0
 10
821.6965009931326449
 20
92.2686799852840238
 30
0.0
 11
821.6913133324461569
 21
92.2732130984449554
 31
0.0
  0
LINE
  5
FDC2
  8
0
 10
821.6870749187331739
 20
92.2745902501948763
 30
0.0
 11
821.684973249091513
 21
92.2681219667570502
 31
0.0
  0
LINE
  5
FDC3
  8
0
 10
821.684973249091513
 20
92.2681219667570502
 30
0.0
 11
821.6690169169288538
 21
92.2741810571719299
 31
0.0
  0
LINE
  5
FDC4
  8
0
 10
821.6690169169288538
 20
92.2741810571719299
 30
0.0
 11
821.6583891264033355
 21
92.2839108809260154
 31
0.0
  0
LINE
  5
FDC5
  8
0
 10
821.6801022708010578
 20
92.2531305874866376
 30
0.0
 11
821.6644401558172603
 21
92.2600951799400377
 31
0.0
  0
LINE
  5
FDC6
  8
0
 10
821.6644401558172603
 20
92.2600951799400377
 30
0.0
 11
821.6502997238981152
 21
92.2717430524772766
 31
0.0
  0
LINE
  5
FDC7
  8
0
 10
821.6502997238981152
 20
92.2717430524772766
 30
0.0
 11
821.6518332498993686
 21
92.2764627810815483
 31
0.0
  0
LINE
  5
FDC8
  8
0
 10
821.6518332498993686
 20
92.2764627810815483
 30
0.0
 11
821.6674837227449189
 21
92.2694622638262842
 31
0.0
  0
LINE
  5
FDC9
  8
0
 10
821.6674837227449189
 20
92.2694622638262842
 30
0.0
 11
821.6816124668009707
 21
92.2577785137866471
 31
0.0
  0
LINE
  5
FDCA
  8
0
 10
821.6816124668009707
 20
92.2577785137866471
 30
0.0
 11
821.6801022708010578
 21
92.2531305874866376
 31
0.0
  0
LINE
  5
FDCB
  8
0
 10
821.6770278042010887
 20
92.2436682716866443
 30
0.0
 11
821.6616527526393838
 21
92.2515163498043762
 31
0.0
  0
LINE
  5
FDCC
  8
0
 10
821.6616527526393838
 20
92.2515163498043762
 30
0.0
 11
821.6471790191953914
 21
92.2621384311687933
 31
0.0
  0
LINE
  5
FDCD
  8
0
 10
821.6471790191953914
 20
92.2621384311687933
 30
0.0
 11
821.6480809686011071
 21
92.2649143778866545
 31
0.0
  0
LINE
  5
FDCE
  8
0
 10
821.6480809686011071
 20
92.2649143778866545
 30
0.0
 11
821.6634433264395057
 21
92.2570272328224803
 31
0.0
  0
LINE
  5
FDCF
  8
0
 10
821.6634433264395057
 20
92.2570272328224803
 30
0.0
 11
821.6779165569010956
 21
92.2464036031866357
 31
0.0
  0
LINE
  5
FDD0
  8
0
 10
821.6779165569010956
 20
92.2464036031866357
 30
0.0
 11
821.6770278042010887
 21
92.2436682716866443
 31
0.0
  0
LINE
  5
FDD1
  8
0
 10
821.6539414701037458
 20
92.2627042652952696
 30
0.0
 11
821.638895255698344
 21
92.2708299867928758
 31
0.0
  0
LINE
  5
FDD2
  8
0
 10
821.638895255698344
 20
92.2708299867928758
 30
0.0
 11
821.6246744301929539
 21
92.2829648368208098
 31
0.0
  0
LINE
  5
FDD3
  8
0
 10
821.6246744301929539
 20
92.2829648368208098
 30
0.0
 11
821.6259063063010899
 21
92.2867561875866187
 31
0.0
  0
LINE
  5
FDD4
  8
0
 10
821.6259063063010899
 20
92.2867561875866187
 30
0.0
 11
821.6411346621010807
 21
92.2784565348866153
 31
0.0
  0
LINE
  5
FDD5
  8
0
 10
821.6411346621010807
 20
92.2784565348866153
 30
0.0
 11
821.6551507804863377
 21
92.2664261607353353
 31
0.0
  0
LINE
  5
FDD6
  8
0
 10
821.6551507804863377
 20
92.2664261607353353
 30
0.0
 11
821.6539414701037458
 21
92.2627042652952696
 31
0.0
  0
LINE
  5
FDD7
  8
0
 10
821.6579470514059267
 20
92.2750322358013904
 30
0.0
 11
821.642412312185229
 21
92.2823888486457946
 31
0.0
  0
LINE
  5
FDD8
  8
0
 10
821.642412312185229
 20
92.2823888486457946
 30
0.0
 11
821.631660726549967
 21
92.292595512753536
 31
0.0
  0
LINE
  5
FDD9
  8
0
 10
821.6579470514059267
 20
92.2750322358013904
 30
0.0
 11
821.6598075690081942
 21
92.2807583356086951
 31
0.0
  0
LINE
  5
FDDA
  8
0
 10
821.6598075690081942
 20
92.2807583356086951
 30
0.0
 11
821.6554180635073408
 21
92.2848762431448506
 31
0.0
  0
LINE
  5
FDDB
  8
0
 10
821.6517007972787496
 20
92.2558080831179979
 30
0.0
 11
821.6367399910676568
 21
92.2649310700787453
 31
0.0
  0
LINE
  5
FDDC
  8
0
 10
821.6367399910676568
 20
92.2649310700787453
 30
0.0
 11
821.6223927845963999
 21
92.2759425594571212
 31
0.0
  0
LINE
  5
FDDD
  8
0
 10
821.6223927845963999
 20
92.2759425594571212
 30
0.0
 11
821.6229994603036175
 21
92.2778097521946847
 31
0.0
  0
LINE
  5
FDDE
  8
0
 10
821.6229994603036175
 20
92.2778097521946847
 30
0.0
 11
821.6379424117786812
 21
92.2686318140981996
 31
0.0
  0
LINE
  5
FDDF
  8
0
 10
821.6379424117786812
 20
92.2686318140981996
 30
0.0
 11
821.6522966821471528
 21
92.2576420650167393
 31
0.0
  0
LINE
  5
FDE0
  8
0
 10
821.6522966821471528
 20
92.2576420650167393
 30
0.0
 11
821.6517007972787496
 21
92.2558080831179979
 31
0.0
  0
LINE
  5
FDE1
  8
0
 10
821.6286370458843749
 20
92.2749135732355654
 30
0.0
 11
821.6138130861942273
 21
92.2844577281471459
 31
0.0
  0
LINE
  5
FDE2
  8
0
 10
821.6138130861942273
 20
92.2844577281471459
 30
0.0
 11
821.5999279548938148
 21
92.296891331028533
 31
0.0
  0
LINE
  5
FDE3
  8
0
 10
821.5999279548938148
 20
92.296891331028533
 30
0.0
 11
821.6008605345010665
 21
92.2997615467866552
 31
0.0
  0
LINE
  5
FDE4
  8
0
 10
821.6008605345010665
 20
92.2997615467866552
 30
0.0
 11
821.6156577302220967
 21
92.2901350212822678
 31
0.0
  0
LINE
  5
FDE5
  8
0
 10
821.6156577302220967
 20
92.2901350212822678
 30
0.0
 11
821.6295494220011051
 21
92.2777216094866333
 31
0.0
  0
LINE
  5
FDE6
  8
0
 10
821.6295494220011051
 20
92.2777216094866333
 30
0.0
 11
821.6286370458843749
 21
92.2749135732355654
 31
0.0
  0
LINE
  5
FDE7
  8
0
 10
821.6317943014370258
 20
92.2846306857992857
 30
0.0
 11
821.6168028069006368
 21
92.2932264626956851
 31
0.0
  0
LINE
  5
FDE8
  8
0
 10
821.6168028069006368
 20
92.2932264626956851
 30
0.0
 11
821.610278505567976
 21
92.2995430561120997
 31
0.0
  0
LINE
  5
FDE9
  8
0
 10
821.6317943014370258
 20
92.2846306857992857
 30
0.0
 11
821.6333462896936908
 21
92.289407234864214
 31
0.0
  0
LINE
  5
FDEA
  8
0
 10
821.6333462896936908
 20
92.289407234864214
 30
0.0
 11
821.6292653810553475
 21
92.2933738120096052
 31
0.0
  0
LINE
  5
FDEB
  8
0
 10
821.6271706574201517
 20
92.270454834300736
 30
0.0
 11
821.6275313874011772
 21
92.27151063918663
 31
0.0
  0
LINE
  5
FDEC
  8
0
 10
821.6275313874011772
 20
92.27151063918663
 30
0.0
 11
821.6133071947734834
 21
92.2829007242352617
 31
0.0
  0
LINE
  5
FDED
  8
0
 10
821.6133071947734834
 20
92.2829007242352617
 30
0.0
 11
821.5987981069010857
 21
92.2934139496866237
 31
0.0
  0
LINE
  5
FDEE
  8
0
 10
821.5987981069010857
 20
92.2934139496866237
 30
0.0
 11
821.5984644451220902
 21
92.2923797449055741
 31
0.0
  0
LINE
  5
FDEF
  8
0
 10
821.6042066529148542
 20
92.2898128631289154
 30
0.0
 11
821.5898228395011529
 21
92.3007116416866324
 31
0.0
  0
LINE
  5
FDF0
  8
0
 10
821.5898228395011529
 20
92.3007116416866324
 30
0.0
 11
821.5806761563402461
 21
92.3091614958871673
 31
0.0
  0
LINE
  5
FDF1
  8
0
 10
821.6042066529148542
 20
92.2898128631289154
 30
0.0
 11
821.6048216849012533
 21
92.2917057736866155
 31
0.0
  0
LINE
  5
FDF2
  8
0
 10
821.6048216849012533
 20
92.2917057736866155
 30
0.0
 11
821.5910686056595296
 21
92.3045457885682055
 31
0.0
  0
LINE
  5
FDF3
  8
0
 10
821.5910686056595296
 20
92.3045457885682055
 30
0.0
 11
821.5880827721806554
 21
92.3067549271433165
 31
0.0
  0
LINE
  5
FDF4
  8
0
 10
821.5954870279291526
 20
92.3043491252439168
 30
0.0
 11
821.6065200409011595
 21
92.2969328328866396
 31
0.0
  0
LINE
  5
FDF5
  8
0
 10
821.6065200409011595
 20
92.2969328328866396
 30
0.0
 11
821.6076460621626438
 21
92.3003983935773817
 31
0.0
  0
LINE
  5
FDF6
  8
0
 10
821.6755448296498798
 20
92.2392684116361465
 30
0.0
 11
821.6759504535011729
 21
92.240352459486644
 31
0.0
  0
LINE
  5
FDF7
  8
0
 10
821.6759504535011729
 20
92.240352459486644
 30
0.0
 11
821.6611615206558099
 21
92.250004368445218
 31
0.0
  0
LINE
  5
FDF8
  8
0
 10
821.6611615206558099
 20
92.250004368445218
 30
0.0
 11
821.6460858516971939
 21
92.2587739403109595
 31
0.0
  0
LINE
  5
FDF9
  8
0
 10
821.6460858516971939
 20
92.2587739403109595
 30
0.0
 11
821.6456657344225505
 21
92.2577341139811153
 31
0.0
  0
LINE
  5
FDFA
  8
0
 10
821.7010001084069017
 20
92.2273590040888251
 30
0.0
 11
821.6855061978288859
 21
92.2348412738719503
 31
0.0
  0
LINE
  5
FDFB
  8
0
 10
821.6855061978288859
 20
92.2348412738719503
 30
0.0
 11
821.6706036557785637
 21
92.2441436255175944
 31
0.0
  0
LINE
  5
FDFC
  8
0
 10
821.6706036557785637
 20
92.2441436255175944
 30
0.0
 11
821.6711940755933483
 21
92.2459607877627406
 31
0.0
  0
LINE
  5
FDFD
  8
0
 10
821.6711940755933483
 20
92.2459607877627406
 30
0.0
 11
821.6866803161010466
 21
92.2384548179866499
 31
0.0
  0
LINE
  5
FDFE
  8
0
 10
821.6866803161010466
 20
92.2384548179866499
 30
0.0
 11
821.7015838316831378
 21
92.2291555565313388
 31
0.0
  0
LINE
  5
FDFF
  8
0
 10
821.7015838316831378
 20
92.2291555565313388
 30
0.0
 11
821.7010001084011037
 21
92.2273590039866349
 31
0.0
  0
LINE
  5
FE00
  8
0
 10
821.710957990196448
 20
92.2203972792884343
 30
0.0
 11
821.711544577801078
 21
92.2221745022866344
 31
0.0
  0
LINE
  5
FE01
  8
0
 10
821.711544577801078
 20
92.2221745022866344
 30
0.0
 11
821.7107954134665988
 21
92.2225851141797364
 31
0.0
  0
LINE
  5
FE02
  8
0
 10
821.7107954134665988
 20
92.2225851141797364
 30
0.0
 11
821.6951928549010518
 21
92.2297330015866237
 31
0.0
  0
LINE
  5
FE03
  8
0
 10
821.6951928549010518
 20
92.2297330015866237
 30
0.0
 11
821.6948316453033385
 21
92.228606811641157
 31
0.0
  0
LINE
  5
FE04
  8
0
 10
821.7148045084011301
 20
92.2322076557866382
 30
0.0
 11
821.7140125341776411
 21
92.2324865108264049
 31
0.0
  0
LINE
  5
FE05
  8
0
 10
821.7140125341776411
 20
92.2324865108264049
 30
0.0
 11
821.6993142760012461
 21
92.2424175800866379
 31
0.0
  0
LINE
  5
FE06
  8
0
 10
821.6993142760012461
 20
92.2424175800866379
 30
0.0
 11
821.7008629029531903
 21
92.2470135784343768
 31
0.0
  0
LINE
  5
FE07
  8
0
 10
821.7008629029531903
 20
92.2470135784343768
 30
0.0
 11
821.7169968931011681
 21
92.2416714659866557
 31
0.0
  0
LINE
  5
FE08
  8
0
 10
821.7169968931011681
 20
92.2416714659866557
 30
0.0
 11
821.7177146759011066
 21
92.2411642721866372
 31
0.0
  0
LINE
  5
FE09
  8
0
 10
821.7177146759011066
 20
92.2411642721866372
 30
0.0
 11
821.7148045084011301
 21
92.2322076557866382
 31
0.0
  0
LINE
  5
FE0A
  8
0
 10
821.7193062916466033
 20
92.2460627081595845
 30
0.0
 11
821.7184995124290481
 21
92.246296066061447
 31
0.0
  0
LINE
  5
FE0B
  8
0
 10
821.7184995124290481
 20
92.246296066061447
 30
0.0
 11
821.7041477125011397
 21
92.2572934186866149
 31
0.0
  0
LINE
  5
FE0C
  8
0
 10
821.7041477125011397
 20
92.2572934186866149
 30
0.0
 11
821.70630997989565
 21
92.2639482032692939
 31
0.0
  0
LINE
  5
FE0D
  8
0
 10
821.70630997989565
 20
92.2639482032692939
 30
0.0
 11
821.7228039628010947
 21
92.2595438226866378
 31
0.0
  0
LINE
  5
FE0E
  8
0
 10
821.7228039628010947
 20
92.2595438226866378
 30
0.0
 11
821.7235036405011215
 21
92.2589809074866167
 31
0.0
  0
LINE
  5
FE0F
  8
0
 10
821.7235036405011215
 20
92.2589809074866167
 30
0.0
 11
821.7193062916466033
 21
92.2460627081595845
 31
0.0
  0
LINE
  5
FE10
  8
0
 10
821.7107954134665988
 20
92.2225851141797364
 30
0.0
 11
821.7101740590421741
 21
92.2207820200142123
 31
0.0
  0
LINE
  5
FE11
  8
0
 10
821.7130346529010012
 20
92.2294768792866364
 30
0.0
 11
821.7112775915412612
 21
92.2240691363699625
 31
0.0
  0
LINE
  5
FE12
  8
0
 10
821.7169968931011681
 20
92.2416714659866557
 30
0.0
 11
821.7137903990250152
 21
92.2325647248704001
 31
0.0
  0
LINE
  5
FE13
  8
0
 10
821.7228039628010947
 20
92.2595438226866378
 30
0.0
 11
821.7184995124290481
 21
92.246296066061447
 31
0.0
  0
LINE
  5
FE14
  8
0
 10
821.6910414678902725
 20
92.2518772546535075
 30
0.0
 11
821.6947029889010992
 21
92.263146195086648
 31
0.0
  0
LINE
  5
FE15
  8
0
 10
821.6965009931326449
 20
92.2686799852840238
 30
0.0
 11
821.6974461593068781
 21
92.2712204111295762
 31
0.0
  0
LINE
  5
FE16
  8
0
 10
821.6874136982310119
 20
92.2407120566396657
 30
0.0
 11
821.689795428293337
 21
92.248042321572342
 31
0.0
  0
LINE
  5
FE17
  8
0
 10
821.6855061978288859
 20
92.2348412738719503
 30
0.0
 11
821.6866803161010466
 21
92.2384548179866499
 31
0.0
  0
LINE
  5
FE18
  8
0
 10
821.6611615206558099
 20
92.250004368445218
 30
0.0
 11
821.6605246115295813
 21
92.2482429698611668
 31
0.0
  0
LINE
  5
FE19
  8
0
 10
821.6616527526393838
 20
92.2515163498043762
 30
0.0
 11
821.6634433264395057
 21
92.2570272328224803
 31
0.0
  0
LINE
  5
FE1A
  8
0
 10
821.6644401558172603
 20
92.2600951799400377
 30
0.0
 11
821.6674837227449189
 21
92.2694622638262842
 31
0.0
  0
LINE
  5
FE1B
  8
0
 10
821.6690169169288538
 20
92.2741810571719299
 30
0.0
 11
821.6710539015538188
 21
92.2797958231609954
 31
0.0
  0
LINE
  5
FE1C
  8
0
 10
821.6367399910676568
 20
92.2649310700787453
 30
0.0
 11
821.6379424117786812
 21
92.2686318140981996
 31
0.0
  0
LINE
  5
FE1D
  8
0
 10
821.638895255698344
 20
92.2708299867928758
 30
0.0
 11
821.6411346621010807
 21
92.2784565348866153
 31
0.0
  0
LINE
  5
FE1E
  8
0
 10
821.642412312185229
 20
92.2823888486457946
 30
0.0
 11
821.6447576129611434
 21
92.2883400527487652
 31
0.0
  0
LINE
  5
FE1F
  8
0
 10
821.6133071947734834
 20
92.2829007242352617
 30
0.0
 11
821.6126337704004072
 21
92.2812088237194814
 31
0.0
  0
LINE
  5
FE20
  8
0
 10
821.6138130861942273
 20
92.2844577281471459
 30
0.0
 11
821.6156577302220967
 21
92.2901350212822678
 31
0.0
  0
LINE
  5
FE21
  8
0
 10
821.6168028069006368
 20
92.2932264626956851
 30
0.0
 11
821.6179757916248718
 21
92.2970420423648079
 31
0.0
  0
LINE
  5
FE22
  8
0
 10
821.5898228395011529
 20
92.3007116416866324
 30
0.0
 11
821.5910686056595296
 21
92.3045457885682055
 31
0.0
  0
LINE
  5
FE23
  8
0
 10
821.8371541157481488
 20
92.1755873368138055
 30
0.0
 11
821.8519192025980828
 21
92.2210287999938316
 31
0.0
  0
ARC
  5
FE24
  8
0
 10
821.9694238421767523
 20
92.7489793575164185
 30
0.0
 40
0.5884502442304878
 50
257.0102700731912932
 51
275.7966688874109877
  0
LINE
  5
FE25
  8
0
 10
821.8110032587170508
 20
92.2343232681587608
 30
0.0
 11
821.8188336828702631
 21
92.2296599177169014
 31
0.0
  0
LINE
  5
FE26
  8
0
 10
821.8188336828702631
 20
92.2296599177169014
 30
0.0
 11
821.8166623686049661
 21
92.2225514054037774
 31
0.0
  0
LINE
  5
FE27
  8
0
 10
821.8166623686049661
 20
92.2225514054037774
 30
0.0
 11
821.837253252502137
 21
92.2165081035065839
 31
0.0
  0
LINE
  5
FE28
  8
0
 10
821.837253252502137
 20
92.2165081035065839
 30
0.0
 11
821.8399823601952221
 21
92.2249073362381466
 31
0.0
  0
LINE
  5
FE29
  8
0
 10
821.837253252502137
 20
92.2165081035065839
 30
0.0
 11
821.8503487169556365
 21
92.2161954274428695
 31
0.0
  0
LINE
  5
FE2A
  8
0
 10
821.8020475274011005
 20
92.2331651826866334
 30
0.0
 11
821.8168795788261605
 21
92.2232625145951062
 31
0.0
  0
LINE
  5
FE2B
  8
0
 10
821.8693163527293564
 20
92.1726489327801488
 30
0.0
 11
821.8701352302665555
 21
92.1724528772364522
 31
0.0
  0
LINE
  5
FE2C
  8
0
 10
821.8701352302665555
 20
92.1724528772364522
 30
0.0
 11
821.8875468253907002
 21
92.1708725543442426
 31
0.0
  0
LINE
  5
FE2D
  8
0
 10
821.8875468253907002
 20
92.1708725543442426
 30
0.0
 11
821.8884291401325299
 21
92.1735879779627965
 31
0.0
  0
LINE
  5
FE2E
  8
0
 10
821.8884291401325299
 20
92.1735879779627965
 30
0.0
 11
821.8718923467540662
 21
92.1778606022409832
 31
0.0
  0
LINE
  5
FE2F
  8
0
 10
821.8718923467540662
 20
92.1778606022409832
 30
0.0
 11
821.8710298048788445
 21
92.1779222756832439
 31
0.0
  0
LINE
  5
FE30
  8
0
 10
821.8710298048788445
 20
92.1779222756832439
 30
0.0
 11
821.8693163527293564
 21
92.1726489327801488
 31
0.0
  0
LINE
  5
FE31
  8
0
 10
821.883762161702748
 20
92.1794713154086764
 30
0.0
 11
821.8825782156428659
 21
92.1758275708401555
 31
0.0
  0
LINE
  5
FE32
  8
0
 10
821.8825782156428659
 20
92.1758275708401555
 30
0.0
 11
821.8992239867809531
 21
92.171890344138788
 31
0.0
  0
LINE
  5
FE33
  8
0
 10
821.8992239867809531
 20
92.171890344138788
 30
0.0
 11
821.9170606099396537
 21
92.1716181158467833
 31
0.0
  0
LINE
  5
FE34
  8
0
 10
821.9170606099396537
 20
92.1716181158467833
 30
0.0
 11
821.9182585309691831
 21
92.1753048706314502
 31
0.0
  0
LINE
  5
FE35
  8
0
 10
821.9182585309691831
 20
92.1753048706314502
 30
0.0
 11
821.9016057719652508
 21
92.1792205911610836
 31
0.0
  0
LINE
  5
FE36
  8
0
 10
821.9016057719652508
 20
92.1792205911610836
 30
0.0
 11
821.8837621616448814
 21
92.1794713154050953
 31
0.0
  0
LINE
  5
FE37
  8
0
 10
821.8864984318133793
 20
92.1878925571454317
 30
0.0
 11
821.9028518342410052
 21
92.1830555168734236
 31
0.0
  0
LINE
  5
FE38
  8
0
 10
821.9028518342410052
 20
92.1830555168734236
 30
0.0
 11
821.9210278426137393
 21
92.1838278032811616
 31
0.0
  0
LINE
  5
FE39
  8
0
 10
821.9210278426137393
 20
92.1838278032811616
 30
0.0
 11
821.9228699255496622
 21
92.1894970738412667
 31
0.0
  0
LINE
  5
FE3A
  8
0
 10
821.9228699255496622
 20
92.1894970738412667
 30
0.0
 11
821.9065133548833728
 21
92.1943244574262906
 31
0.0
  0
LINE
  5
FE3B
  8
0
 10
821.9065133548833728
 20
92.1943244574262906
 30
0.0
 11
821.8883179492663658
 21
92.1934923787516709
 31
0.0
  0
LINE
  5
FE3C
  8
0
 10
821.8883179492663658
 20
92.1934923787516709
 30
0.0
 11
821.8864984318133793
 21
92.1878925571454317
 31
0.0
  0
LINE
  5
FE3D
  8
0
 10
821.8929349599677607
 20
92.2077019002844622
 30
0.0
 11
821.8922652244294795
 21
92.2056406906366846
 31
0.0
  0
LINE
  5
FE3E
  8
0
 10
821.8922652244294795
 20
92.2056406906366846
 30
0.0
 11
821.9083114370311023
 21
92.1998582223070144
 31
0.0
  0
LINE
  5
FE3F
  8
0
 10
821.9083114370311023
 20
92.1998582223070144
 30
0.0
 11
821.9151728417456297
 21
92.2004763353015164
 31
0.0
  0
LINE
  5
FE40
  8
0
 10
821.9194112555127276
 20
92.1990991837182179
 30
0.0
 11
821.9173095594810547
 21
92.1926309088550653
 31
0.0
  0
LINE
  5
FE41
  8
0
 10
821.9173095594810547
 20
92.1926309088550653
 30
0.0
 11
821.9337799329075551
 21
92.1881538660882853
 31
0.0
  0
LINE
  5
FE42
  8
0
 10
821.9337799329075551
 20
92.1881538660882853
 30
0.0
 11
821.9480970482089788
 21
92.189778554114838
 31
0.0
  0
LINE
  5
FE43
  8
0
 10
821.9124385036670901
 20
92.1776395547737479
 30
0.0
 11
821.9292030940621316
 21
92.1740680141138
 31
0.0
  0
LINE
  5
FE44
  8
0
 10
821.9292030940621316
 20
92.1740680141138
 30
0.0
 11
821.9474893950788328
 21
92.1751797445837866
 31
0.0
  0
LINE
  5
FE45
  8
0
 10
821.9474893950788328
 20
92.1751797445837866
 30
0.0
 11
821.9490229485835471
 21
92.1798994642517187
 31
0.0
  0
LINE
  5
FE46
  8
0
 10
821.9490229485835471
 20
92.1798994642517187
 30
0.0
 11
821.9322466606912485
 21
92.1834350980970072
 31
0.0
  0
LINE
  5
FE47
  8
0
 10
821.9322466606912485
 20
92.1834350980970072
 30
0.0
 11
821.9139487269718529
 21
92.1822874722018071
 31
0.0
  0
LINE
  5
FE48
  8
0
 10
821.9139487269718529
 20
92.1822874722018071
 30
0.0
 11
821.9124385036670901
 21
92.1776395547737479
 31
0.0
  0
LINE
  5
FE49
  8
0
 10
821.9093639591765168
 20
92.1681772642820789
 30
0.0
 11
821.9264156130802803
 21
92.1654892092582969
 31
0.0
  0
LINE
  5
FE4A
  8
0
 10
821.9264156130802803
 20
92.1654892092582969
 30
0.0
 11
821.9443686124607211
 21
92.1655751485917278
 31
0.0
  0
LINE
  5
FE4B
  8
0
 10
821.9443686124607211
 20
92.1655751485917278
 30
0.0
 11
821.9452705895644158
 21
92.1683510863099116
 31
0.0
  0
LINE
  5
FE4C
  8
0
 10
821.9452705895644158
 20
92.1683510863099116
 30
0.0
 11
821.9282062419973727
 21
92.1710000743676687
 31
0.0
  0
LINE
  5
FE4D
  8
0
 10
821.9282062419973727
 20
92.1710000743676687
 30
0.0
 11
821.9102527394821891
 21
92.1709125868123635
 31
0.0
  0
LINE
  5
FE4E
  8
0
 10
821.9102527394821891
 20
92.1709125868123635
 30
0.0
 11
821.9093639591765168
 21
92.1681772642820789
 31
0.0
  0
LINE
  5
FE4F
  8
0
 10
821.9392302780129285
 20
92.1700078035130161
 30
0.0
 11
821.9561790931019232
 21
92.1677376526647265
 31
0.0
  0
LINE
  5
FE50
  8
0
 10
821.9561790931019232
 20
92.1677376526647265
 30
0.0
 11
821.9748166732022128
 21
92.1691961009025249
 31
0.0
  0
LINE
  5
FE51
  8
0
 10
821.9748166732022128
 20
92.1691961009025249
 30
0.0
 11
821.9760485767983482
 21
92.1729874427369253
 31
0.0
  0
LINE
  5
FE52
  8
0
 10
821.9760485767983482
 20
92.1729874427369253
 30
0.0
 11
821.9588501719215401
 21
92.1752239411177356
 31
0.0
  0
LINE
  5
FE53
  8
0
 10
821.9588501719215401
 20
92.1752239411177356
 30
0.0
 11
821.9404396126244592
 21
92.173729691080581
 31
0.0
  0
LINE
  5
FE54
  8
0
 10
821.9404396126244592
 20
92.173729691080581
 30
0.0
 11
821.9392302780129285
 21
92.1700078035130161
 31
0.0
  0
LINE
  5
FE55
  8
0
 10
821.9432359337090475
 20
92.1823357498469562
 30
0.0
 11
821.9601279000169143
 21
92.1791562295293545
 31
0.0
  0
LINE
  5
FE56
  8
0
 10
821.9601279000169143
 20
92.1791562295293545
 30
0.0
 11
821.9748254484036352
 21
92.1810939233380537
 31
0.0
  0
LINE
  5
FE57
  8
0
 10
821.9432359337090475
 20
92.1823357498469562
 30
0.0
 11
821.9450964788508145
 21
92.1880618407061121
 31
0.0
  0
LINE
  5
FE58
  8
0
 10
821.9450964788508145
 20
92.1880618407061121
 30
0.0
 11
821.9510681111429449
 21
92.1888131920127734
 31
0.0
  0
LINE
  5
FE59
  8
0
 10
821.9369895239693733
 20
92.1631116477253869
 30
0.0
 11
821.9544554230753874
 21
92.1616985015928947
 31
0.0
  0
LINE
  5
FE5A
  8
0
 10
821.9544554230753874
 20
92.1616985015928947
 30
0.0
 11
821.9725349495289493
 21
92.1621738489076563
 31
0.0
  0
LINE
  5
FE5B
  8
0
 10
821.9725349495289493
 20
92.1621738489076563
 30
0.0
 11
821.9731416529523358
 21
92.1640410326396307
 31
0.0
  0
LINE
  5
FE5C
  8
0
 10
821.9731416529523358
 20
92.1640410326396307
 30
0.0
 11
821.9556578989866011
 21
92.1653992276766019
 31
0.0
  0
LINE
  5
FE5D
  8
0
 10
821.9556578989866011
 20
92.1653992276766019
 30
0.0
 11
821.9375854364163843
 21
92.1649456206632465
 31
0.0
  0
LINE
  5
FE5E
  8
0
 10
821.9375854364163843
 20
92.1649456206632465
 30
0.0
 11
821.9369895239693733
 21
92.1631116477253869
 31
0.0
  0
LINE
  5
FE5F
  8
0
 10
821.9668784222627664
 20
92.1650116845200245
 30
0.0
 11
821.9844811678774477
 21
92.1640197063423159
 31
0.0
  0
LINE
  5
FE60
  8
0
 10
821.9844811678774477
 20
92.1640197063423159
 30
0.0
 11
822.0030227695990561
 21
92.1659171671284554
 31
0.0
  0
LINE
  5
FE61
  8
0
 10
822.0030227695990561
 20
92.1659171671284554
 30
0.0
 11
822.0039553766050631
 21
92.168787373984145
 31
0.0
  0
LINE
  5
FE62
  8
0
 10
822.0039553766050631
 20
92.168787373984145
 30
0.0
 11
821.986325867010919
 21
92.1696969815724572
 31
0.0
  0
LINE
  5
FE63
  8
0
 10
821.986325867010919
 20
92.1696969815724572
 30
0.0
 11
821.9677908258380512
 21
92.167819711849134
 31
0.0
  0
LINE
  5
FE64
  8
0
 10
821.9677908258380512
 20
92.167819711849134
 30
0.0
 11
821.9668784222627664
 21
92.1650116845200245
 31
0.0
  0
LINE
  5
FE65
  8
0
 10
821.9700357556861263
 20
92.1747287717817869
 30
0.0
 11
821.9872165944334483
 21
92.172871066522589
 31
0.0
  0
LINE
  5
FE66
  8
0
 10
821.9872165944334483
 20
92.172871066522589
 30
0.0
 11
821.9962076696591566
 21
92.1741463808201047
 31
0.0
  0
LINE
  5
FE67
  8
0
 10
821.9700357556861263
 20
92.1747287717817869
 30
0.0
 11
821.9715877713246073
 21
92.1795053119498817
 31
0.0
  0
LINE
  5
FE68
  8
0
 10
821.9715877713246073
 20
92.1795053119498817
 30
0.0
 11
821.9772207939289501
 21
92.1803156241761883
 31
0.0
  0
LINE
  5
FE69
  8
0
 10
821.9654439600371916
 20
92.1605425720644149
 30
0.0
 11
821.9657727133346725
 21
92.1616087668616473
 31
0.0
  0
LINE
  5
FE6A
  8
0
 10
821.9657727133346725
 20
92.1616087668616473
 30
0.0
 11
821.9839752536717015
 21
92.1624627098337612
 31
0.0
  0
LINE
  5
FE6B
  8
0
 10
821.9839752536717015
 20
92.1624627098337612
 30
0.0
 11
822.0018928711338049
 21
92.1624398021861566
 31
0.0
  0
LINE
  5
FE6C
  8
0
 10
822.0018928711338049
 20
92.1624398021861566
 30
0.0
 11
822.0015549155317558
 21
92.161406992560444
 31
0.0
  0
LINE
  5
FE6D
  8
0
 10
821.9954006007807266
 20
92.1627055464993248
 30
0.0
 11
822.0134434927509801
 21
92.1630681919419885
 31
0.0
  0
LINE
  5
FE6E
  8
0
 10
822.0134434927509801
 20
92.1630681919419885
 30
0.0
 11
822.0258100192645543
 21
92.164527942208835
 31
0.0
  0
LINE
  5
FE6F
  8
0
 10
821.9954006007807266
 20
92.1627055464993248
 30
0.0
 11
821.9960156604705617
 21
92.1645984480555001
 31
0.0
  0
LINE
  5
FE70
  8
0
 10
821.9960156604705617
 20
92.1645984480555001
 30
0.0
 11
822.0146893141244391
 21
92.1669023208830254
 31
0.0
  0
LINE
  5
FE71
  8
0
 10
822.0146893141244391
 20
92.1669023208830254
 30
0.0
 11
822.0184034033297849
 21
92.1669345106614912
 31
0.0
  0
LINE
  5
FE72
  8
0
 10
822.0109991474867002
 20
92.1693403122697958
 30
0.0
 11
821.997714066784738
 21
92.1698254909073853
 31
0.0
  0
LINE
  5
FE73
  8
0
 10
821.997714066784738
 20
92.1698254909073853
 30
0.0
 11
821.9988401130979128
 21
92.1732910434583346
 31
0.0
  0
LINE
  5
FE74
  8
0
 10
821.9079775236392607
 20
92.1637460366322898
 30
0.0
 11
821.908286557989527
 21
92.1648614684863645
 31
0.0
  0
LINE
  5
FE75
  8
0
 10
821.908286557989527
 20
92.1648614684863645
 30
0.0
 11
821.9259243028789115
 21
92.1639772533138313
 31
0.0
  0
LINE
  5
FE76
  8
0
 10
821.9259243028789115
 20
92.1639772533138313
 30
0.0
 11
821.9432753945781087
 21
92.1622106741048555
 31
0.0
  0
LINE
  5
FE77
  8
0
 10
821.9432753945781087
 20
92.1622106741048555
 30
0.0
 11
821.9430040784991434
 21
92.1611224990703164
 31
0.0
  0
LINE
  5
FE78
  8
0
 10
821.8803836136022483
 20
92.1690734500372741
 30
0.0
 11
821.8973164085451799
 21
92.1660195866607808
 31
0.0
  0
LINE
  5
FE79
  8
0
 10
821.8973164085451799
 20
92.1660195866607808
 30
0.0
 11
821.9148405994503719
 21
92.1647857962329482
 31
0.0
  0
LINE
  5
FE7A
  8
0
 10
821.9148405994503719
 20
92.1647857962329482
 30
0.0
 11
821.9154310468197764
 21
92.1666029495249148
 31
0.0
  0
LINE
  5
FE7B
  8
0
 10
821.9154310468197764
 20
92.1666029495249148
 30
0.0
 11
821.8984905265112957
 21
92.1696331308750132
 31
0.0
  0
LINE
  5
FE7C
  8
0
 10
821.8984905265112957
 20
92.1696331308750132
 30
0.0
 11
821.8809673643804672
 21
92.1708699935437039
 31
0.0
  0
LINE
  5
FE7D
  8
0
 10
821.8809673643804672
 20
92.1708699935437039
 30
0.0
 11
821.8803836135466554
 21
92.1690734499511706
 31
0.0
  0
LINE
  5
FE7E
  8
0
 10
821.8682355195512628
 20
92.1692944316307035
 30
0.0
 11
821.8688055914319648
 21
92.171077020942306
 31
0.0
  0
LINE
  5
FE7F
  8
0
 10
821.8688055914319648
 20
92.171077020942306
 30
0.0
 11
821.8696530293764226
 21
92.1709688624595174
 31
0.0
  0
LINE
  5
FE80
  8
0
 10
821.8696530293764226
 20
92.1709688624595174
 30
0.0
 11
821.8864771762791861
 21
92.1675806167240239
 31
0.0
  0
LINE
  5
FE81
  8
0
 10
821.8864771762791861
 20
92.1675806167240239
 30
0.0
 11
821.8861074395152855
 21
92.1664571974379783
 31
0.0
  0
LINE
  5
FE82
  8
0
 10
821.8720656242187488
 20
92.1811101412396852
 30
0.0
 11
821.8728702509301911
 21
92.1808702263401756
 31
0.0
  0
LINE
  5
FE83
  8
0
 10
821.8728702509301911
 20
92.1808702263401756
 30
0.0
 11
821.8905987256806611
 21
92.1802651535361406
 31
0.0
  0
LINE
  5
FE84
  8
0
 10
821.8905987256806611
 20
92.1802651535361406
 30
0.0
 11
821.8920473351448663
 21
92.1848936497141267
 31
0.0
  0
LINE
  5
FE85
  8
0
 10
821.8920473351448663
 20
92.1848936497141267
 30
0.0
 11
821.8758546646736249
 21
92.1900551636882426
 31
0.0
  0
LINE
  5
FE86
  8
0
 10
821.8758546646736249
 20
92.1900551636882426
 30
0.0
 11
821.8749758451917842
 21
92.1900667402651095
 31
0.0
  0
LINE
  5
FE87
  8
0
 10
821.8749758451917842
 20
92.1900667402651095
 30
0.0
 11
821.8720656242187488
 21
92.1811101412396852
 31
0.0
  0
LINE
  5
FE88
  8
0
 10
821.8765674452386065
 20
92.1949651813389153
 30
0.0
 11
821.8773573067486495
 21
92.1946797563720395
 31
0.0
  0
LINE
  5
FE89
  8
0
 10
821.8773573067486495
 20
92.1946797563720395
 30
0.0
 11
821.8954322399659986
 21
92.1951409668619704
 31
0.0
  0
LINE
  5
FE8A
  8
0
 10
821.8954322399659986
 20
92.1951409668619704
 30
0.0
 11
821.8975945346103344
 21
92.2017957425905195
 31
0.0
  0
LINE
  5
FE8B
  8
0
 10
821.8975945346103344
 20
92.2017957425905195
 30
0.0
 11
821.881661811972549
 21
92.2079274951747152
 31
0.0
  0
LINE
  5
FE8C
  8
0
 10
821.881661811972549
 20
92.2079274951747152
 30
0.0
 11
821.88076488742729
 21
92.2078833503396993
 31
0.0
  0
LINE
  5
FE8D
  8
0
 10
821.88076488742729
 20
92.2078833503396993
 30
0.0
 11
821.8765674452386065
 21
92.1949651813389153
 31
0.0
  0
LINE
  5
FE8E
  8
0
 10
821.8696530293764226
 20
92.1709688624595174
 30
0.0
 11
821.8690958776194293
 21
92.1691449074682083
 31
0.0
  0
LINE
  5
FE8F
  8
0
 10
821.8718923467540662
 20
92.1778606022409832
 30
0.0
 11
821.8701352302665555
 21
92.1724528772364522
 31
0.0
  0
LINE
  5
FE90
  8
0
 10
821.8758546646736249
 20
92.1900551636882426
 30
0.0
 11
821.873095934888056
 21
92.1808029343359578
 31
0.0
  0
LINE
  5
FE91
  8
0
 10
821.881661811972549
 20
92.2079274951747152
 30
0.0
 11
821.8773573067486495
 21
92.1946797563720395
 31
0.0
  0
LINE
  5
FE92
  8
0
 10
821.9028518342410052
 20
92.1830555168734236
 30
0.0
 11
821.9065133548833728
 21
92.1943244574262906
 31
0.0
  0
LINE
  5
FE93
  8
0
 10
821.9083114370311023
 20
92.1998582223070144
 30
0.0
 11
821.9090400148064646
 21
92.2024690223757943
 31
0.0
  0
LINE
  5
FE94
  8
0
 10
821.8992239867809531
 20
92.171890344138788
 30
0.0
 11
821.9016057719652508
 21
92.1792205911610836
 31
0.0
  0
LINE
  5
FE95
  8
0
 10
821.8973164085451799
 20
92.1660195866607808
 30
0.0
 11
821.8984905265112957
 21
92.1696331308750132
 31
0.0
  0
LINE
  5
FE96
  8
0
 10
821.9259243028789115
 20
92.1639772533138313
 30
0.0
 11
821.9254042432672804
 21
92.1621778878124331
 31
0.0
  0
LINE
  5
FE97
  8
0
 10
821.9264156130802803
 20
92.1654892092582969
 30
0.0
 11
821.9282062419973727
 21
92.1710000743676687
 31
0.0
  0
LINE
  5
FE98
  8
0
 10
821.9292030940621316
 20
92.1740680141138
 30
0.0
 11
821.9322466606912485
 21
92.1834350980970072
 31
0.0
  0
LINE
  5
FE99
  8
0
 10
821.9337799329075551
 20
92.1881538660882853
 30
0.0
 11
821.9354322728966054
 21
92.1938936113819238
 31
0.0
  0
LINE
  5
FE9A
  8
0
 10
821.9544554230753874
 20
92.1616985015928947
 30
0.0
 11
821.9556578989866011
 21
92.1653992276766019
 31
0.0
  0
LINE
  5
FE9B
  8
0
 10
821.9561790931019232
 20
92.1677376526647265
 30
0.0
 11
821.9588501719215401
 21
92.1752239411177356
 31
0.0
  0
LINE
  5
FE9C
  8
0
 10
821.9601279000169143
 20
92.1791562295293545
 30
0.0
 11
821.9617285618253391
 21
92.1853493828279937
 31
0.0
  0
LINE
  5
FE9D
  8
0
 10
821.9839752536717015
 20
92.1624627098337612
 30
0.0
 11
821.9835255855673495
 21
92.1606981060998294
 31
0.0
  0
LINE
  5
FE9E
  8
0
 10
821.9844811678774477
 20
92.1640197063423159
 30
0.0
 11
821.986325867010919
 21
92.1696969815724572
 31
0.0
  0
LINE
  5
FE9F
  8
0
 10
821.9872165944334483
 20
92.172871066522589
 30
0.0
 11
821.9885103835035807
 21
92.1766473942648048
 31
0.0
  0
LINE
  5
FEA0
  8
0
 10
822.0134434927509801
 20
92.1630681919419885
 30
0.0
 11
822.0146893141244391
 21
92.1669023208830254
 31
0.0
  0
LINE
  5
FEA1
  8
0
 10
823.0583036852650594
 20
94.0456794716866256
 30
0.0
 11
823.9292672159369886
 21
94.0456794716866256
 31
0.0
  0
LINE
  5
FEA2
  8
0
 10
823.0397917406369288
 20
94.0192416748598561
 30
0.0
 11
823.1591350006509629
 21
93.6913487629866353
 31
0.0
  0
LINE
  5
FEA3
  8
0
 10
823.1591350006509629
 20
93.6913487629866353
 30
0.0
 11
823.1591350006509629
 21
93.2976479755866563
 31
0.0
  0
ARC
  5
FEA4
  8
0
 10
823.0583036852650594
 20
94.0259794716866253
 30
0.0
 40
0.0197
 50
90.0
 51
200.0000000101103126
  0
LINE
  5
FEA5
  8
0
 10
823.1591350006509629
 20
93.2976479755866563
 30
0.0
 11
823.8284359005510851
 21
93.2976479755866563
 31
0.0
  0
LINE
  5
FEA6
  8
0
 10
823.2713357231613145
 20
93.1835590077430993
 30
0.0
 11
823.2713357231613145
 21
93.2976479755866563
 31
0.0
  0
LINE
  5
FEA7
  8
0
 10
823.9477791605653465
 20
94.0192416748598561
 30
0.0
 11
823.8284359005510851
 21
93.6913487629866353
 31
0.0
  0
LINE
  5
FEA8
  8
0
 10
823.8284359005510851
 20
93.6913487629866353
 30
0.0
 11
823.8284359005510851
 21
93.2976479755866563
 31
0.0
  0
ARC
  5
FEA9
  8
0
 10
823.9292672159369886
 20
94.0259794716866253
 30
0.0
 40
0.0197
 50
339.9999999898897158
 51
90.0
  0
LINE
  5
FEAA
  8
0
 10
823.7162351780408471
 20
93.1835590077430993
 30
0.0
 11
823.7162351780408471
 21
93.2976479755866563
 31
0.0
  0
LINE
  5
FEAB
  8
0
 10
822.9139196291010876
 20
95.2329398108736314
 30
0.0
 11
826.8441731495011027
 21
95.2329398108736314
 31
0.0
  0
LINE
  5
FEAC
  8
0
 10
822.8824196291011503
 20
95.2014398108736231
 30
0.0
 11
822.8824196291011503
 21
95.0766479149304047
 31
0.0
  0
ARC
  5
FEAD
  8
0
 10
822.9139196291010876
 20
95.2014398108736231
 30
0.0
 40
0.0315
 50
89.9999999999934914
 51
180.0000000000032117
  0
ARC
  5
FEAE
  8
0
 10
822.9139196291010876
 20
95.0766479149304047
 30
0.0
 40
0.0315
 50
179.9999999999955094
 51
270.0000000000064801
  0
LINE
  5
FEAF
  8
0
 10
826.8756731495011536
 20
95.2014398108736231
 30
0.0
 11
826.8756731495011536
 21
94.6808867885912946
 31
0.0
  0
LINE
  5
FEB0
  8
0
 10
826.8574856241202724
 20
94.6523380930078702
 30
0.0
 11
826.1126323694634266
 21
94.3050073360355583
 31
0.0
  0
ARC
  5
FEB1
  8
0
 10
826.8441731495011027
 20
95.2014398108736231
 30
0.0
 40
0.0315
 50
359.9999999999947136
 51
90.0000000000065086
  0
ARC
  5
FEB2
  8
0
 10
826.8441731495011027
 20
94.6808867885912946
 30
0.0
 40
0.0315
 50
294.9999987441738085
 51
359.9999999999947136
  0
LINE
  5
FEB3
  8
0
 10
825.2221298424010456
 20
94.2878207154387553
 30
0.0
 11
825.2221298424010456
 21
94.5594376065147912
 31
0.0
  0
LINE
  5
FEB4
  8
0
 10
825.2221298424010456
 20
94.8442715370326823
 30
0.0
 11
825.2221298424010456
 21
94.8843687179524693
 31
0.0
  0
ARC
  5
FEB5
  8
0
 10
825.2418298424011027
 20
94.2878207154387553
 30
0.0
 40
0.0197
 50
180.0
 51
270.0
  0
ARC
  5
FEB6
  8
0
 10
825.9462475676367603
 20
94.6618207154387363
 30
0.0
 40
0.3937
 50
270.0
 51
294.9999987441801181
  0
LINE
  5
FEB7
  8
0
 10
825.1924149425954056
 20
94.915818096599665
 30
0.0
 11
822.9139196291010876
 21
95.0451479149304248
 31
0.0
  0
ARC
  5
FEB8
  8
0
 10
825.1906298424009947
 20
94.8843687179524693
 30
0.0
 40
0.0315
 50
0.0
 51
86.7513164886733108
  0
LINE
  5
FEB9
  8
0
 10
825.1924149425954056
 20
94.915818096599665
 30
0.0
 11
825.7161020351669549
 21
94.9672949013673815
 31
0.0
  0
LINE
  5
FEBA
  8
0
 10
825.7161020351669549
 20
94.9672949013673815
 30
0.0
 11
822.9139196291010876
 21
95.0451479149304248
 31
0.0
  0
ARC
  5
FEBB
  8
0
 10
824.4386522155493822
 20
94.7018545717737368
 30
0.0
 40
0.7963163842159175
 50
349.6975258855301831
 51
10.3024741144686107
  0
LINE
  5
FEBC
  8
0
 10
825.222105624055871
 20
94.1559020326866403
 30
0.0
 11
825.222105624055871
 21
93.419987913328967
 31
0.0
  0
LINE
  5
FEBD
  8
0
 10
826.8756489437646451
 20
94.1559020326866403
 30
0.0
 11
826.8756489437646451
 21
93.419987913328967
 31
0.0
  0
ARC
  5
FEBE
  8
0
 10
825.2418056240557007
 20
94.1559020326866403
 30
0.0
 40
0.0197
 50
90.0000000000130314
 51
180.0000000000052864
  0
ARC
  5
FEBF
  8
0
 10
826.8559489437647017
 20
94.1559020326866403
 30
0.0
 40
0.0197
 50
359.9999999999947136
 51
90.0000000000195257
  0
ARC
  5
FEC0
  8
0
 10
824.9855144003348641
 20
93.4201499635000658
 30
0.0
 40
0.2365912792179826
 50
270.0947434678976151
 51
359.9607559854674719
  0
ARC
  5
FEC1
  8
0
 10
827.112946538613528
 20
93.4141849862018887
 30
0.0
 40
0.2373685372669919
 50
178.5991557090117965
 51
256.3109960684096791
  0
ARC
  5
FEC2
  8
0
 10
826.155130220200931
 20
94.0559251320866849
 30
0.0
 40
0.8665167149998758
 50
165.8250552232707093
 51
172.0613531571090959
  0
ARC
  5
FEC3
  8
0
 10
825.9430119329011859
 20
94.056000320186655
 30
0.0
 40
0.8661402132999283
 50
7.9370980703018157
 51
35.2411420779073126
  0
LINE
  5
FEC4
  8
0
 10
825.8722820440151509
 20
93.1837879133289704
 30
0.0
 11
825.869929168251133
 21
92.1625812717866495
 31
0.0
  0
LINE
  5
FEC5
  8
0
 10
825.869929168251133
 20
92.1625812717866495
 30
0.0
 11
821.1453557235009839
 21
92.5314092911849002
 31
0.0
  0
LINE
  5
FEC6
  8
0
 10
827.0764580857012334
 20
93.163859007743099
 30
0.0
 11
827.0764580857012334
 21
93.1221434013656619
 31
0.0
  0
LINE
  5
FEC7
  8
0
 10
827.0764580857012334
 20
93.1039605928734062
 30
0.0
 11
827.0764580857012334
 21
93.0319042101737068
 31
0.0
  0
LINE
  5
FEC8
  8
0
 10
827.0764580857012334
 20
92.1893845251736792
 30
0.0
 11
827.0764580857012334
 21
92.1192300837614368
 31
0.0
  0
LINE
  5
FEC9
  8
0
 10
827.0646580857011259
 20
93.1157605928734
 30
0.0
 11
827.0567730463010321
 21
93.1157605928734
 31
0.0
  0
LINE
  5
FECA
  8
0
 10
827.0764580857012334
 20
93.1221434013656619
 30
0.0
 11
827.0567730463010321
 21
93.1221434013656619
 31
0.0
  0
LINE
  5
FECB
  8
0
 10
827.0567728744621263
 20
93.1835590077430993
 30
0.0
 11
827.0567730463010321
 21
91.6244201736866444
 31
0.0
  0
ARC
  5
FECC
  8
0
 10
827.0646580857011259
 20
93.1039605928734062
 30
0.0
 40
0.0118
 50
0.0000000000044782
 51
90.0
  0
ARC
  5
FECD
  8
0
 10
827.0564050412295956
 20
92.0578587955276788
 30
0.0
 40
0.0210268523397095
 50
271.002823136095401
 51
342.5088420798895754
  0
LINE
  5
FECE
  8
0
 10
827.0764596822599515
 20
92.1015419367891042
 30
0.0
 11
827.0567730463010321
 21
92.1015419063866432
 31
0.0
  0
LINE
  5
FECF
  8
0
 10
827.0646580857011259
 20
92.107430083761443
 30
0.0
 11
827.0567730463010321
 21
92.107430083761443
 31
0.0
  0
ARC
  5
FED0
  8
0
 10
827.0646580857011259
 20
92.1192300837614368
 30
0.0
 40
0.0118
 50
270.000000000019611
 51
359.9999999999914735
  0
LINE
  5
FED1
  8
0
 10
827.0764596822599515
 20
92.1015419367891042
 30
0.0
 11
827.0764596822599515
 21
91.6547062663169356
 31
0.0
  0
ARC
  5
FED2
  8
0
 10
753.0198811241282328
 20
88.0081754522841635
 30
0.0
 40
70.2480884610386056
 50
358.9671626534602069
 51
1.6379698230290081
  0
ARC
  5
FED3
  8
0
 10
536.848148904623713
 20
85.1362916185087357
 30
0.0
 40
286.9397509233053256
 50
0.4613023834435184
 51
0.9744515282560673
  0
ARC
  5
FED4
  8
0
 10
823.4064404896695351
 20
86.2489219779210146
 30
0.0
 40
0.2987172561006955
 50
208.6599890080618991
 51
264.362860475540117
  0
ARC
  5
FED5
  8
0
 10
823.3441598478544847
 20
86.2831062380536338
 30
0.0
 40
0.3330894850805939
 50
275.6750870077905233
 51
312.6034129692822034
  0
ARC
  5
FED6
  8
0
 10
823.727522461884746
 20
86.3007281191755169
 30
0.0
 40
0.6149610420770052
 50
155.2519676763062932
 51
198.4945155364653999
  0
ARC
  5
FED7
  8
0
 10
825.617310857406892
 20
85.5048682318224564
 30
0.0
 40
2.6652329592469282
 50
138.3829092787904926
 51
156.7215502101880134
  0
ARC
  5
FED8
  8
0
 10
868.3185166496803049
 20
47.3461642910011165
 30
0.0
 40
59.9319633989313587
 50
136.0832970395331927
 51
138.2228015067688034
  0
ARC
  5
FED9
  8
0
 10
816.4848175243947708
 20
97.2988103396259163
 30
0.0
 40
12.0541738044952105
 50
315.9365782725230929
 51
327.9380600849970051
  0
ARC
  5
FEDA
  8
0
 10
821.0970135634897815
 20
94.1630525731219734
 30
0.0
 40
6.4842560931951674
 50
329.7865203966662193
 51
358.3388155568263187
  0
ARC
  5
FEDB
  8
0
 10
810.2417504068055223
 20
94.1799540243851965
 30
0.0
 40
17.3380045877613114
 50
359.3229502698997067
 51
12.5832704289119803
  0
ARC
  5
FEDC
  8
0
 10
856.441422242468434
 20
104.7221640879689062
 30
0.0
 40
30.04951301173244
 50
180.6755968055342976
 51
193.0103962801703119
  0
ARC
  5
FEDD
  8
0
 10
1269.7300032414659654
 20
98.152662587879135
 30
0.0
 40
443.3795686315551734
 50
178.4286434493936042
 51
179.1968157457729944
  0
ARC
  5
FEDE
  8
0
 10
1103.2812909828749071
 20
101.4516468150472974
 30
0.0
 40
276.3921434104989885
 50
178.1867380373728906
 51
179.4190355614364023
  0
ARC
  5
FEDF
  8
0
 10
847.9941556745253592
 20
104.0402812938959016
 30
0.0
 40
21.0918839464536383
 50
179.4190355614364023
 51
191.6873761725690883
  0
ARC
  5
FEE0
  8
0
 10
771.4672332142082496
 20
88.170047891977859
 30
0.0
 40
57.0633125054993471
 50
7.7215229972533717
 51
11.7265618188891398
  0
ARC
  5
FEE1
  8
0
 10
816.6837163736455523
 20
94.4623938807017254
 30
0.0
 40
11.4125092529647993
 50
356.3767177853570161
 51
6.9178449273154801
  0
ARC
  5
FEE2
  8
0
 10
821.0576753722730245
 20
94.1638054179059338
 30
0.0
 40
7.0284567226952879
 50
322.3684661059606924
 51
356.5525938459172153
  0
ARC
  5
FEE3
  8
0
 10
789.0827712845406268
 20
121.0374386757430045
 30
0.0
 40
48.7913661216893502
 50
316.0308856107150177
 51
320.3019508139167897
  0
ARC
  5
FEE4
  8
0
 10
825.9280255313321959
 20
85.3713721037289304
 30
0.0
 40
2.4901667879110589
 50
133.9872770073567096
 51
157.4574687585050015
  0
ARC
  5
FEE5
  8
0
 10
822.9666472202329714
 20
86.5037065002659062
 30
0.0
 40
0.7619307334670962
 50
322.3159854751676789
 51
2.5482342167691701
  0
ARC
  5
FEE6
  8
0
 10
823.8579775240799563
 20
86.2941699281060437
 30
0.0
 40
0.2320549634241473
 50
172.1098294912972904
 51
209.5935173584989002
  0
LINE
  5
FEE8
  8
0
 10
828.5606939353092457
 20
91.311432573558065
 30
0.0
 11
828.4386851133623395
 21
91.311432573558065
 31
0.0
  0
LINE
  5
FEE9
  8
0
 10
828.5606939353092457
 20
93.9098577704581032
 30
0.0
 11
828.4386865796548136
 21
93.9098577704581032
 31
0.0
  0
ARC
  5
FEEA
  8
0
 10
828.5606939353092457
 20
91.3311325735580652
 30
0.0
 40
0.0197
 50
270.0
 51
0.0000000000052924
  0
ARC
  5
FEEB
  8
0
 10
828.5606939353092457
 20
93.890157770458103
 30
0.0
 40
0.0197
 50
359.9999999999881766
 51
90.0000000000130314
  0
ARC
  5
FEEC
  8
0
 10
828.4386865796548136
 20
93.7129577704580754
 30
0.0
 40
0.1969
 50
90.0
 51
142.0000000030146907
  0
ARC
  5
FEED
  8
0
 10
828.4386851133623395
 20
91.508332573558036
 30
0.0
 40
0.1968999999999908
 50
218.0006930272122077
 51
270.0
  0
LINE
  5
FEEE
  8
0
 10
828.2835272622631919
 20
93.8341815149415339
 30
0.0
 11
828.2835272622631919
 21
91.387106952329205
 31
0.0
  0
LINE
  5
FEEF
  8
0
 10
821.1768557235011485
 20
93.1835590077430993
 30
0.0
 11
827.0567728744621263
 21
93.1835590077430993
 31
0.0
  0
ARC
  5
FEF0
  8
0
 10
821.1768557235011485
 20
93.1520590077431052
 30
0.0
 40
0.0315
 50
89.9999999999934914
 51
180.0000000000032117
  0
ARC
  5
FEF1
  8
0
 10
827.0567580762165107
 20
93.1638590038165262
 30
0.0
 40
0.0197000094846591
 50
0.0000114201438108
 51
89.9569605741346408
  0
LINE
  5
FEF2
  8
0
 10
826.328915747142787
 20
111.6654552456205067
 30
0.0
 11
827.2460673713489996
 21
111.6654552456205067
 31
0.0
  0
ARC
  5
FEF3
  8
0
 10
826.328915747142787
 20
111.6536552456204987
 30
0.0
 40
0.0118
 50
90.0
 51
182.385944025920395
  0
ENDSEC
  0
EOF
