  0
SECTION
  2
HEADER
  9
$ACADVER
  1
AC1009
  9
$INSBASE
 10
3956.5148089870058357
 20
67.4491094967126799
 30
0.0
  9
$EXTMIN
 10
3954.2893854702688259
 20
64.1813878166205853
 30
0.0
  9
$EXTMAX
 10
3958.7402325037410264
 20
70.7168268945131757
 30
0.0
  9
$LIMMIN
 10
0.0
 20
0.0
  9
$LIMMAX
 10
11.6929133858000007
 20
8.2677165353999982
  9
$ORTHOMODE
 70
     0
  9
$REGENMODE
 70
     1
  9
$FILLMODE
 70
     1
  9
$QTEXTMODE
 70
     0
  9
$MIRRTEXT
 70
     0
  9
$DRAGMODE
 70
     2
  9
$LTSCALE
 40
0.6431102362
  9
$OSMODE
 70
  2039
  9
$ATTMODE
 70
     1
  9
$TEXTSIZE
 40
0.2
  9
$TRACEWID
 40
0.05
  9
$TEXTSTYLE
  7
STANDARD
  9
$CLAYER
  8
0
  9
$CELTYPE
  6
BYLAYER
  9
$CECOLOR
 62
   256
  9
$DIMSCALE
 40
1.0
  9
$DIMASZ
 40
0.1875
  9
$DIMEXO
 40
0.0625
  9
$DIMDLI
 40
0.4443307087
  9
$DIMRND
 40
0.0
  9
$DIMDLE
 40
0.0
  9
$DIMEXE
 40
0.125
  9
$DIMTP
 40
0.01
  9
$DIMTM
 40
0.01
  9
$DIMTXT
 40
2.0
  9
$DIMCEN
 40
0.1052362205
  9
$DIMTSZ
 40
0.0
  9
$DIMTOL
 70
     1
  9
$DIMLIM
 70
     0
  9
$DIMTIH
 70
     1
  9
$DIMTOH
 70
     1
  9
$DIMSE1
 70
     0
  9
$DIMSE2
 70
     0
  9
$DIMTAD
 70
     0
  9
$DIMZIN
 70
     0
  9
$DIMBLK
  1

  9
$DIMASO
 70
     1
  9
$DIMSHO
 70
     1
  9
$DIMPOST
  1
\X
  9
$DIMAPOST
  1

  9
$DIMALT
 70
     1
  9
$DIMALTD
 70
     2
  9
$DIMALTF
 40
25.3999999999999986
  9
$DIMLFAC
 40
1.0
  9
$DIMTOFL
 70
     0
  9
$DIMTVP
 40
0.0
  9
$DIMTIX
 70
     0
  9
$DIMSOXD
 70
     0
  9
$DIMSAH
 70
     0
  9
$DIMBLK1
  1

  9
$DIMBLK2
  1

  9
$DIMSTYLE
  2
STANDARD
  9
$DIMCLRD
 70
     0
  9
$DIMCLRE
 70
     0
  9
$DIMCLRT
 70
     0
  9
$DIMTFAC
 40
1.0
  9
$DIMGAP
 40
0.09
  9
$LUNITS
 70
     2
  9
$LUPREC
 70
     4
  9
$SKETCHINC
 40
0.1
  9
$FILLETRAD
 40
0.0
  9
$AUNITS
 70
     0
  9
$AUPREC
 70
     0
  9
$MENU
  1
.
  9
$ELEVATION
 40
0.0
  9
$PELEVATION
 40
0.0
  9
$THICKNESS
 40
0.0
  9
$LIMCHECK
 70
     0
  9
$BLIPMODE
 70
     0
  9
$CHAMFERA
 40
0.0
  9
$CHAMFERB
 40
0.0
  9
$SKPOLY
 70
     0
  9
$TDCREATE
 40
2458060.468368056230247
  9
$TDUPDATE
 40
2459137.7539699068292975
  9
$TDINDWG
 40
0.424509375
  9
$TDUSRTIMER
 40
0.424509375
  9
$USRTIMER
 70
     1
  9
$ANGBASE
 50
0.0
  9
$ANGDIR
 70
     0
  9
$PDMODE
 70
     0
  9
$PDSIZE
 40
0.3125
  9
$PLINEWID
 40
0.0
  9
$COORDS
 70
     1
  9
$SPLFRAME
 70
     0
  9
$SPLINETYPE
 70
     6
  9
$SPLINESEGS
 70
     8
  9
$ATTDIA
 70
     1
  9
$ATTREQ
 70
     1
  9
$HANDLING
 70
     1
  9
$HANDSEED
  5
83B1
  9
$SURFTAB1
 70
     6
  9
$SURFTAB2
 70
     6
  9
$SURFTYPE
 70
     6
  9
$SURFU
 70
     6
  9
$SURFV
 70
     6
  9
$UCSNAME
  2

  9
$UCSORG
 10
0.0
 20
0.0
 30
0.0
  9
$UCSXDIR
 10
1.0
 20
0.0
 30
0.0
  9
$UCSYDIR
 10
0.0
 20
1.0
 30
0.0
  9
$PUCSNAME
  2

  9
$PUCSORG
 10
0.0
 20
0.0
 30
0.0
  9
$PUCSXDIR
 10
1.0
 20
0.0
 30
0.0
  9
$PUCSYDIR
 10
0.0
 20
1.0
 30
0.0
  9
$USERI1
 70
     0
  9
$USERI2
 70
     0
  9
$USERI3
 70
     0
  9
$USERI4
 70
     0
  9
$USERI5
 70
     0
  9
$USERR1
 40
0.0
  9
$USERR2
 40
0.0
  9
$USERR3
 40
0.0
  9
$USERR4
 40
0.0
  9
$USERR5
 40
0.0
  9
$WORLDVIEW
 70
     1
  9
$SHADEDGE
 70
     3
  9
$SHADEDIF
 70
    70
  9
$TILEMODE
 70
     1
  9
$MAXACTVP
 70
    64
  9
$PLIMCHECK
 70
     0
  9
$PEXTMIN
 10
1.0000000000000000E+20
 20
1.0000000000000000E+20
 30
1.0000000000000000E+20
  9
$PEXTMAX
 10
-1.0000000000000000E+20
 20
-1.0000000000000000E+20
 30
-1.0000000000000000E+20
  9
$PLIMMIN
 10
0.0
 20
0.0
  9
$PLIMMAX
 10
12.0
 20
9.0
  9
$UNITMODE
 70
     0
  9
$VISRETAIN
 70
     1
  9
$PLINEGEN
 70
     0
  9
$PSLTSCALE
 70
     1
  0
ENDSEC
  0
SECTION
  2
TABLES
  0
TABLE
  2
VPORT
 70
     1
  0
VPORT
  2
*ACTIVE
 70
     0
 10
0.0
 20
0.0
 11
1.0
 21
1.0
 12
164.1568988307550967
 22
-52.7315490775385882
 13
0.0
 23
0.0
 14
1.0
 24
1.0
 15
0.0
 25
0.0
 16
0.0
 26
0.0
 36
5.1040778033513332
 17
3792.35791015625
 27
120.1806564331053977
 37
0.0
 40
6.5898255334645048
 41
2.6486111111111108
 42
50.0
 43
0.0
 44
0.0
 50
0.0
 51
0.0
 71
     0
 72
   100
 73
     1
 74
     1
 75
     0
 76
     0
 77
     0
 78
     0
  0
ENDTAB
  0
TABLE
  2
LTYPE
 70
     2
  0
LTYPE
  2
CONTINUOUS
 70
     0
  3
Solid line
 72
    65
 73
     0
 40
0.0
  0
LTYPE
  2
PHANTOM2
 70
     0
  3
___ _ _ ___ _ _ ___ _ _ ___ _ _
 72
    65
 73
     6
 40
1.25
 49
0.625
 49
-0.125
 49
0.125
 49
-0.125
 49
0.125
 49
-0.125
  0
ENDTAB
  0
TABLE
  2
LAYER
 70
     2
  0
LAYER
  2
0
 70
     0
 62
   255
  6
CONTINUOUS
  0
LAYER
  2
DEFPOINTS
 70
     0
 62
     7
  6
CONTINUOUS
  0
ENDTAB
  0
TABLE
  2
STYLE
 70
     1
  0
STYLE
  2
STANDARD
 70
     0
 40
0.0
 41
0.8
 50
0.0
 71
     0
 42
0.2
  3
txt
  4

  0
ENDTAB
  0
TABLE
  2
VIEW
 70
     0
  0
ENDTAB
  0
TABLE
  2
UCS
 70
     0
  0
ENDTAB
  0
TABLE
  2
APPID
 70
     9
  0
APPID
  2
ACAD
 70
     0
  0
APPID
  2
ACAD_MLEADERVER
 70
     0
  0
APPID
  2
ACAD_EXEMPT_FROM_CAD_STANDARDS
 70
     0
  0
APPID
  2
ACAD_NAV_VCDISPLAY
 70
     0
  0
APPID
  2
ACAECLAYERSTANDARD
 70
     0
  0
APPID
  2
ACCMTRANSPARENCY
 70
     0
  0
APPID
  2
ACAD_DSTYLE_DIMJAG
 70
     0
  0
APPID
  2
ACAD_DSTYLE_DIMTALN
 70
     0
  0
APPID
  2
ACDBATTR
 70
     0
  0
ENDTAB
  0
TABLE
  2
DIMSTYLE
 70
     1
  0
DIMSTYLE
  2
STANDARD
 70
     0
  3

  4

  5

  6

  7

 40
1.0
 41
0.1875
 42
0.0625
 43
0.38
 44
0.125
 45
0.0
 46
0.0
 47
0.01
 48
0.01
140
0.15625
141
0.09
142
0.0
143
25.3999999999999986
144
1.0
145
0.0
146
1.0
147
0.09
 71
     1
 72
     0
 73
     1
 74
     1
 75
     0
 76
     0
 77
     0
 78
     4
170
     0
171
     2
172
     0
173
     0
174
     0
175
     0
176
     0
177
     0
178
     0
  0
ENDTAB
  0
ENDSEC
  0
SECTION
  2
BLOCKS
  0
BLOCK
  8
0
  2
$MODEL_SPACE
 70
     0
 10
0.0
 20
0.0
 30
0.0
  3
$MODEL_SPACE
  1

  0
ENDBLK
  5
21
  8
0
  0
BLOCK
 67
     1
  8
0
  2
$PAPER_SPACE
 70
     0
 10
0.0
 20
0.0
 30
0.0
  3
$PAPER_SPACE
  1

  0
ENDBLK
  5
1D
 67
     1
  8
0
  0
BLOCK
  8
0
  2
_FILLED
 70
     0
 10
0.0
 20
0.0
 30
0.0
  3
_FILLED
  1

  0
SOLID
  5
7D72
  8
0
  6
BYBLOCK
 62
     0
 10
0.0
 20
0.0
 30
0.0
 11
-1.0
 21
0.1666666667
 31
0.0
 12
-1.0
 22
-0.1666666667
 32
0.0
 13
-1.0
 23
-0.1666666667
 33
0.0
  0
ENDBLK
  5
7D73
  8
0
  6
BYBLOCK
 62
     0
  0
ENDSEC
  0
SECTION
  2
ENTITIES
  0
ARC
  5
7E4C
  8
0
 10
3956.5144750124550228
 20
68.4924165832126732
 30
0.0
 40
0.9940944881999998
 50
342.7216273686714771
 51
197.586386882236809
  0
LINE
  5
7E4D
  8
0
 10
3958.7402256629547992
 20
70.0090731547437741
 30
0.0
 11
3958.7402256629547992
 21
64.8891052082977353
 31
0.0
  0
LINE
  5
7E4E
  8
0
 10
3954.2893923110559626
 20
70.0090731547388145
 30
0.0
 11
3954.2893923110559626
 21
64.8891052082965842
 31
0.0
  0
ARC
  5
7E4F
  8
0
 10
3954.9955869061350313
 20
70.0106305820765726
 30
0.0
 40
0.7061963124366007
 50
89.9104574521285826
 51
180.1263587532866097
  0
ARC
  5
7E50
  8
0
 10
3954.9939980012409251
 20
64.8860003475917466
 30
0.0
 40
0.7046125309711611
 50
179.7475265025099986
 51
269.7810523455971179
  0
ARC
  5
7E51
  8
0
 10
3958.0340310678770948
 20
70.0106305820765726
 30
0.0
 40
0.7061963124366007
 50
359.873641246713305
 51
90.0895425478714316
  0
ARC
  5
7E52
  8
0
 10
3958.0356199727698367
 20
64.8860003475917466
 30
0.0
 40
0.7046125309711614
 50
269.7810534094608101
 51
0.2524734974900232
  0
ARC
  5
7E53
  8
0
 10
3956.5151332002719755
 20
68.4923702884769341
 30
0.0
 40
0.9646132241064517
 50
356.5312940039428895
 51
183.4663893135505077
  0
LINE
  5
7E60
  8
0
 10
3958.0329274160558271
 20
70.7168260321126922
 30
0.0
 11
3954.9966905579549348
 21
70.7168260321126922
 31
0.0
  0
LINE
  5
7E61
  8
0
 10
3954.9913054314429246
 20
64.1813929612626879
 30
0.0
 11
3955.9898516709417891
 21
64.1813929612462744
 31
0.0
  0
LINE
  5
7E62
  8
0
 10
3957.0454789144928327
 20
64.1813929612289229
 30
0.0
 11
3958.0329274160558271
 21
64.1813929612126941
 31
0.0
  0
LINE
  5
7E63
  8
0
 10
3955.8101780588358451
 20
65.3845777315126924
 30
0.0
 11
3957.2201133265079989
 21
65.3845777315126924
 31
0.0
  0
ARC
  5
7E64
  8
0
 10
3955.8101785687881602
 20
65.4633180474698122
 30
0.0
 40
0.0787403159587703
 50
183.4461107502528137
 51
269.9996299295618769
  0
ARC
  5
7E65
  8
0
 10
3957.2201128254441755
 20
65.4633180991038301
 30
0.0
 40
0.0787402540911978
 50
270.0000602967476198
 51
356.548343423079416
  0
LINE
  5
7E66
  8
0
 10
3957.2987102410079387
 20
65.4585774366126856
 30
0.0
 11
3957.4637217821400554
 21
68.1971973058728054
 31
0.0
  0
ARC
  5
7E67
  8
0
 10
3910.9850807416901262
 20
71.1163386235302681
 30
0.0
 40
46.5702105348320217
 50
356.4061454895871748
 51
356.6980752756854258
  0
LINE
  5
7E68
  8
0
 10
3955.7315811443368148
 20
65.4585774366126856
 30
0.0
 11
3955.5665696032060623
 21
68.1971973058728054
 31
0.0
  0
ARC
  5
7E69
  8
0
 10
3674.1649442264651952
 20
51.3442328733319826
 30
0.0
 40
281.9058303313998977
 50
3.4273140954957428
 51
3.4755399158642111
  0
LINE
  5
7E6A
  8
0
 10
3955.9898516709417891
 20
64.1813929612462744
 30
0.0
 11
3956.0001849777090683
 21
64.1917262680126868
 31
0.0
  0
LINE
  5
7E6B
  8
0
 10
3956.0001849777090683
 20
64.1917262680126868
 30
0.0
 11
3956.3151456077089279
 21
64.1917262680126868
 31
0.0
  0
LINE
  5
7E6C
  8
0
 10
3956.3151456077089279
 20
64.1917262680126868
 30
0.0
 11
3956.325478914407995
 21
64.1813929613126817
 31
0.0
  0
LINE
  5
7E6D
  8
0
 10
3956.7048123008307812
 20
64.181392961234522
 30
0.0
 11
3956.7151456077081093
 21
64.1917262680126868
 31
0.0
  0
LINE
  5
7E6E
  8
0
 10
3956.7151456077081093
 20
64.1917262680126868
 30
0.0
 11
3957.0351456077091825
 21
64.1917262680126868
 31
0.0
  0
LINE
  5
7E6F
  8
0
 10
3957.0351456077091825
 20
64.1917262680126868
 30
0.0
 11
3957.0454789144091592
 21
64.1813929613126817
 31
0.0
  0
LINE
  5
7E70
  8
0
 10
3956.325478914407995
 20
64.1813929613126817
 30
0.0
 11
3956.7048123009089977
 21
64.1813929613126817
 31
0.0
  0
ATTDEF
  5
7F24
  8
DEFPOINTS
 10
3956.5155920808888368
 20
67.4475840775595685
 30
0.0
 40
0.001
  1
K-74039T-4FP
  3

  2
MODELNUMBER
 70
     0
1001
ACDBATTR
1070
     0
1070
     1
  0
ATTDEF
  5
7F25
  8
DEFPOINTS
 10
3956.5155920808888368
 20
67.4459174108929034
 30
0.0
 40
0.001
  1
TAUT
  3

  2
TRADENAME
 70
     0
1001
ACDBATTR
1070
     0
1070
     1
  0
ATTDEF
  5
7F26
  8
DEFPOINTS
 10
3956.5155920808888368
 20
67.4442507442262382
 30
0.0
 40
0.001
  1
VALVE TRIM
  3

  2
PRODUCT
 70
     0
1001
ACDBATTR
1070
     0
1070
     1
  0
ENDSEC
  0
EOF
