  0
SECTION
  2
HEADER
  9
$ACADVER
  1
AC1009
  9
$INSBASE
 10
3956.5148089870058357
 20
77.5330443176126778
 30
0.0
  9
$EXTMIN
 10
3954.2893923110559626
 20
74.6980149014111561
 30
0.0
  9
$EXTMAX
 10
3958.7402256629561634
 20
77.5330443176126778
 30
0.0
  9
$LIMMIN
 10
0.0
 20
0.0
  9
$LIMMAX
 10
11.6929133858000007
 20
8.2677165353999982
  9
$ORTHOMODE
 70
     0
  9
$REGENMODE
 70
     1
  9
$FILLMODE
 70
     1
  9
$QTEXTMODE
 70
     0
  9
$MIRRTEXT
 70
     0
  9
$DRAGMODE
 70
     2
  9
$LTSCALE
 40
0.6431102362
  9
$OSMODE
 70
  2039
  9
$ATTMODE
 70
     1
  9
$TEXTSIZE
 40
0.2
  9
$TRACEWID
 40
0.05
  9
$TEXTSTYLE
  7
STANDARD
  9
$CLAYER
  8
0
  9
$CELTYPE
  6
BYLAYER
  9
$CECOLOR
 62
   256
  9
$DIMSCALE
 40
1.0
  9
$DIMASZ
 40
0.1875
  9
$DIMEXO
 40
0.0625
  9
$DIMDLI
 40
0.4443307087
  9
$DIMRND
 40
0.0
  9
$DIMDLE
 40
0.0
  9
$DIMEXE
 40
0.125
  9
$DIMTP
 40
0.01
  9
$DIMTM
 40
0.01
  9
$DIMTXT
 40
2.0
  9
$DIMCEN
 40
0.1052362205
  9
$DIMTSZ
 40
0.0
  9
$DIMTOL
 70
     1
  9
$DIMLIM
 70
     0
  9
$DIMTIH
 70
     1
  9
$DIMTOH
 70
     1
  9
$DIMSE1
 70
     0
  9
$DIMSE2
 70
     0
  9
$DIMTAD
 70
     0
  9
$DIMZIN
 70
     0
  9
$DIMBLK
  1

  9
$DIMASO
 70
     1
  9
$DIMSHO
 70
     1
  9
$DIMPOST
  1
\X
  9
$DIMAPOST
  1

  9
$DIMALT
 70
     1
  9
$DIMALTD
 70
     2
  9
$DIMALTF
 40
25.3999999999999986
  9
$DIMLFAC
 40
1.0
  9
$DIMTOFL
 70
     0
  9
$DIMTVP
 40
0.0
  9
$DIMTIX
 70
     0
  9
$DIMSOXD
 70
     0
  9
$DIMSAH
 70
     0
  9
$DIMBLK1
  1

  9
$DIMBLK2
  1

  9
$DIMSTYLE
  2
STANDARD
  9
$DIMCLRD
 70
     0
  9
$DIMCLRE
 70
     0
  9
$DIMCLRT
 70
     0
  9
$DIMTFAC
 40
1.0
  9
$DIMGAP
 40
0.09
  9
$LUNITS
 70
     2
  9
$LUPREC
 70
     4
  9
$SKETCHINC
 40
0.1
  9
$FILLETRAD
 40
0.0
  9
$AUNITS
 70
     0
  9
$AUPREC
 70
     0
  9
$MENU
  1
.
  9
$ELEVATION
 40
0.0
  9
$PELEVATION
 40
0.0
  9
$THICKNESS
 40
0.0
  9
$LIMCHECK
 70
     0
  9
$BLIPMODE
 70
     0
  9
$CHAMFERA
 40
0.0
  9
$CHAMFERB
 40
0.0
  9
$SKPOLY
 70
     0
  9
$TDCREATE
 40
2458060.468368056230247
  9
$TDUPDATE
 40
2459137.7537268521264195
  9
$TDINDWG
 40
0.4242547454
  9
$TDUSRTIMER
 40
0.4242547454
  9
$USRTIMER
 70
     1
  9
$ANGBASE
 50
0.0
  9
$ANGDIR
 70
     0
  9
$PDMODE
 70
     0
  9
$PDSIZE
 40
0.3125
  9
$PLINEWID
 40
0.0
  9
$COORDS
 70
     1
  9
$SPLFRAME
 70
     0
  9
$SPLINETYPE
 70
     6
  9
$SPLINESEGS
 70
     8
  9
$ATTDIA
 70
     1
  9
$ATTREQ
 70
     1
  9
$HANDLING
 70
     1
  9
$HANDSEED
  5
8431
  9
$SURFTAB1
 70
     6
  9
$SURFTAB2
 70
     6
  9
$SURFTYPE
 70
     6
  9
$SURFU
 70
     6
  9
$SURFV
 70
     6
  9
$UCSNAME
  2

  9
$UCSORG
 10
0.0
 20
0.0
 30
0.0
  9
$UCSXDIR
 10
1.0
 20
0.0
 30
0.0
  9
$UCSYDIR
 10
0.0
 20
1.0
 30
0.0
  9
$PUCSNAME
  2

  9
$PUCSORG
 10
0.0
 20
0.0
 30
0.0
  9
$PUCSXDIR
 10
1.0
 20
0.0
 30
0.0
  9
$PUCSYDIR
 10
0.0
 20
1.0
 30
0.0
  9
$USERI1
 70
     0
  9
$USERI2
 70
     0
  9
$USERI3
 70
     0
  9
$USERI4
 70
     0
  9
$USERI5
 70
     0
  9
$USERR1
 40
0.0
  9
$USERR2
 40
0.0
  9
$USERR3
 40
0.0
  9
$USERR4
 40
0.0
  9
$USERR5
 40
0.0
  9
$WORLDVIEW
 70
     1
  9
$SHADEDGE
 70
     3
  9
$SHADEDIF
 70
    70
  9
$TILEMODE
 70
     1
  9
$MAXACTVP
 70
    64
  9
$PLIMCHECK
 70
     0
  9
$PEXTMIN
 10
1.0000000000000000E+20
 20
1.0000000000000000E+20
 30
1.0000000000000000E+20
  9
$PEXTMAX
 10
-1.0000000000000000E+20
 20
-1.0000000000000000E+20
 30
-1.0000000000000000E+20
  9
$PLIMMIN
 10
0.0
 20
0.0
  9
$PLIMMAX
 10
12.0
 20
9.0
  9
$UNITMODE
 70
     0
  9
$VISRETAIN
 70
     1
  9
$PLINEGEN
 70
     0
  9
$PSLTSCALE
 70
     1
  0
ENDSEC
  0
SECTION
  2
TABLES
  0
TABLE
  2
VPORT
 70
     1
  0
VPORT
  2
*ACTIVE
 70
     0
 10
0.0
 20
0.0
 11
1.0
 21
1.0
 12
164.1568988307554093
 22
-44.0651268235935518
 13
0.0
 23
0.0
 14
1.0
 24
1.0
 15
0.0
 25
0.0
 16
0.0
 26
0.0
 36
5.1040778033513332
 17
3792.35791015625
 27
120.1806564331053977
 37
0.0
 40
2.8586218940062471
 41
2.6486111111111108
 42
50.0
 43
0.0
 44
0.0
 50
0.0
 51
0.0
 71
     0
 72
   100
 73
     1
 74
     1
 75
     0
 76
     0
 77
     0
 78
     0
  0
ENDTAB
  0
TABLE
  2
LTYPE
 70
     2
  0
LTYPE
  2
CONTINUOUS
 70
     0
  3
Solid line
 72
    65
 73
     0
 40
0.0
  0
LTYPE
  2
PHANTOM2
 70
     0
  3
___ _ _ ___ _ _ ___ _ _ ___ _ _
 72
    65
 73
     6
 40
1.25
 49
0.625
 49
-0.125
 49
0.125
 49
-0.125
 49
0.125
 49
-0.125
  0
ENDTAB
  0
TABLE
  2
LAYER
 70
     2
  0
LAYER
  2
0
 70
     0
 62
   255
  6
CONTINUOUS
  0
LAYER
  2
DEFPOINTS
 70
     0
 62
     7
  6
CONTINUOUS
  0
ENDTAB
  0
TABLE
  2
STYLE
 70
     1
  0
STYLE
  2
STANDARD
 70
     0
 40
0.0
 41
0.8
 50
0.0
 71
     0
 42
0.2
  3
txt
  4

  0
ENDTAB
  0
TABLE
  2
VIEW
 70
     0
  0
ENDTAB
  0
TABLE
  2
UCS
 70
     0
  0
ENDTAB
  0
TABLE
  2
APPID
 70
     9
  0
APPID
  2
ACAD
 70
     0
  0
APPID
  2
ACAD_MLEADERVER
 70
     0
  0
APPID
  2
ACAD_EXEMPT_FROM_CAD_STANDARDS
 70
     0
  0
APPID
  2
ACAD_NAV_VCDISPLAY
 70
     0
  0
APPID
  2
ACAECLAYERSTANDARD
 70
     0
  0
APPID
  2
ACCMTRANSPARENCY
 70
     0
  0
APPID
  2
ACAD_DSTYLE_DIMJAG
 70
     0
  0
APPID
  2
ACAD_DSTYLE_DIMTALN
 70
     0
  0
APPID
  2
ACDBATTR
 70
     0
  0
ENDTAB
  0
TABLE
  2
DIMSTYLE
 70
     1
  0
DIMSTYLE
  2
STANDARD
 70
     0
  3

  4

  5

  6

  7

 40
1.0
 41
0.1875
 42
0.0625
 43
0.38
 44
0.125
 45
0.0
 46
0.0
 47
0.01
 48
0.01
140
0.15625
141
0.09
142
0.0
143
25.3999999999999986
144
1.0
145
0.0
146
1.0
147
0.09
 71
     1
 72
     0
 73
     1
 74
     1
 75
     0
 76
     0
 77
     0
 78
     4
170
     0
171
     2
172
     0
173
     0
174
     0
175
     0
176
     0
177
     0
178
     0
  0
ENDTAB
  0
ENDSEC
  0
SECTION
  2
BLOCKS
  0
BLOCK
  8
0
  2
$MODEL_SPACE
 70
     0
 10
0.0
 20
0.0
 30
0.0
  3
$MODEL_SPACE
  1

  0
ENDBLK
  5
21
  8
0
  0
BLOCK
 67
     1
  8
0
  2
$PAPER_SPACE
 70
     0
 10
0.0
 20
0.0
 30
0.0
  3
$PAPER_SPACE
  1

  0
ENDBLK
  5
1D
 67
     1
  8
0
  0
BLOCK
  8
0
  2
_FILLED
 70
     0
 10
0.0
 20
0.0
 30
0.0
  3
_FILLED
  1

  0
SOLID
  5
7D72
  8
0
  6
BYBLOCK
 62
     0
 10
0.0
 20
0.0
 30
0.0
 11
-1.0
 21
0.1666666667
 31
0.0
 12
-1.0
 22
-0.1666666667
 32
0.0
 13
-1.0
 23
-0.1666666667
 33
0.0
  0
ENDBLK
  5
7D73
  8
0
  6
BYBLOCK
 62
     0
  0
ENDSEC
  0
SECTION
  2
ENTITIES
  0
LINE
  5
7E32
  8
0
 10
3954.2893923110559626
 20
77.5330443176126778
 30
0.0
 11
3954.3225144599141458
 21
77.154694406259793
 31
0.0
  0
LINE
  5
7E33
  8
0
 10
3955.5505199761651056
 20
75.9503671523126798
 30
0.0
 11
3955.5505199761651056
 21
77.0442140448103743
 31
0.0
  0
LINE
  5
7E34
  8
0
 10
3955.5505199761651056
 20
75.7807023536738029
 30
0.0
 11
3955.5505199761651056
 21
74.7496703986000739
 31
0.0
  0
LINE
  5
7E35
  8
0
 10
3955.569917735413128
 20
75.914290911912687
 30
0.0
 11
3955.569917735413128
 21
75.9385561287126762
 31
0.0
  0
LINE
  5
7E36
  8
0
 10
3956.0114711781097867
 20
75.4267451050126851
 30
0.0
 11
3957.0181467959018846
 21
75.4267451050126851
 31
0.0
  0
LINE
  5
7E37
  8
0
 10
3955.5505199761651056
 20
75.7807084823126758
 30
0.0
 11
3955.7083589995991133
 21
75.7807084823126758
 31
0.0
  0
LINE
  5
7E38
  8
0
 10
3955.6494227066978056
 20
75.8778827571165806
 30
0.0
 11
3955.5845079116329543
 21
75.8952766239510623
 31
0.0
  0
LINE
  5
7E39
  8
0
 10
3957.4451100543969915
 20
75.895276621812684
 30
0.0
 11
3955.5845079196437837
 21
75.895276621812684
 31
0.0
  0
LINE
  5
7E3A
  8
0
 10
3955.5627606176030895
 20
75.9385561287126762
 30
0.0
 11
3957.4668573564081271
 21
75.9385561287126762
 31
0.0
  0
LINE
  5
7E3B
  8
0
 10
3954.2893923110559626
 20
77.5330443176126778
 30
0.0
 11
3958.7402256629561634
 21
77.5330443176126778
 31
0.0
  0
ARC
  5
7E3C
  8
0
 10
3956.513905654509017
 20
651.6087276402128055
 30
0.0
 40
574.4737492245000112
 50
269.8519768831192778
 51
270.0000900948757021
  0
ARC
  5
7E3D
  8
0
 10
3956.514799625113028
 20
75.8129934686126745
 30
0.0
 40
0.8070866141999999
 50
180.722514540321697
 51
199.1666533747070957
  0
ARC
  5
7E3E
  8
0
 10
3955.629043254413773
 20
75.801825605412688
 30
0.0
 40
0.0787401575
 50
0.7208083788255295
 51
75.0000000657957173
  0
ARC
  5
7E3F
  8
0
 10
3955.5896027747139669
 20
75.914290911912687
 30
0.0
 40
0.0196850394
 50
180.0
 51
255.0000000657956889
  0
ARC
  5
7E40
  8
0
 10
3955.563078093868171
 20
75.9511336078158052
 30
0.0
 40
0.0125814852767024
 50
183.4925823482207079
 51
268.554067300536417
  0
ARC
  5
7E41
  8
0
 10
3955.977826292239115
 20
75.8467602221871715
 30
0.0
 40
0.3742237828425867
 50
190.1661538869676065
 51
232.9691190606307885
  0
ARC
  5
7E42
  8
0
 10
3956.4024061754239483
 20
76.5990090676180984
 30
0.0
 40
1.235731754932859
 50
238.2666194059115981
 51
259.039219818161996
  0
ARC
  5
7E43
  8
0
 10
3956.4987453273161009
 20
77.0976336868008758
 30
0.0
 40
1.7435779000057841
 50
259.0466235459833797
 51
267.646676366397628
  0
ARC
  5
7E44
  8
0
 10
3956.51495728969212
 20
77.322448165843781
 30
0.0
 40
1.968880790801927
 50
267.4439307405942259
 51
270.0054801819816248
  0
ARC
  5
7E45
  8
0
 10
3956.5444392434278598
 20
16.3167840113510891
 30
0.0
 40
60.7385211193237069
 50
90.0279507081128827
 51
90.7276610543299
  0
ARC
  5
7E46
  8
0
 10
3955.8664783066128621
 20
69.6963233926336727
 30
0.0
 40
7.3546766006891993
 50
90.7276610543299
 51
92.9428292602659099
  0
ARC
  5
7E47
  8
0
 10
3955.5499013246339928
 20
77.2151915108360356
 30
0.0
 40
0.1842821010815182
 50
250.6669205793016033
 51
270.2212835321890907
  0
ARC
  5
7E48
  8
0
 10
3954.3419356878112012
 20
77.1563092951491285
 30
0.0
 40
0.0194882518240283
 50
184.7532501517578112
 51
267.6908729040093249
  0
ARC
  5
7E49
  8
0
 10
3954.6816524518048936
 20
121.7550364508310992
 30
0.0
 40
44.6194988273292523
 50
269.5627580911888117
 51
270.4470081027520791
  0
ARC
  5
7E4A
  8
0
 10
3954.3434623569391988
 20
77.1530447237922488
 30
0.0
 40
0.0202093000439437
 50
188.464165914456089
 51
263.3900517591131916
  0
ARC
  5
7E4B
  8
0
 10
3956.5099333825642134
 20
94.6872689777015069
 30
0.0
 40
17.6877670391111685
 50
262.9569158248285135
 51
266.8909591809294852
  0
ARC
  5
7E72
  8
0
 10
3955.7755927662610702
 20
75.7758903556061369
 30
0.0
 40
0.2252217890176457
 50
182.0842410104446003
 51
205.1320235018662004
  0
ARC
  5
7E73
  8
0
 10
3955.8572791843721461
 20
75.8142107586236449
 30
0.0
 40
0.3154499674952247
 50
205.1320235018662004
 51
218.959160074756312
  0
ARC
  5
7E74
  8
0
 10
3955.9936229866912072
 20
75.9244589720515251
 30
0.0
 40
0.4907904961659203
 50
218.959160074756312
 51
241.1496595753058045
  0
ARC
  5
7E75
  8
0
 10
3956.374968801274008
 20
76.6166830826994101
 30
0.0
 40
1.281106160734784
 50
241.1496595753058045
 51
250.6419608230972926
  0
ARC
  5
7E76
  8
0
 10
3956.3744037820138146
 20
76.6150748652487437
 30
0.0
 40
1.27940157570232
 50
250.6419608230972926
 51
262.4135851530355126
  0
ARC
  5
7E77
  8
0
 10
3956.7246286265240087
 20
79.2446438341207084
 30
0.0
 40
3.9321907500932971
 50
262.4135851530355126
 51
265.2438969973650273
  0
ARC
  5
7E78
  8
0
 10
3956.5152766807577791
 20
77.3083202098030142
 30
0.0
 40
1.9857584337311429
 50
266.6313606604567781
 51
269.9865054692024842
  0
LINE
  5
7E79
  8
0
 10
3956.3189684554149608
 20
75.36768998691268
 30
0.0
 11
3956.7119960014088065
 21
75.36768998691268
 31
0.0
  0
LINE
  5
7E7A
  8
0
 10
3956.7119960014088065
 20
75.36768998691268
 30
0.0
 11
3956.7119960014088065
 21
75.4267451050126851
 31
0.0
  0
ARC
  5
7E7B
  8
0
 10
3956.4975128897522154
 20
75.1937369070666222
 30
0.0
 40
0.2764123789501053
 50
130.4188687434381109
 51
140.9514927449122865
  0
LINE
  5
7E7C
  8
0
 10
3958.7402256629561634
 20
77.5330443176126778
 30
0.0
 11
3958.7071035140970707
 21
77.154694406259793
 31
0.0
  0
LINE
  5
7E7D
  8
0
 10
3957.479097997846111
 20
75.9503671523126798
 30
0.0
 11
3957.479097997846111
 21
77.0442140448103743
 31
0.0
  0
LINE
  5
7E7E
  8
0
 10
3957.479097997846111
 20
75.7807023536738029
 30
0.0
 11
3957.479097997846111
 21
74.7496703986000739
 31
0.0
  0
LINE
  5
7E7F
  8
0
 10
3957.4597002385971791
 20
75.914290911912687
 30
0.0
 11
3957.4597002385971791
 21
75.9385561287126762
 31
0.0
  0
LINE
  5
7E80
  8
0
 10
3957.0181467959018846
 20
75.4267451050126851
 30
0.0
 11
3956.0051257459022054
 21
75.4267451050126851
 31
0.0
  0
LINE
  5
7E81
  8
0
 10
3957.479097997846111
 20
75.7807084823126758
 30
0.0
 11
3957.3212589744121033
 21
75.7807084823126758
 31
0.0
  0
LINE
  5
7E82
  8
0
 10
3957.3801952673129563
 20
75.8778827571165806
 30
0.0
 11
3957.4451100623778075
 21
75.8952766239510623
 31
0.0
  0
ARC
  5
7E83
  8
0
 10
3956.5157123195021995
 20
651.6087276402128055
 30
0.0
 40
574.4737492245000112
 50
269.9999099051242979
 51
270.1480231168807222
  0
ARC
  5
7E84
  8
0
 10
3956.5148183488968243
 20
75.8129934686126745
 30
0.0
 40
0.8070866141999999
 50
340.8333466252927906
 51
359.277485459678303
  0
ARC
  5
7E85
  8
0
 10
3957.4005747195969889
 20
75.801825605412688
 30
0.0
 40
0.0787401575
 50
104.9999999342042969
 51
179.279191621174391
  0
ARC
  5
7E86
  8
0
 10
3957.4400151992981591
 20
75.914290911912687
 30
0.0
 40
0.0196850394
 50
284.9999999342041974
 51
0.0
  0
ARC
  5
7E87
  8
0
 10
3957.4665398801439551
 20
75.9511336078158052
 30
0.0
 40
0.0125814852767024
 50
271.445932699463583
 51
356.5074176517792921
  0
ARC
  5
7E88
  8
0
 10
3957.0517916817721016
 20
75.8467602221871715
 30
0.0
 40
0.3742237828425867
 50
307.0308809393691831
 51
349.8338461130315977
  0
ARC
  5
7E89
  8
0
 10
3956.627211798585904
 20
76.5990090676180984
 30
0.0
 40
1.235731754932859
 50
280.9607801818378903
 51
301.7333805940883735
  0
ARC
  5
7E8A
  8
0
 10
3956.5308726466960252
 20
77.0976336868008758
 30
0.0
 40
1.7435779000057841
 50
272.353323633602372
 51
280.9533764540166203
  0
ARC
  5
7E8B
  8
0
 10
3956.5146606843200061
 20
77.322448165843781
 30
0.0
 40
1.968880790801927
 50
269.9945198180183752
 51
272.5560692594058878
  0
ARC
  5
7E8C
  8
0
 10
3956.4851787305829021
 20
16.3167840113510891
 30
0.0
 40
60.7385211193237069
 50
89.2723389456701142
 51
89.9720492918871031
  0
ARC
  5
7E8D
  8
0
 10
3957.1631396673978998
 20
69.6963233926336727
 30
0.0
 40
7.3546766006891993
 50
87.0571707397340759
 51
89.2723389456701142
  0
ARC
  5
7E8E
  8
0
 10
3957.4797166493772238
 20
77.2151915108360356
 30
0.0
 40
0.1842821010815182
 50
269.7787164678107956
 51
289.3330794206984251
  0
ARC
  5
7E8F
  8
0
 10
3958.6876822862000154
 20
77.1563092951491285
 30
0.0
 40
0.0194882518240283
 50
272.3091270959906751
 51
355.2467498482421888
  0
ARC
  5
7E90
  8
0
 10
3958.3479655222058682
 20
121.7550364508310992
 30
0.0
 40
44.6194988273292523
 50
269.5529918972479209
 51
270.4372419088111883
  0
ARC
  5
7E91
  8
0
 10
3958.6861556170720178
 20
77.1530447237922488
 30
0.0
 40
0.0202093000439437
 50
276.6099482408868084
 51
351.535834085543911
  0
ARC
  5
7E92
  8
0
 10
3956.5196845914470032
 20
94.6872689777015069
 30
0.0
 40
17.6877670391111685
 50
273.1090408190705148
 51
277.0430841751714865
  0
ARC
  5
7E93
  8
0
 10
3957.2540252077501464
 20
75.7758903556061369
 30
0.0
 40
0.2252217890176457
 50
334.867976498133828
 51
357.9157589895546039
  0
ARC
  5
7E94
  8
0
 10
3957.172338789638161
 20
75.8142107586236449
 30
0.0
 40
0.3154499674952247
 50
321.040839925243688
 51
334.867976498133828
  0
ARC
  5
7E95
  8
0
 10
3957.0359949873209189
 20
75.9244589720515251
 30
0.0
 40
0.4907904961659203
 50
298.8503404246940818
 51
321.040839925243688
  0
ARC
  5
7E96
  8
0
 10
3956.6546491727372086
 20
76.6166830826994101
 30
0.0
 40
1.281106160734784
 50
289.3580391769027074
 51
298.8503404246940818
  0
ARC
  5
7E97
  8
0
 10
3956.6552141919969472
 20
76.6150748652487437
 30
0.0
 40
1.27940157570232
 50
277.5864148469644874
 51
289.3580391769027074
  0
ARC
  5
7E98
  8
0
 10
3956.3049893474881173
 20
79.2446438341207084
 30
0.0
 40
3.9321907500932971
 50
274.7561030026349727
 51
277.5864148469644874
  0
ARC
  5
7E99
  8
0
 10
3956.5143412932529827
 20
77.3083202098030142
 30
0.0
 40
1.9857584337311429
 50
270.0134945307975158
 51
273.3686393395432219
  0
LINE
  5
7E9A
  8
0
 10
3956.7113227600029859
 20
75.36768998691268
 30
0.0
 11
3956.3182952140091402
 21
75.36768998691268
 31
0.0
  0
LINE
  5
7E9B
  8
0
 10
3956.3182952140091402
 20
75.36768998691268
 30
0.0
 11
3956.3182952140091402
 21
75.4267451050126851
 31
0.0
  0
ARC
  5
7E9C
  8
0
 10
3956.534265964001861
 20
75.199136225612591
 30
0.0
 40
0.2713475370001336
 50
38.4505385201068322
 51
49.0810763968897916
  0
ARC
  5
7E9D
  8
0
 10
3955.5823517730418644
 20
74.7482373680615808
 30
0.0
 40
0.0318640372359124
 50
177.4223509571619104
 51
240.5192878029421024
  0
ARC
  5
7E9E
  8
0
 10
3955.5819500062539191
 20
74.7475266895617381
 30
0.0
 40
0.0310476546766135
 50
240.5192878029421024
 51
268.0333724713079846
  0
ARC
  5
7E9F
  8
0
 10
3956.5151456077078365
 20
98.3200621430849964
 30
0.0
 40
23.6220472440723093
 50
267.7333386371058737
 51
269.9991835193105771
  0
ARC
  5
7EA0
  8
0
 10
3957.447266200967988
 20
74.7482373680615808
 30
0.0
 40
0.0318640372359124
 50
299.480712197057926
 51
2.5776490428380709
  0
ARC
  5
7EA1
  8
0
 10
3957.4476679677582069
 20
74.7475266895617381
 30
0.0
 40
0.0310476546766135
 50
271.9666275286920154
 51
299.480712197057926
  0
ARC
  5
7EA2
  8
0
 10
3956.5144723663029254
 20
98.3200621430849964
 30
0.0
 40
23.6220472440723093
 50
270.0008164806894229
 51
272.2666613628941263
  0
ATTDEF
  5
7F27
  8
DEFPOINTS
 10
3956.5148089870058357
 20
77.5314876888496798
 30
0.0
 40
0.001
  1
K-74039T-4FP
  3

  2
MODELNUMBER
 70
     0
1001
ACDBATTR
1070
     0
1070
     1
  0
ATTDEF
  5
7F28
  8
DEFPOINTS
 10
3956.5148089870058357
 20
77.5298210221830146
 30
0.0
 40
0.001
  1
TAUT
  3

  2
TRADENAME
 70
     0
1001
ACDBATTR
1070
     0
1070
     1
  0
ATTDEF
  5
7F29
  8
DEFPOINTS
 10
3956.5148089870058357
 20
77.5281543555163495
 30
0.0
 40
0.001
  1
VALVE TRIM
  3

  2
PRODUCT
 70
     0
1001
ACDBATTR
1070
     0
1070
     1
  0
ENDSEC
  0
EOF
