  0
SECTION
  2
HEADER
  9
$ACADVER
  1
AC1009
  9
$INSBASE
 10
3471.5512299911051741
 20
187.0817102951465927
 30
0.0
  9
$EXTMIN
 10
3469.3263933900298071
 20
183.8143551780721907
 30
0.0
  9
$EXTMAX
 10
3473.7753934141428545
 20
190.3490654122211083
 30
0.0
  9
$LIMMIN
 10
0.0
 20
0.0
  9
$LIMMAX
 10
11.6929133858000007
 20
8.2677165353999982
  9
$ORTHOMODE
 70
     0
  9
$REGENMODE
 70
     1
  9
$FILLMODE
 70
     1
  9
$QTEXTMODE
 70
     0
  9
$MIRRTEXT
 70
     0
  9
$DRAGMODE
 70
     2
  9
$LTSCALE
 40
0.6431102362
  9
$OSMODE
 70
  3839
  9
$ATTMODE
 70
     1
  9
$TEXTSIZE
 40
0.2
  9
$TRACEWID
 40
0.05
  9
$TEXTSTYLE
  7
STANDARD
  9
$CLAYER
  8
0
  9
$CELTYPE
  6
BYLAYER
  9
$CECOLOR
 62
   256
  9
$DIMSCALE
 40
1.0
  9
$DIMASZ
 40
0.1875
  9
$DIMEXO
 40
0.0625
  9
$DIMDLI
 40
0.4443307087
  9
$DIMRND
 40
0.0
  9
$DIMDLE
 40
0.0
  9
$DIMEXE
 40
0.125
  9
$DIMTP
 40
0.01
  9
$DIMTM
 40
0.01
  9
$DIMTXT
 40
2.0
  9
$DIMCEN
 40
0.1052362205
  9
$DIMTSZ
 40
0.0
  9
$DIMTOL
 70
     1
  9
$DIMLIM
 70
     0
  9
$DIMTIH
 70
     1
  9
$DIMTOH
 70
     1
  9
$DIMSE1
 70
     0
  9
$DIMSE2
 70
     0
  9
$DIMTAD
 70
     0
  9
$DIMZIN
 70
     0
  9
$DIMBLK
  1

  9
$DIMASO
 70
     1
  9
$DIMSHO
 70
     1
  9
$DIMPOST
  1
\X
  9
$DIMAPOST
  1

  9
$DIMALT
 70
     1
  9
$DIMALTD
 70
     2
  9
$DIMALTF
 40
25.3999999999999986
  9
$DIMLFAC
 40
1.0
  9
$DIMTOFL
 70
     0
  9
$DIMTVP
 40
0.0
  9
$DIMTIX
 70
     0
  9
$DIMSOXD
 70
     0
  9
$DIMSAH
 70
     0
  9
$DIMBLK1
  1

  9
$DIMBLK2
  1

  9
$DIMSTYLE
  2
STANDARD
  9
$DIMCLRD
 70
     0
  9
$DIMCLRE
 70
     0
  9
$DIMCLRT
 70
     0
  9
$DIMTFAC
 40
1.0
  9
$DIMGAP
 40
0.09
  9
$LUNITS
 70
     2
  9
$LUPREC
 70
     4
  9
$SKETCHINC
 40
0.1
  9
$FILLETRAD
 40
0.0
  9
$AUNITS
 70
     0
  9
$AUPREC
 70
     0
  9
$MENU
  1
.
  9
$ELEVATION
 40
0.0
  9
$PELEVATION
 40
0.0
  9
$THICKNESS
 40
0.0
  9
$LIMCHECK
 70
     0
  9
$BLIPMODE
 70
     0
  9
$CHAMFERA
 40
0.0
  9
$CHAMFERB
 40
0.0
  9
$SKPOLY
 70
     0
  9
$TDCREATE
 40
2458060.468368056230247
  9
$TDUPDATE
 40
2459136.5343287037685513
  9
$TDINDWG
 40
0.6975417824
  9
$TDUSRTIMER
 40
0.6975417824
  9
$USRTIMER
 70
     1
  9
$ANGBASE
 50
0.0
  9
$ANGDIR
 70
     0
  9
$PDMODE
 70
     0
  9
$PDSIZE
 40
0.3125
  9
$PLINEWID
 40
0.0
  9
$COORDS
 70
     1
  9
$SPLFRAME
 70
     0
  9
$SPLINETYPE
 70
     6
  9
$SPLINESEGS
 70
     8
  9
$ATTDIA
 70
     1
  9
$ATTREQ
 70
     1
  9
$HANDLING
 70
     1
  9
$HANDSEED
  5
9989
  9
$SURFTAB1
 70
     6
  9
$SURFTAB2
 70
     6
  9
$SURFTYPE
 70
     6
  9
$SURFU
 70
     6
  9
$SURFV
 70
     6
  9
$UCSNAME
  2

  9
$UCSORG
 10
0.0
 20
0.0
 30
0.0
  9
$UCSXDIR
 10
1.0
 20
0.0
 30
0.0
  9
$UCSYDIR
 10
0.0
 20
1.0
 30
0.0
  9
$PUCSNAME
  2

  9
$PUCSORG
 10
0.0
 20
0.0
 30
0.0
  9
$PUCSXDIR
 10
1.0
 20
0.0
 30
0.0
  9
$PUCSYDIR
 10
0.0
 20
1.0
 30
0.0
  9
$USERI1
 70
     0
  9
$USERI2
 70
     0
  9
$USERI3
 70
     0
  9
$USERI4
 70
     0
  9
$USERI5
 70
     0
  9
$USERR1
 40
0.0
  9
$USERR2
 40
0.0
  9
$USERR3
 40
0.0
  9
$USERR4
 40
0.0
  9
$USERR5
 40
0.0
  9
$WORLDVIEW
 70
     1
  9
$SHADEDGE
 70
     3
  9
$SHADEDIF
 70
    70
  9
$TILEMODE
 70
     1
  9
$MAXACTVP
 70
    64
  9
$PLIMCHECK
 70
     0
  9
$PEXTMIN
 10
1.0000000000000000E+20
 20
1.0000000000000000E+20
 30
1.0000000000000000E+20
  9
$PEXTMAX
 10
-1.0000000000000000E+20
 20
-1.0000000000000000E+20
 30
-1.0000000000000000E+20
  9
$PLIMMIN
 10
0.0
 20
0.0
  9
$PLIMMAX
 10
12.0
 20
9.0
  9
$UNITMODE
 70
     0
  9
$VISRETAIN
 70
     1
  9
$PLINEGEN
 70
     0
  9
$PSLTSCALE
 70
     1
  0
ENDSEC
  0
SECTION
  2
TABLES
  0
TABLE
  2
VPORT
 70
     1
  0
VPORT
  2
*ACTIVE
 70
     0
 10
0.0
 20
0.0
 11
1.0
 21
1.0
 12
0.0
 22
0.0
 13
0.0
 23
0.0
 14
1.0
 24
1.0
 15
0.0
 25
0.0
 16
0.0
 26
0.0
 36
31.2610846222849403
 17
3471.5509033203129547
 27
187.0817108154296022
 37
0.0
 40
7.9054196208729177
 41
3.1396160558464219
 42
50.0
 43
0.0
 44
0.0
 50
0.0
 51
0.0
 71
     0
 72
   100
 73
     1
 74
     1
 75
     0
 76
     0
 77
     0
 78
     0
  0
ENDTAB
  0
TABLE
  2
LTYPE
 70
     2
  0
LTYPE
  2
CONTINUOUS
 70
     0
  3
Solid line
 72
    65
 73
     0
 40
0.0
  0
LTYPE
  2
PHANTOM2
 70
     0
  3
___ _ _ ___ _ _ ___ _ _ ___ _ _
 72
    65
 73
     6
 40
1.25
 49
0.625
 49
-0.125
 49
0.125
 49
-0.125
 49
0.125
 49
-0.125
  0
ENDTAB
  0
TABLE
  2
LAYER
 70
     2
  0
LAYER
  2
0
 70
     0
 62
   255
  6
CONTINUOUS
  0
LAYER
  2
DEFPOINTS
 70
     0
 62
     7
  6
CONTINUOUS
  0
ENDTAB
  0
TABLE
  2
STYLE
 70
     1
  0
STYLE
  2
STANDARD
 70
     0
 40
0.0
 41
0.8
 50
0.0
 71
     0
 42
0.2
  3
txt
  4

  0
ENDTAB
  0
TABLE
  2
VIEW
 70
     0
  0
ENDTAB
  0
TABLE
  2
UCS
 70
     0
  0
ENDTAB
  0
TABLE
  2
APPID
 70
     9
  0
APPID
  2
ACAD
 70
     0
  0
APPID
  2
ACAD_MLEADERVER
 70
     0
  0
APPID
  2
ACAD_EXEMPT_FROM_CAD_STANDARDS
 70
     0
  0
APPID
  2
ACAD_NAV_VCDISPLAY
 70
     0
  0
APPID
  2
ACAECLAYERSTANDARD
 70
     0
  0
APPID
  2
ACCMTRANSPARENCY
 70
     0
  0
APPID
  2
ACAD_DSTYLE_DIMJAG
 70
     0
  0
APPID
  2
ACAD_DSTYLE_DIMTALN
 70
     0
  0
APPID
  2
ACDBATTR
 70
     0
  0
ENDTAB
  0
TABLE
  2
DIMSTYLE
 70
     1
  0
DIMSTYLE
  2
STANDARD
 70
     0
  3

  4

  5

  6

  7

 40
1.0
 41
0.1875
 42
0.0625
 43
0.38
 44
0.125
 45
0.0
 46
0.0
 47
0.01
 48
0.01
140
0.15625
141
0.09
142
0.0
143
25.3999999999999986
144
1.0
145
0.0
146
1.0
147
0.09
 71
     1
 72
     0
 73
     1
 74
     1
 75
     0
 76
     0
 77
     0
 78
     4
170
     0
171
     2
172
     0
173
     0
174
     0
175
     0
176
     0
177
     0
178
     0
  0
ENDTAB
  0
ENDSEC
  0
SECTION
  2
BLOCKS
  0
BLOCK
  8
0
  2
$MODEL_SPACE
 70
     0
 10
0.0
 20
0.0
 30
0.0
  3
$MODEL_SPACE
  1

  0
ENDBLK
  5
21
  8
0
  0
BLOCK
 67
     1
  8
0
  2
$PAPER_SPACE
 70
     0
 10
0.0
 20
0.0
 30
0.0
  3
$PAPER_SPACE
  1

  0
ENDBLK
  5
1D
 67
     1
  8
0
  0
BLOCK
  8
0
  2
_FILLED
 70
     0
 10
0.0
 20
0.0
 30
0.0
  3
_FILLED
  1

  0
SOLID
  5
6F59
  8
0
  6
BYBLOCK
 62
     0
 10
0.0
 20
0.0
 30
0.0
 11
-1.0
 21
0.1666666667
 31
0.0
 12
-1.0
 22
-0.1666666667
 32
0.0
 13
-1.0
 23
-0.1666666667
 33
0.0
  0
ENDBLK
  5
6F5A
  8
0
  6
BYBLOCK
 62
     0
  0
ENDSEC
  0
SECTION
  2
ENTITIES
  0
ATTDEF
  5
3930
  8
DEFPOINTS
 10
3471.5513805364821565
 20
187.0804260961338912
 30
0.0
 40
0.001
  1
K-74041T-4FP
  3

  2
MODELNUMBER
 70
     0
1001
ACDBATTR
1070
     0
1070
     1
  0
ATTDEF
  5
3931
  8
DEFPOINTS
 10
3471.5513805364821565
 20
187.0787594294673113
 30
0.0
 40
0.001
  1
PITCH
  3

  2
TRADENAME
 70
     0
1001
ACDBATTR
1070
     0
1070
     1
  0
ATTDEF
  5
3932
  8
DEFPOINTS
 10
3471.5513805364821565
 20
187.0770927628005893
 30
0.0
 40
0.001
  1
VALVE TRIM
  3

  2
PRODUCT
 70
     0
1001
ACDBATTR
1070
     0
1070
     1
  0
LINE
  5
971F
  8
0
 10
3473.7753934141428545
 20
184.5192772031462027
 30
0.0
 11
3473.7753934141428545
 21
189.644143387147011
 31
0.0
  0
LINE
  5
9720
  8
0
 10
3469.3263933900298071
 20
184.5192772031462027
 30
0.0
 11
3469.3263933900298071
 21
189.644143387147011
 31
0.0
  0
LINE
  5
9721
  8
0
 10
3470.031315415104018
 20
190.3490654122211083
 30
0.0
 11
3473.0704713890700077
 21
190.3490654122211083
 31
0.0
  0
ARC
  5
9722
  8
0
 10
3470.031315415104018
 20
189.644143387147011
 30
0.0
 40
0.7049220250740821
 50
90.0
 51
180.0
  0
ARC
  5
9723
  8
0
 10
3473.0704713890700077
 20
189.644143387147011
 30
0.0
 40
0.7049220250740821
 50
0.0
 51
90.0
  0
LINE
  5
9724
  8
0
 10
3472.2554976976521175
 20
185.0171407512069948
 30
0.0
 11
3470.8469622845591402
 21
185.0171407512069948
 31
0.0
  0
ARC
  5
9725
  8
0
 10
3471.5508934020867855
 20
188.1252385782009071
 30
0.0
 40
0.9641236563444227
 50
355.2323039671982201
 51
184.7676960328097948
  0
LINE
  5
9726
  8
0
 10
3470.768076827177083
 20
185.091099681983394
 30
0.0
 11
3470.5901057299470267
 21
188.0451044794303073
 31
0.0
  0
LINE
  5
9727
  8
0
 10
3472.3337099769969427
 20
185.091099681983394
 30
0.0
 11
3472.511681074226999
 21
188.0451044794305062
 31
0.0
  0
ARC
  5
9728
  8
0
 10
3472.2551598091049527
 20
185.0958326551235871
 30
0.0
 40
0.07869262932883
 50
270.2460160164304739
 51
356.5518607033869216
  0
ARC
  5
9729
  8
0
 10
3471.5508934020867855
 20
188.1252385782009071
 30
0.0
 40
0.999897086788086
 50
341.1245731933889829
 51
198.8754268066109034
  0
LINE
  5
972A
  8
0
 10
3471.3512521116508651
 20
183.8246873418802068
 30
0.0
 11
3471.0363263172571351
 21
183.8246873418802068
 31
0.0
  0
LINE
  5
972B
  8
0
 10
3471.7512078705590284
 20
183.8246873418802068
 30
0.0
 11
3472.0711724776838309
 21
183.8246873418802068
 31
0.0
  0
LINE
  5
972C
  8
0
 10
3471.0259941534500285
 20
183.8143551780721907
 30
0.0
 11
3471.0363263172571351
 21
183.8246873418802068
 31
0.0
  0
LINE
  5
972D
  8
0
 10
3471.3615842754588812
 20
183.8143551780721907
 30
0.0
 11
3471.3512521116508651
 21
183.8246873418802068
 31
0.0
  0
LINE
  5
972E
  8
0
 10
3472.0815046414932112
 20
183.8143551780721907
 30
0.0
 11
3472.0711724776838309
 21
183.8246873418802068
 31
0.0
  0
LINE
  5
972F
  8
0
 10
3471.7408757067510123
 20
183.8143551780721907
 30
0.0
 11
3471.7512078705590284
 21
183.8246873418802068
 31
0.0
  0
LINE
  5
9730
  8
0
 10
3471.3615842754588812
 20
183.8143551780721907
 30
0.0
 11
3471.7408757067510123
 21
183.8143551780721907
 31
0.0
  0
LINE
  5
9731
  8
0
 10
3472.0815046414932112
 20
183.8143551780721907
 30
0.0
 11
3473.0704713890700077
 21
183.8143551780721907
 31
0.0
  0
LINE
  5
9732
  8
0
 10
3471.0259941534500285
 20
183.8143551780721907
 30
0.0
 11
3470.031315415104018
 21
183.8143551780721907
 31
0.0
  0
ARC
  5
9733
  8
0
 10
3470.031315415104018
 20
184.5192772031462027
 30
0.0
 40
0.7049220250740821
 50
180.0
 51
270.0
  0
ARC
  5
9734
  8
0
 10
3473.0704713890700077
 20
184.5192772031462027
 30
0.0
 40
0.7049220250740821
 50
270.0
 51
0.0
  0
ARC
  5
9735
  8
0
 10
3470.8466269753048437
 20
185.0958326458714112
 30
0.0
 40
0.0786926090440784
 50
183.4481334378168924
 51
270.2441380890720097
  0
ENDSEC
  0
EOF
