  0
SECTION
  2
HEADER
  9
$ACADVER
  1
AC1009
  9
$INSBASE
 10
3651.7838349455169009
 20
306.784936148572001
 30
0.0
  9
$EXTMIN
 10
3643.2709740631280511
 20
305.5159697600786899
 30
-0.0015258207003583
  9
$EXTMAX
 10
3651.9078784832749989
 20
308.0541801661547083
 30
0.0000000349246037
  9
$LIMMIN
 10
0.0
 20
0.0
  9
$LIMMAX
 10
11.6929133858000007
 20
8.2677165353999982
  9
$ORTHOMODE
 70
     0
  9
$REGENMODE
 70
     1
  9
$FILLMODE
 70
     1
  9
$QTEXTMODE
 70
     0
  9
$MIRRTEXT
 70
     0
  9
$DRAGMODE
 70
     2
  9
$LTSCALE
 40
0.6431102362
  9
$OSMODE
 70
  4095
  9
$ATTMODE
 70
     1
  9
$TEXTSIZE
 40
0.2
  9
$TRACEWID
 40
0.05
  9
$TEXTSTYLE
  7
STANDARD
  9
$CLAYER
  8
0
  9
$CELTYPE
  6
BYLAYER
  9
$CECOLOR
 62
   256
  9
$DIMSCALE
 40
1.0
  9
$DIMASZ
 40
0.1875
  9
$DIMEXO
 40
0.0625
  9
$DIMDLI
 40
0.4443307087
  9
$DIMRND
 40
0.0
  9
$DIMDLE
 40
0.0
  9
$DIMEXE
 40
0.125
  9
$DIMTP
 40
0.01
  9
$DIMTM
 40
0.01
  9
$DIMTXT
 40
2.0
  9
$DIMCEN
 40
0.1052362205
  9
$DIMTSZ
 40
0.0
  9
$DIMTOL
 70
     1
  9
$DIMLIM
 70
     0
  9
$DIMTIH
 70
     1
  9
$DIMTOH
 70
     1
  9
$DIMSE1
 70
     0
  9
$DIMSE2
 70
     0
  9
$DIMTAD
 70
     0
  9
$DIMZIN
 70
     0
  9
$DIMBLK
  1

  9
$DIMASO
 70
     1
  9
$DIMSHO
 70
     1
  9
$DIMPOST
  1
\X
  9
$DIMAPOST
  1

  9
$DIMALT
 70
     1
  9
$DIMALTD
 70
     2
  9
$DIMALTF
 40
25.3999999999999986
  9
$DIMLFAC
 40
1.0
  9
$DIMTOFL
 70
     0
  9
$DIMTVP
 40
0.0
  9
$DIMTIX
 70
     0
  9
$DIMSOXD
 70
     0
  9
$DIMSAH
 70
     0
  9
$DIMBLK1
  1

  9
$DIMBLK2
  1

  9
$DIMSTYLE
  2
STANDARD
  9
$DIMCLRD
 70
     0
  9
$DIMCLRE
 70
     0
  9
$DIMCLRT
 70
     0
  9
$DIMTFAC
 40
1.0
  9
$DIMGAP
 40
0.09
  9
$LUNITS
 70
     2
  9
$LUPREC
 70
     4
  9
$SKETCHINC
 40
0.1
  9
$FILLETRAD
 40
0.0
  9
$AUNITS
 70
     0
  9
$AUPREC
 70
     0
  9
$MENU
  1
.
  9
$ELEVATION
 40
0.0
  9
$PELEVATION
 40
0.0
  9
$THICKNESS
 40
0.0
  9
$LIMCHECK
 70
     0
  9
$BLIPMODE
 70
     0
  9
$CHAMFERA
 40
0.0
  9
$CHAMFERB
 40
0.0
  9
$SKPOLY
 70
     0
  9
$TDCREATE
 40
2458060.468368056230247
  9
$TDUPDATE
 40
2459098.8136805561371148
  9
$TDINDWG
 40
0.4899175579
  9
$TDUSRTIMER
 40
0.4899175579
  9
$USRTIMER
 70
     1
  9
$ANGBASE
 50
0.0
  9
$ANGDIR
 70
     0
  9
$PDMODE
 70
     0
  9
$PDSIZE
 40
0.3125
  9
$PLINEWID
 40
0.0
  9
$COORDS
 70
     1
  9
$SPLFRAME
 70
     0
  9
$SPLINETYPE
 70
     6
  9
$SPLINESEGS
 70
     8
  9
$ATTDIA
 70
     1
  9
$ATTREQ
 70
     1
  9
$HANDLING
 70
     1
  9
$HANDSEED
  5
BF58
  9
$SURFTAB1
 70
     6
  9
$SURFTAB2
 70
     6
  9
$SURFTYPE
 70
     6
  9
$SURFU
 70
     6
  9
$SURFV
 70
     6
  9
$UCSNAME
  2

  9
$UCSORG
 10
0.0
 20
0.0
 30
0.0
  9
$UCSXDIR
 10
1.0
 20
0.0
 30
0.0
  9
$UCSYDIR
 10
0.0
 20
1.0
 30
0.0
  9
$PUCSNAME
  2

  9
$PUCSORG
 10
0.0
 20
0.0
 30
0.0
  9
$PUCSXDIR
 10
1.0
 20
0.0
 30
0.0
  9
$PUCSYDIR
 10
0.0
 20
1.0
 30
0.0
  9
$USERI1
 70
     0
  9
$USERI2
 70
     0
  9
$USERI3
 70
     0
  9
$USERI4
 70
     0
  9
$USERI5
 70
     0
  9
$USERR1
 40
0.0
  9
$USERR2
 40
0.0
  9
$USERR3
 40
0.0
  9
$USERR4
 40
0.0
  9
$USERR5
 40
0.0
  9
$WORLDVIEW
 70
     1
  9
$SHADEDGE
 70
     3
  9
$SHADEDIF
 70
    70
  9
$TILEMODE
 70
     1
  9
$MAXACTVP
 70
    64
  9
$PLIMCHECK
 70
     0
  9
$PEXTMIN
 10
1.0000000000000000E+20
 20
1.0000000000000000E+20
 30
1.0000000000000000E+20
  9
$PEXTMAX
 10
-1.0000000000000000E+20
 20
-1.0000000000000000E+20
 30
-1.0000000000000000E+20
  9
$PLIMMIN
 10
0.0
 20
0.0
  9
$PLIMMAX
 10
12.0
 20
9.0
  9
$UNITMODE
 70
     0
  9
$VISRETAIN
 70
     1
  9
$PLINEGEN
 70
     0
  9
$PSLTSCALE
 70
     1
  0
ENDSEC
  0
SECTION
  2
TABLES
  0
TABLE
  2
VPORT
 70
     1
  0
VPORT
  2
*ACTIVE
 70
     0
 10
0.0
 20
0.0
 11
1.0
 21
1.0
 12
387.273142093513286
 22
2.5746410031557612
 13
0.0
 23
0.0
 14
1.0
 24
1.0
 15
0.0
 25
0.0
 16
0.0
 26
0.0
 36
48.4519809769821421
 17
3260.3162841796870453
 27
304.2104339599608807
 37
0.0
 40
3.2701905288733109
 41
2.6528599605522678
 42
50.0
 43
0.0
 44
0.0
 50
0.0
 51
0.0
 71
     0
 72
   100
 73
     1
 74
     1
 75
     0
 76
     0
 77
     0
 78
     0
  0
ENDTAB
  0
TABLE
  2
LTYPE
 70
     2
  0
LTYPE
  2
CONTINUOUS
 70
     0
  3
Solid line
 72
    65
 73
     0
 40
0.0
  0
LTYPE
  2
PHANTOM2
 70
     0
  3
___ _ _ ___ _ _ ___ _ _ ___ _ _
 72
    65
 73
     6
 40
1.25
 49
0.625
 49
-0.125
 49
0.125
 49
-0.125
 49
0.125
 49
-0.125
  0
ENDTAB
  0
TABLE
  2
LAYER
 70
     2
  0
LAYER
  2
0
 70
     0
 62
   255
  6
CONTINUOUS
  0
LAYER
  2
DEFPOINTS
 70
     0
 62
     7
  6
CONTINUOUS
  0
ENDTAB
  0
TABLE
  2
STYLE
 70
     1
  0
STYLE
  2
STANDARD
 70
     0
 40
0.0
 41
0.8
 50
0.0
 71
     0
 42
0.2
  3
txt
  4

  0
ENDTAB
  0
TABLE
  2
VIEW
 70
     0
  0
ENDTAB
  0
TABLE
  2
UCS
 70
     0
  0
ENDTAB
  0
TABLE
  2
APPID
 70
     9
  0
APPID
  2
ACAD
 70
     0
  0
APPID
  2
ACAD_MLEADERVER
 70
     0
  0
APPID
  2
ACAD_EXEMPT_FROM_CAD_STANDARDS
 70
     0
  0
APPID
  2
ACAD_NAV_VCDISPLAY
 70
     0
  0
APPID
  2
ACAECLAYERSTANDARD
 70
     0
  0
APPID
  2
ACCMTRANSPARENCY
 70
     0
  0
APPID
  2
ACAD_DSTYLE_DIMJAG
 70
     0
  0
APPID
  2
ACAD_DSTYLE_DIMTALN
 70
     0
  0
APPID
  2
ACDBATTR
 70
     0
  0
ENDTAB
  0
TABLE
  2
DIMSTYLE
 70
     1
  0
DIMSTYLE
  2
STANDARD
 70
     0
  3

  4

  5

  6

  7

 40
1.0
 41
0.1875
 42
0.0625
 43
0.38
 44
0.125
 45
0.0
 46
0.0
 47
0.01
 48
0.01
140
0.15625
141
0.09
142
0.0
143
25.3999999999999986
144
1.0
145
0.0
146
1.0
147
0.09
 71
     1
 72
     0
 73
     1
 74
     1
 75
     0
 76
     0
 77
     0
 78
     4
170
     0
171
     2
172
     0
173
     0
174
     0
175
     0
176
     0
177
     0
178
     0
  0
ENDTAB
  0
ENDSEC
  0
SECTION
  2
BLOCKS
  0
BLOCK
  8
0
  2
$MODEL_SPACE
 70
     0
 10
0.0
 20
0.0
 30
0.0
  3
$MODEL_SPACE
  1

  0
ENDBLK
  5
21
  8
0
  0
BLOCK
 67
     1
  8
0
  2
$PAPER_SPACE
 70
     0
 10
0.0
 20
0.0
 30
0.0
  3
$PAPER_SPACE
  1

  0
ENDBLK
  5
1D
 67
     1
  8
0
  0
ENDSEC
  0
SECTION
  2
ENTITIES
  0
ATTDEF
  5
A142
  8
DEFPOINTS
 10
3651.7857593312469362
 20
306.7856112156949848
 30
0.0
 40
0.001
  1
K-74046IN
  3

  2
MODELNUMBER
 70
     0
1001
ACDBATTR
1070
     0
1070
     1
  0
ATTDEF
  5
A143
  8
DEFPOINTS
 10
3651.7857593312469362
 20
306.7839445490283765
 30
0.0
 40
0.001
  1
TAUT
  3

  2
TRADENAME
 70
     0
1001
ACDBATTR
1070
     0
1070
     1
  0
ATTDEF
  5
A144
  8
DEFPOINTS
 10
3651.7857593312469362
 20
306.7822778823617114
 30
0.0
 40
0.001
  1
BATH SPOUT
  3

  2
PRODUCT
 70
     0
1001
ACDBATTR
1070
     0
1070
     1
  0
LINE
  5
BBA4
  8
0
 10
3643.3397651264158412
 20
306.4669975525220025
 30
0.0
 11
3643.3397652036760519
 21
307.2557833053987224
 31
0.0
  0
LINE
  5
BBA5
  8
0
 10
3643.9212872773168783
 20
306.3067046862220195
 30
0.0
 11
3643.9233182459170166
 21
306.312932301822002
 31
0.0
  0
LINE
  5
BBA6
  8
0
 10
3643.9249417396172248
 20
306.3179104657219796
 30
0.0
 11
3643.9280610708178756
 21
306.3274753576220064
 31
0.0
  0
LINE
  5
BBA7
  8
0
 10
3643.9304010650171222
 20
306.3346505469219778
 30
0.0
 11
3643.934708747816785
 21
306.3478593145219975
 31
0.0
  0
LINE
  5
BBA8
  8
0
 10
3643.9378452144169387
 20
306.3574767494220055
 30
0.0
 11
3643.9433251955251762
 21
306.3742801680469938
 31
0.0
  0
LINE
  5
BBA9
  8
0
 10
3643.9307099962170469
 20
306.3092995921219881
 30
0.0
 11
3643.9332763894171876
 21
306.3171689949219854
 31
0.0
  0
LINE
  5
BBAA
  8
0
 10
3643.9352510207168052
 20
306.3232238618219867
 30
0.0
 11
3643.9389502513167827
 21
306.3345669154219877
 31
0.0
  0
LINE
  5
BBAB
  8
0
 10
3643.9416770941170398
 20
306.3429283094220068
 30
0.0
 11
3643.9466358866170594
 21
306.3581335929220018
 31
0.0
  0
LINE
  5
BBAC
  8
0
 10
3643.9497194117170693
 20
306.3040991255221002
 30
0.0
 11
3643.9522900940169166
 21
306.3119816800219724
 31
0.0
  0
LINE
  5
BBAD
  8
0
 10
3643.9542681115171945
 20
306.3180469301220228
 30
0.0
 11
3643.9579738969168829
 21
306.3294100831220135
 31
0.0
  0
LINE
  5
BBAE
  8
0
 10
3643.9607057568168784
 20
306.3377868612220141
 30
0.0
 11
3643.965674104018035
 21
306.3530214425221061
 31
0.0
  0
LINE
  5
BBAF
  8
0
 10
3643.9560399806168789
 20
306.2971818223219884
 30
0.0
 11
3643.9580770341171956
 21
306.3034280962220919
 31
0.0
  0
LINE
  5
BBB0
  8
0
 10
3643.9597054927171484
 20
306.3084214842219808
 30
0.0
 11
3643.9628346247168338
 21
306.3180164285220144
 31
0.0
  0
LINE
  5
BBB1
  8
0
 10
3643.9651822060168342
 20
306.3252148825220047
 30
0.0
 11
3643.9695044138170488
 21
306.3384681884219845
 31
0.0
  0
LINE
  5
BBB2
  8
0
 10
3643.9726519382170409
 20
306.3481195303220943
 30
0.0
 11
3643.9775441279111874
 21
306.3631205875046248
 31
0.0
  0
LINE
  5
BBB3
  8
0
 10
3643.9753406107179217
 20
306.2928743153220239
 30
0.0
 11
3643.9773843832172133
 21
306.2991411917220148
 31
0.0
  0
LINE
  5
BBB4
  8
0
 10
3643.9790183251170674
 20
306.3041513933220017
 30
0.0
 11
3643.9821582840168048
 21
306.3137795367219951
 31
0.0
  0
LINE
  5
BBB5
  8
0
 10
3643.9845142496169501
 20
306.3210036995220094
 30
0.0
 11
3643.9888525148171539
 21
306.334306242821981
 31
0.0
  0
LINE
  5
BBB6
  8
0
 10
3643.9920122697171792
 20
306.3439950873220141
 30
0.0
 11
3643.9962590834279581
 21
306.3570172102549236
 31
0.0
  0
LINE
  5
BBB7
  8
0
 10
3643.9850192963172049
 20
306.2962540988219757
 30
0.0
 11
3643.9876058482168446
 21
306.3041853148220071
 31
0.0
  0
LINE
  5
BBB8
  8
0
 10
3643.9895963984167793
 20
306.3102889944220237
 30
0.0
 11
3643.9933264543169571
 21
306.3217265684219797
 31
0.0
  0
LINE
  5
BBB9
  8
0
 10
3643.9960768995169929
 20
306.3301603353219775
 30
0.0
 11
3644.0010806633172251
 21
306.3455035153220933
 31
0.0
  0
LINE
  5
BBBA
  8
0
 10
3644.0046259756168183
 20
306.2928850389220088
 30
0.0
 11
3644.0072257683168573
 21
306.3008568557219746
 31
0.0
  0
LINE
  5
BBBB
  8
0
 10
3644.0092267800168884
 20
306.3069926135220271
 30
0.0
 11
3644.0129771068168338
 21
306.3184923451220243
 31
0.0
  0
LINE
  5
BBBC
  8
0
 10
3644.0157430857170766
 20
306.3269737431219824
 30
0.0
 11
3644.0207764770170797
 21
306.3424077709220228
 31
0.0
  0
LINE
  5
BBBD
  8
0
 10
3644.0111757286172178
 20
306.2866704896219971
 30
0.0
 11
3644.0132382755168692
 21
306.292994934522028
 31
0.0
  0
LINE
  5
BBBE
  8
0
 10
3644.0148875453169239
 20
306.2980521363220987
 30
0.0
 11
3644.0180577855180672
 21
306.3077731321220085
 31
0.0
  0
LINE
  5
BBBF
  8
0
 10
3644.020437215317088
 20
306.3150692440220269
 30
0.0
 11
3644.024820456217185
 21
306.328509697422021
 31
0.0
  0
LINE
  5
BBC0
  8
0
 10
3644.0310785605170167
 20
306.2842095304220038
 30
0.0
 11
3644.033155129116949
 21
306.2905769705220109
 31
0.0
  0
LINE
  5
BBC1
  8
0
 10
3644.0348158523170241
 20
306.2956692923219748
 30
0.0
 11
3644.038008735216863
 21
306.3054597180220071
 31
0.0
  0
LINE
  5
BBC2
  8
0
 10
3644.0404057247169476
 20
306.3128096736220982
 30
0.0
 11
3644.0448226594171501
 21
306.3263534435220095
 31
0.0
  0
LINE
  5
BBC3
  8
0
 10
3644.041037928417154
 20
306.2884499782219905
 30
0.0
 11
3644.0436708730171631
 21
306.2965234493220237
 31
0.0
  0
LINE
  5
BBC4
  8
0
 10
3644.0456980962171656
 20
306.302739580421985
 30
0.0
 11
3644.0494992610169902
 21
306.3143951977219785
 31
0.0
  0
LINE
  5
BBC5
  8
0
 10
3644.05230424051706
 20
306.3229961842220064
 30
0.0
 11
3644.0569449597210223
 21
306.3372261508304177
 31
0.0
  0
LINE
  5
BBC6
  8
0
 10
3644.0612681283168968
 20
306.286992836822094
 30
0.0
 11
3644.0639244809171942
 21
306.295138084721998
 31
0.0
  0
LINE
  5
BBC7
  8
0
 10
3644.0659702282168837
 20
306.3014110164219801
 30
0.0
 11
3644.0698073625171673
 21
306.3131769281220045
 31
0.0
  0
LINE
  5
BBC8
  8
0
 10
3644.0726399742170543
 20
306.3218626443219819
 30
0.0
 11
3644.0756599152368835
 21
306.3311227735812281
 31
0.0
  0
LINE
  5
BBC9
  8
0
 10
3644.0680428596169804
 20
306.2814681444219786
 30
0.0
 11
3644.0701525802169272
 21
306.2879372394219786
 31
0.0
  0
LINE
  5
BBCA
  8
0
 10
3644.071840403216811
 20
306.2931126579219949
 30
0.0
 11
3644.0750869141170369
 21
306.303067524922028
 31
0.0
  0
LINE
  5
BBCB
  8
0
 10
3644.0775255427170123
 20
306.3105451595220075
 30
0.0
 11
3644.0820225002171355
 21
306.3243343054219849
 31
0.0
  0
LINE
  5
BBCC
  8
0
 10
3644.0885833876168363
 20
306.2809625707220107
 30
0.0
 11
3644.0907157490178179
 21
306.2875010900219763
 31
0.0
  0
LINE
  5
BBCD
  8
0
 10
3644.0924220959168451
 20
306.2927333089219815
 30
0.0
 11
3644.0957053081169761
 21
306.3028007137219788
 31
0.0
  0
LINE
  5
BBCE
  8
0
 10
3644.098172474016792
 20
306.3103658531219935
 30
0.0
 11
3644.1021268592171509
 21
306.3224912946220115
 31
0.0
  0
LINE
  5
BBCF
  8
0
 10
3644.0988590778169964
 20
306.2861729661220238
 30
0.0
 11
3644.1015690589169935
 21
306.2944826565220069
 31
0.0
  0
LINE
  5
BBD0
  8
0
 10
3644.1036572967168468
 20
306.3008858784220934
 30
0.0
 11
3644.1075770717170599
 21
306.3129051935219991
 31
0.0
  0
LINE
  5
BBD1
  8
0
 10
3644.1197610883177731
 20
306.2867758164219936
 30
0.0
 11
3644.1225070351169961
 21
306.2951957895219834
 31
0.0
  0
LINE
  5
BBD2
  8
0
 10
3644.1246238101171002
 20
306.3016865156220092
 30
0.0
 11
3644.128593803116928
 21
306.3138598157220258
 31
0.0
  0
LINE
  5
BBD3
  8
0
 10
3644.1306902886331045
 20
306.2940010152278774
 30
0.0
 11
3644.1340597852167775
 21
306.3043220692219961
 31
0.0
  0
LINE
  5
BBD4
  8
0
 10
3644.1267627402171456
 20
306.2819469370220986
 30
0.0
 11
3644.1289459408171751
 21
306.2886413458219863
 31
0.0
  0
LINE
  5
BBD5
  8
0
 10
3644.1480012071169767
 20
306.2835814729219805
 30
0.0
 11
3644.1502180942179621
 21
306.2903791755219913
 31
0.0
  0
LINE
  5
BBD6
  8
0
 10
3644.1519937167167882
 20
306.2958238161220947
 30
0.0
 11
3644.1550607471172043
 21
306.3052283368219832
 31
0.0
  0
LINE
  5
BBD7
  8
0
 10
3644.1586449429169079
 20
306.2899204169219729
 30
0.0
 11
3644.1614709151172065
 21
306.2985857739220137
 31
0.0
  0
LINE
  5
BBD8
  8
0
 10
3644.1802977529168857
 20
306.2928254643221067
 30
0.0
 11
3644.1815276910169814
 21
306.2965968579219975
 31
0.0
  0
LINE
  5
BBD9
  8
0
 10
3644.1806556443170848
 20
306.2858453051219954
 30
0.0
 11
3644.1813770213170756
 21
306.2880572833220185
 31
0.0
  0
LINE
  5
BBDA
  8
0
 10
3644.1837368499441254
 20
306.287763667907484
 30
0.0
 11
3644.1828751677171567
 21
306.2851214675220035
 31
0.0
  0
LINE
  5
BBDB
  8
0
 10
3644.1889603593172069
 20
306.2858316533220204
 30
0.0
 11
3644.1881660348171863
 21
306.2833959941219746
 31
0.0
  0
LINE
  5
BBDC
  8
0
 10
3644.2819964981172234
 20
306.3016899983221037
 30
0.0
 11
3644.3063698907171784
 21
306.3764268106219788
 31
0.0
  0
LINE
  5
BBDD
  8
0
 10
3644.1842557534941989
 20
306.2846712267925113
 30
0.0
 11
3644.1881660348171863
 21
306.2833959941219746
 31
0.0
  0
LINE
  5
BBDE
  8
0
 10
3644.1806556442938927
 20
306.2858453051294987
 30
0.0
 11
3644.1828751675961939
 21
306.2851214675616234
 31
0.0
  0
LINE
  5
BBDF
  8
0
 10
3643.8020520139698419
 20
306.4203526004152991
 30
0.0
 11
3644.2521219620780357
 21
306.2735744432532101
 31
0.0
  0
LINE
  5
BBE0
  8
0
 10
3651.6657247093171463
 20
305.5250936289219794
 30
0.0
 11
3651.7838349455169009
 21
305.5250936289219794
 31
0.0
  0
LINE
  5
BBE1
  8
0
 10
3644.2624020521848252
 20
306.2787983301074064
 30
0.0
 11
3644.2521219620780357
 21
306.2735744432532101
 31
0.0
  0
LINE
  5
BBE2
  8
0
 10
3651.6460398972171788
 20
307.439972438722009
 30
0.0
 11
3643.4482038807168465
 21
307.2894410109220189
 31
0.0
  0
LINE
  5
BBE3
  8
0
 10
3643.4482038807168465
 20
307.2894410109220189
 30
0.0
 11
3643.3709233176168709
 21
307.2880626096221022
 31
0.0
  0
LINE
  5
BBE4
  8
0
 10
3651.7838349455169009
 20
308.0447786682220226
 30
0.0
 11
3651.6657247093171463
 21
308.0447786682220226
 31
0.0
  0
LINE
  5
BBE5
  8
0
 10
3651.6460396699171724
 20
308.0250936289219794
 30
0.0
 11
3651.6460396699171724
 21
305.5447786682220226
 31
0.0
  0
LINE
  5
BBE6
  8
0
 10
3651.7838349455169009
 20
305.5250936289219794
 30
0.0
 11
3651.7838349455169009
 21
308.0447786682220226
 31
0.0
  0
ARC
  5
BBE7
  8
0
 10
3643.3712717430180419
 20
306.4670069778219954
 30
0.0
 40
0.0315070161
 50
180.0173829875008096
 51
261.3851074731880999
  0
ARC
  5
BBE8
  8
0
 10
3643.3712634483172224
 20
306.476628044622089
 30
0.0
 40
0.031499536
 50
180.5003650515600953
 51
267.8205915523885778
  0
ARC
  5
BBE9
  8
0
 10
3643.9287871684168749
 20
306.4696595496220084
 30
0.0
 40
0.1643035032
 50
266.4722789341640805
 51
270.2221869197986166
  0
ARC
  5
BBEA
  8
0
 10
3643.9255841486169629
 20
306.4692756397220137
 30
0.0
 40
0.1626277283
 50
268.4859823756065111
 51
272.1385546809469815
  0
ARC
  5
BBEB
  8
0
 10
3643.9378285455168225
 20
306.501937615821987
 30
0.0
 40
0.2020296705
 50
281.763934587099186
 51
282.4848862805882845
  0
ARC
  5
BBEC
  8
0
 10
3643.9018572532168037
 20
306.5003703178219894
 30
0.0
 40
0.1839143582
 50
277.2106467517089072
 51
280.650380968810282
  0
ARC
  5
BBED
  8
0
 10
3643.9360040258170557
 20
306.4841796087220018
 30
0.0
 40
0.1820942804
 50
273.5929083515097204
 51
276.9623715500081857
  0
ARC
  5
BBEE
  8
0
 10
3643.9330887043170151
 20
306.4827772317220251
 30
0.0
 40
0.1794503999
 50
275.317562109601397
 51
278.7869433530420906
  0
ARC
  5
BBEF
  8
0
 10
3643.934946702418074
 20
306.5139808727220156
 30
0.0
 40
0.2144140214
 50
284.5987447983994798
 51
284.9446700911913126
  0
ARC
  5
BBF0
  8
0
 10
3643.9053269328169335
 20
306.5212933212220037
 30
0.0
 40
0.2090558166
 50
283.538918454690986
 51
286.761677221022012
  0
ARC
  5
BBF1
  8
0
 10
3643.908615708517118
 20
306.5196016334219848
 30
0.0
 40
0.2087493371
 50
281.8843092564961239
 51
285.0541700401909111
  0
ARC
  5
BBF2
  8
0
 10
3643.9363479829180505
 20
306.508480002521992
 30
0.0
 40
0.2087375606
 50
282.8435843736924085
 51
284.607101405309777
  0
ARC
  5
BBF3
  8
0
 10
3643.9372754306168645
 20
306.5044544754219942
 30
0.0
 40
0.2046065876
 50
282.4837481210007013
 51
282.8409498290993156
  0
ARC
  5
BBF4
  8
0
 10
3643.9045365954170848
 20
306.5022901506220023
 30
0.0
 40
0.1873387788
 50
275.5001859095374925
 51
278.8246401343985781
  0
ARC
  5
BBF5
  8
0
 10
3643.9678046453168463
 20
306.4680097554219742
 30
0.0
 40
0.1764478401
 50
271.5790228474766081
 51
275.1762533006872218
  0
ARC
  5
BBF6
  8
0
 10
3643.9646946638172267
 20
306.4670893090220147
 30
0.0
 40
0.1745399674
 50
273.496887754405293
 51
277.0136359266102204
  0
ARC
  5
BBF7
  8
0
 10
3644.0295142707168452
 20
306.4423713536219793
 30
0.0
 40
0.1657419029
 50
229.780961676366104
 51
233.4065322896908867
  0
ARC
  5
BBF8
  8
0
 10
3644.025097643017034
 20
306.441678942121996
 30
0.0
 40
0.1641180766
 50
231.6722113962958929
 51
235.2932936316572068
  0
ARC
  5
BBF9
  8
0
 10
3644.0313801810170844
 20
306.4303811443219843
 30
0.0
 40
0.1530300794
 50
236.7233583676525939
 51
240.5066314316954958
  0
ARC
  5
BBFA
  8
0
 10
3644.027642216617096
 20
306.4304067257220936
 30
0.0
 40
0.1524501087
 50
238.6956715695023945
 51
242.6538806067997029
  0
ARC
  5
BBFB
  8
0
 10
3644.0069798549179723
 20
306.4680224306219998
 30
0.0
 40
0.1865101053
 50
276.5678770193749756
 51
280.1092608474892245
  0
ARC
  5
BBFC
  8
0
 10
3643.9413232183169384
 20
306.4996006216219939
 30
0.0
 40
0.2008211035
 50
280.0902694758528924
 51
283.3243738538923253
  0
ARC
  5
BBFD
  8
0
 10
3643.9704808606170445
 20
306.4850622646220017
 30
0.0
 40
0.1951870257
 50
280.0748971993111809
 51
283.4024115263956105
  0
ARC
  5
BBFE
  8
0
 10
3643.9741124003171535
 20
306.4821875025219811
 30
0.0
 40
0.193195256
 50
278.3751705608938778
 51
281.683762104302275
  0
ARC
  5
BBFF
  8
0
 10
3643.9425302137169638
 20
306.5239040172219802
 30
0.0
 40
0.2289475346
 50
286.225602160032679
 51
289.2621175422912074
  0
ARC
  5
BC00
  8
0
 10
3643.9723000070180206
 20
306.5101070926219791
 30
0.0
 40
0.2233647266
 50
286.2531832889055181
 51
289.3669861065025088
  0
ARC
  5
BC01
  8
0
 10
3643.9757292316171515
 20
306.5088413481220186
 30
0.0
 40
0.2229236568
 50
284.6836463924614122
 51
287.744650504600088
  0
ARC
  5
BC02
  8
0
 10
3644.0083253101170158
 20
306.498981287621973
 30
0.0
 40
0.2199140778
 50
283.2784381053626248
 51
286.3284252817107927
  0
ARC
  5
BC03
  8
0
 10
3644.0064354433170593
 20
306.4945335312219754
 30
0.0
 40
0.2146619742
 50
284.7995014965960081
 51
287.9831418366488833
  0
ARC
  5
BC04
  8
0
 10
3644.0430214510170117
 20
306.4852717609221031
 30
0.0
 40
0.2104316667
 50
281.7186880461787268
 51
285.0050620637621819
  0
ARC
  5
BC05
  8
0
 10
3644.0407362024179747
 20
306.4814277274221013
 30
0.0
 40
0.2060961722
 50
283.4242441905915939
 51
286.688327461546919
  0
ARC
  5
BC06
  8
0
 10
3644.001471138017223
 20
306.4811079601220172
 30
0.0
 40
0.199117787
 50
278.5578203702569908
 51
281.7652518360105205
  0
ARC
  5
BC07
  8
0
 10
3644.0043400426170592
 20
306.525379123822006
 30
0.0
 40
0.2487619812
 50
290.7371714708984882
 51
293.7067786797031204
  0
ARC
  5
BC08
  8
0
 10
3644.0078595532168038
 20
306.5243692968219875
 30
0.0
 40
0.2482525707
 50
289.2630508294882929
 51
292.1774571503107722
  0
ARC
  5
BC09
  8
0
 10
3644.0435376574168913
 20
306.5106348039220165
 30
0.0
 40
0.2378564068
 50
288.0502176818010867
 51
291.0433978452857104
  0
ARC
  5
BC0A
  8
0
 10
3644.0673439863180647
 20
306.4196883628220007
 30
0.0
 40
0.1456231953
 50
243.9198417006932118
 51
248.0060972906545942
  0
ARC
  5
BC0B
  8
0
 10
3644.1054011627170439
 20
306.4182854666220237
 30
0.0
 40
0.1449133533
 50
239.676166224356507
 51
243.6310451349893924
  0
ARC
  5
BC0C
  8
0
 10
3644.1015780814168465
 20
306.4178941848219893
 30
0.0
 40
0.1445384844
 50
241.7454795910886958
 51
245.6883887990026949
  0
ARC
  5
BC0D
  8
0
 10
3644.1407590722169516
 20
306.4192818564220033
 30
0.0
 40
0.1437652587
 50
237.3358029691648881
 51
241.3548656560950008
  0
ARC
  5
BC0E
  8
0
 10
3644.1367432236170316
 20
306.4185147405220278
 30
0.0
 40
0.1432632837
 50
239.4502617869021037
 51
243.4508812050951008
  0
ARC
  5
BC0F
  8
0
 10
3644.1132787294168338
 20
306.4151072607219817
 30
0.0
 40
0.1410880326
 50
247.3017332709547134
 51
251.2987452156517918
  0
ARC
  5
BC10
  8
0
 10
3644.1482445921169528
 20
306.4157864386220922
 30
0.0
 40
0.138704206
 50
245.0609798906891967
 51
249.1410430008704964
  0
ARC
  5
BC11
  8
0
 10
3644.1440483348169437
 20
306.4143108740220214
 30
0.0
 40
0.1375684776
 50
247.1897636138058942
 51
251.290236021067102
  0
ARC
  5
BC12
  8
0
 10
3644.1028375481168951
 20
306.4552929612220282
 30
0.0
 40
0.1919165872
 50
220.9898219215970983
 51
224.3566507563548953
  0
ARC
  5
BC13
  8
0
 10
3644.0699357407170282
 20
306.4563992559220083
 30
0.0
 40
0.1894087099
 50
221.2753454933713897
 51
224.6771558012027015
  0
ARC
  5
BC14
  8
0
 10
3644.0645209461172271
 20
306.4550236041220046
 30
0.0
 40
0.1867882565
 50
223.0667074793049096
 51
226.4590089256977024
  0
ARC
  5
BC15
  8
0
 10
3644.06928401221694
 20
306.4451000290220009
 30
0.0
 40
0.1751842206
 50
227.7980534653991924
 51
229.3736555550046035
  0
ARC
  5
BC16
  8
0
 10
3644.0672455604171773
 20
306.4427457562219956
 30
0.0
 40
0.1720701107
 50
229.3783859057949996
 51
229.7721889415041119
  0
ARC
  5
BC17
  8
0
 10
3644.1019226024168347
 20
306.4402735135220155
 30
0.0
 40
0.171793921
 50
225.5593386207071092
 51
229.1680432740049014
  0
ARC
  5
BC18
  8
0
 10
3644.066324767316928
 20
306.4416563307220258
 30
0.0
 40
0.1706436789
 50
229.7719967515091923
 51
230.5575995628065868
  0
ARC
  5
BC19
  8
0
 10
3644.0969410831171444
 20
306.4389025231220103
 30
0.0
 40
0.1697965038
 50
227.4679798416038921
 51
231.0678878178966897
  0
ARC
  5
BC1A
  8
0
 10
3644.0651095356170117
 20
306.4401827916220213
 30
0.0
 40
0.1687336788
 50
230.5583930176919978
 51
231.3415183391084042
  0
ARC
  5
BC1B
  8
0
 10
3644.0604285520171288
 20
306.4391567655220001
 30
0.0
 40
0.1669354021
 50
229.6250982252981032
 51
233.230578841007798
  0
ARC
  5
BC1C
  8
0
 10
3644.1012791410171303
 20
306.4271561855219943
 30
0.0
 40
0.1553427286
 50
232.4024431115176981
 51
236.2110437321107099
  0
ARC
  5
BC1D
  8
0
 10
3644.0658452078168921
 20
306.4276753221220133
 30
0.0
 40
0.1542866355
 50
234.6169075402681017
 51
238.4078961812946886
  0
ARC
  5
BC1E
  8
0
 10
3644.0969470116169759
 20
306.42620855132202
 30
0.0
 40
0.1541523568
 50
234.4065751245020124
 51
238.2032809373073974
  0
ARC
  5
BC1F
  8
0
 10
3644.0617975416171248
 20
306.4271665661220254
 30
0.0
 40
0.1533495282
 50
236.6012546196911046
 51
240.3807362884597865
  0
ARC
  5
BC20
  8
0
 10
3644.0719612958168909
 20
306.4216882488220222
 30
0.0
 40
0.1480710976
 50
241.9149448193902003
 51
245.760862847849495
  0
ARC
  5
BC21
  8
0
 10
3644.0728363972170882
 20
306.5082792345219787
 30
0.0
 40
0.2369375612
 50
288.4971365279030806
 51
291.5190685935655779
  0
ARC
  5
BC22
  8
0
 10
3644.0797119892167757
 20
306.4983229793220971
 30
0.0
 40
0.2264176101
 50
286.7725579151269812
 51
290.0214478583494042
  0
ARC
  5
BC23
  8
0
 10
3644.1164910028169288
 20
306.4638160392220243
 30
0.0
 40
0.2051988267
 50
219.2825794110011088
 51
220.3759141532021886
  0
ARC
  5
BC24
  8
0
 10
3644.1490228452180418
 20
306.4599801667220049
 30
0.0
 40
0.2006131872
 50
216.9623287842559023
 51
220.3244474932972992
  0
ARC
  5
BC25
  8
0
 10
3644.1122429948168246
 20
306.4602098335220148
 30
0.0
 40
0.1996265498
 50
220.3772379547924061
 51
221.8368751487940074
  0
ARC
  5
BC26
  8
0
 10
3644.1427976930172008
 20
306.4579350000220188
 30
0.0
 40
0.1974416052
 50
218.7669033177976985
 51
222.1170687267020867
  0
ARC
  5
BC27
  8
0
 10
3644.1086269629167873
 20
306.4569971634221019
 30
0.0
 40
0.1947895475
 50
221.8422718500063979
 51
222.5735990458985043
  0
ARC
  5
BC28
  8
0
 10
3644.1401364072171418
 20
306.4427803288220957
 30
0.0
 40
0.1750371895
 50
223.2432382535542104
 51
226.8547624659032067
  0
ARC
  5
BC29
  8
0
 10
3644.1348052716180064
 20
306.4410468166220198
 30
0.0
 40
0.1728053825
 50
225.1702829291915009
 51
228.7683748477899996
  0
ARC
  5
BC2A
  8
0
 10
3644.1378162449168485
 20
306.4289869392219998
 30
0.0
 40
0.1562822732
 50
230.044307846688497
 51
233.8831178897906113
  0
ARC
  5
BC2B
  8
0
 10
3644.1332119263170171
 20
306.4276606119220219
 30
0.0
 40
0.1549087024
 50
232.0788722589915949
 51
235.9034001328325019
  0
ARC
  5
BC2C
  8
0
 10
3644.1083386289169539
 20
306.5012221243219983
 30
0.0
 40
0.2285939401
 50
289.0301249164825208
 51
290.6191207316604164
  0
ARC
  5
BC2D
  8
0
 10
3644.1226117876171884
 20
306.4765891262219952
 30
0.0
 40
0.2249501662
 50
213.3139862634205883
 51
216.4541750999973999
  0
ARC
  5
BC2E
  8
0
 10
3644.1133995550171676
 20
306.4966846708219919
 30
0.0
 40
0.2235403796
 50
288.4799452605117267
 51
289.0764827670979003
  0
ARC
  5
BC2F
  8
0
 10
3644.1158605779178288
 20
306.4746476619220061
 30
0.0
 40
0.2211137051
 50
214.9882131880989107
 51
218.1154933585198137
  0
ARC
  5
BC30
  8
0
 10
3644.1535318888168149
 20
306.4150824547219827
 30
0.0
 40
0.1370992713
 50
255.1468787127608948
 51
259.4841096805299117
  0
ARC
  5
BC31
  8
0
 10
3644.1842159402172001
 20
306.41915741952198
 30
0.0
 40
0.1361217136
 50
242.6699493146062139
 51
246.8450527171874
  0
ARC
  5
BC32
  8
0
 10
3644.1569743466170621
 20
306.414526647221976
 30
0.0
 40
0.1359779046
 50
253.008510466388401
 51
257.163618023281515
  0
ARC
  5
BC33
  8
0
 10
3644.1794877030170028
 20
306.4166185143220105
 30
0.0
 40
0.1341278294
 50
244.8605013673106896
 51
249.0817594873963117
  0
ARC
  5
BC34
  8
0
 10
3644.1888537627169171
 20
306.4171071756219931
 30
0.0
 40
0.1324866064
 50
253.0450663263341085
 51
257.3091241714490138
  0
ARC
  5
BC35
  8
0
 10
3644.2445665870168341
 20
306.3138967528220178
 30
0.0
 40
0.0393700787
 50
296.9376621854257792
 51
341.9376619434009967
  0
ARC
  5
BC36
  8
0
 10
3644.1822645000170269
 20
306.4987544759219986
 30
0.0
 40
0.2690130489
 50
207.6050421178804868
 51
210.3012338403138983
  0
ARC
  5
BC37
  8
0
 10
3644.1776557980169855
 20
306.4875218453220214
 30
0.0
 40
0.2479155677
 50
211.2813969535019964
 51
212.3941591328994036
  0
ARC
  5
BC38
  8
0
 10
3644.1709903955170375
 20
306.4833055825220072
 30
0.0
 40
0.2400285948
 50
212.3967344704064999
 51
213.6223417201950951
  0
ARC
  5
BC39
  8
0
 10
3644.1994524740798624
 20
306.4803552477094968
 30
0.0
 40
0.2341578688367721
 50
212.2757444207769879
 51
213.6469654693235043
  0
ARC
  5
BC3A
  8
0
 10
3644.1656768102170645
 20
306.4797953056220194
 30
0.0
 40
0.2336602469
 50
213.6270478469004956
 51
214.3006350652941876
  0
ARC
  5
BC3B
  8
0
 10
3644.1583985047168426
 20
306.4775433814220946
 30
0.0
 40
0.2294524088
 50
212.867069474097292
 51
215.9648269293791998
  0
ARC
  5
BC3C
  8
0
 10
3644.1847181778171034
 20
306.4631116604219869
 30
0.0
 40
0.2035836688
 50
216.3627689545052135
 51
219.6991966948409072
  0
ARC
  5
BC3D
  8
0
 10
3644.1800069089172212
 20
306.4478879966220006
 30
0.0
 40
0.1786223288
 50
220.7398946231851937
 51
224.3624423426041119
  0
ARC
  5
BC3E
  8
0
 10
3644.1742598333171372
 20
306.4457686418219851
 30
0.0
 40
0.1761078408
 50
222.6937862516037114
 51
226.3009569661832074
  0
ARC
  5
BC3F
  8
0
 10
3644.1756939260171748
 20
306.4334403429219833
 30
0.0
 40
0.1572903607
 50
227.5022188301412029
 51
231.3822223404079068
  0
ARC
  5
BC40
  8
0
 10
3644.1707667227169622
 20
306.431708428321997
 30
0.0
 40
0.1557000609
 50
229.5772597709994898
 51
233.4406920031453012
  0
ARC
  5
BC41
  8
0
 10
3644.2087395134171857
 20
306.4372617073220226
 30
0.0
 40
0.1548979241
 50
228.5484971165008119
 51
230.7684522420389897
  0
ARC
  5
BC42
  8
0
 10
3644.1774441612169539
 20
306.42328756982198
 30
0.0
 40
0.1429219207
 50
234.8311664019205978
 51
238.917354365900394
  0
ARC
  5
BC43
  8
0
 10
3644.1729652416170211
 20
306.4217342280219896
 30
0.0
 40
0.141824815
 50
236.9920018408988938
 51
241.068851138945206
  0
ARC
  5
BC44
  8
0
 10
3644.2104225258171937
 20
306.427809153621979
 30
0.0
 40
0.1402702494
 50
234.3386289931694932
 51
238.486130838127508
  0
ARC
  5
BC45
  8
0
 10
3644.1994475589171998
 20
306.4239204552220031
 30
0.0
 40
0.1370601952
 50
261.3608064522812242
 51
265.5607837409058902
  0
ARC
  5
BC47
  8
0
 10
3643.851614786016853
 20
306.6242829733220105
 30
0.0
 40
0.3134893991
 50
298.3205318314082888
 51
299.19373514270751
  0
ARC
  5
BC48
  8
0
 10
3643.855770992116959
 20
306.6165469569220932
 30
0.0
 40
0.3047076072
 50
297.4354325095001172
 51
298.3226483047005786
  0
ARC
  5
BC49
  8
0
 10
3643.8281434657169484
 20
306.6303571680219875
 30
0.0
 40
0.3044513056
 50
296.8773255475027781
 51
298.9093776382829901
  0
ARC
  5
BC4A
  8
0
 10
3643.8346739611170051
 20
306.5996454182219964
 30
0.0
 40
0.2632298836
 50
293.075486495698101
 51
295.984600279059805
  0
ARC
  5
BC4B
  8
0
 10
3643.8384802950167796
 20
306.5964461891219912
 30
0.0
 40
0.2617069459
 50
291.5543005504579241
 51
294.4104081803029089
  0
ARC
  5
BC4C
  8
0
 10
3643.9319708536168037
 20
306.5632330017220966
 30
0.0
 40
0.272891855
 50
293.4129140777033058
 51
296.2322836080617776
  0
ARC
  5
BC4D
  8
0
 10
3643.9363947970168738
 20
306.5596230244220237
 30
0.0
 40
0.2700542663
 50
291.9756644379701243
 51
294.7601901077114803
  0
ARC
  5
BC4E
  8
0
 10
3643.898652858917103
 20
306.5632015257219791
 30
0.0
 40
0.2569722429
 50
291.7043240950113727
 51
292.342823673988903
  0
ARC
  5
BC4F
  8
0
 10
3643.869461637716995
 20
306.5731599550221063
 30
0.0
 40
0.2524400573999999
 50
291.1891895354892199
 51
294.1358702207821239
  0
ARC
  5
BC50
  8
0
 10
3643.8731928667170905
 20
306.5702961114220102
 30
0.0
 40
0.2510380449
 50
289.6621351346922779
 51
292.5601541444057716
  0
ARC
  5
BC51
  8
0
 10
3643.9012655775168241
 20
306.556575760322005
 30
0.0
 40
0.2498499869
 50
290.4160196662077738
 51
291.709559696702172
  0
ARC
  5
BC52
  8
0
 10
3643.9038292340169392
 20
306.5496728325221056
 30
0.0
 40
0.2424863793
 50
289.4351914556983161
 51
290.4172855270958848
  0
ARC
  5
BC53
  8
0
 10
3643.9075160429169955
 20
306.5471067668220257
 30
0.0
 40
0.2411631409
 50
287.8996222145739239
 51
290.8436432059951926
  0
ARC
  5
BC54
  8
0
 10
3643.9382377527172139
 20
306.5281725322220154
 30
0.0
 40
0.2322929152
 50
287.7943459095063758
 51
290.8479896096965263
  0
ARC
  5
BC55
  8
0
 10
3643.8726672092179797
 20
306.5439965342220034
 30
0.0
 40
0.2171610935
 50
285.417898205210804
 51
288.589588263598614
  0
ARC
  5
BC56
  8
0
 10
3643.8761327014171911
 20
306.5413531258220132
 30
0.0
 40
0.2161170548
 50
283.7732867287002136
 51
286.897741235788601
  0
ARC
  5
BC57
  8
0
 10
3643.8866045173172097
 20
306.6202973148219826
 30
0.0
 40
0.3293862378
 50
298.6771564174130162
 51
300.8891949634244725
  0
ARC
  5
BC58
  8
0
 10
3643.9196467889169071
 20
306.6020111710220135
 30
0.0
 40
0.3192023054
 50
298.6395957894072808
 51
300.9967901890071857
  0
ARC
  5
BC59
  8
0
 10
3643.9238703432170041
 20
306.5993669484220163
 30
0.0
 40
0.3172618153
 50
297.3106205724541269
 51
299.9002149303931901
  0
ARC
  5
BC5A
  8
0
 10
3643.8596759846168425
 20
306.6090012494220218
 30
0.0
 40
0.2962113406
 50
296.5361941598055751
 51
297.4375359939913892
  0
ARC
  5
BC5B
  8
0
 10
3643.8637430682169907
 20
306.6059003938220258
 30
0.0
 40
0.294394547
 50
295.1218418376844852
 51
297.8079013718059969
  0
ARC
  5
BC5C
  8
0
 10
3643.8963302473171098
 20
306.5840933529220251
 30
0.0
 40
0.2834958901
 50
294.9113453995964278
 51
297.6927216858763927
  0
ARC
  5
BC5D
  8
0
 10
3643.900313261617157
 20
306.5813109466220112
 30
0.0
 40
0.2817987103
 50
293.488917578102587
 51
296.2207167178024179
  0
ARC
  5
BC5E
  8
0
 10
3643.9574912007169587
 20
306.5817586130219752
 30
0.0
 40
0.3056881594
 50
297.4007701812997198
 51
300.0948683005728981
  0
ARC
  5
BC5F
  8
0
 10
3643.9616447972171045
 20
306.5794199925221051
 30
0.0
 40
0.3038525412
 50
296.0583177395006942
 51
298.7032557293886157
  0
ARC
  5
BC60
  8
0
 10
3643.99495519061702
 20
306.5642651141220085
 30
0.0
 40
0.2928505955
 50
296.2814418598040902
 51
299.0381687606886203
  0
ARC
  5
BC61
  8
0
 10
3643.9990419696168829
 20
306.562260380521991
 30
0.0
 40
0.2911391127
 50
294.9213473437059747
 51
297.6298099939917279
  0
ARC
  5
BC62
  8
0
 10
3644.0321734484177796
 20
306.5495363247219984
 30
0.0
 40
0.2805832028
 50
295.2798611636019928
 51
298.1480501694746863
  0
ARC
  5
BC63
  8
0
 10
3644.0362277048170654
 20
306.5478309020220991
 30
0.0
 40
0.2789426386
 50
293.7893343903087953
 51
296.679075399807914
  0
ARC
  5
BC64
  8
0
 10
3644.0689015558168649
 20
306.5384058227219839
 30
0.0
 40
0.2696642824
 50
294.3992271518073949
 51
295.633152605702378
  0
ARC
  5
BC65
  8
0
 10
3643.9683088629171834
 20
306.5428591341220113
 30
0.0
 40
0.2604514077
 50
292.0224351467965107
 51
294.9133493601181044
  0
ARC
  5
BC66
  8
0
 10
3643.9721897332169647
 20
306.540678400522097
 30
0.0
 40
0.2589338875
 50
290.5700845963406209
 51
293.4149816358115004
  0
ARC
  5
BC67
  8
0
 10
3644.0338846663171353
 20
306.5272171375219727
 30
0.0
 40
0.2553242138
 50
289.6600591503898841
 51
292.501532191391675
  0
ARC
  5
BC68
  8
0
 10
3644.0926555265168645
 20
306.8639207008220069
 30
0.0
 40
0.5883291530000001
 50
228.8735647904852897
 51
279.342858222591417
  0
ARC
  5
BC69
  8
0
 10
3644.0926555265168645
 20
306.8639207008220069
 30
0.0
 40
0.5860560616
 50
279.2103393001963809
 51
281.0914266335047955
  0
ARC
  5
BC6A
  8
0
 10
3644.0926555265168645
 20
306.8639207008220069
 30
0.0
 40
0.5847351399000001
 50
275.1408181533710717
 51
278.6556535464948183
  0
ARC
  5
BC6B
  8
0
 10
3644.0926555265168645
 20
306.8639207008220069
 30
0.0
 40
0.5847351399000001
 50
269.3244698596532771
 51
273.5154512376552134
  0
ARC
  5
BC6C
  8
0
 10
3644.0926555265168645
 20
306.8639207008220069
 30
0.0
 40
0.5847351399000001
 50
263.6825408364535974
 51
267.74696335733978
  0
ARC
  5
BC6D
  8
0
 10
3644.0926555265168645
 20
306.8639207008220069
 30
0.0
 40
0.5847351399000001
 50
258.1586833728358101
 51
262.1514451056909252
  0
ARC
  5
BC6E
  8
0
 10
3644.0926555265168645
 20
306.8639207008220069
 30
0.0
 40
0.5847351399000001
 50
252.6904909045804004
 51
256.6470995484892228
  0
ARC
  5
BC6F
  8
0
 10
3644.0926555265168645
 20
306.8639207008220069
 30
0.0
 40
0.5829723525000001
 50
250.9702719290112896
 51
252.9050519577897944
  0
ARC
  5
BC70
  8
0
 10
3644.0926555265168645
 20
306.8639207008220069
 30
0.0
 40
0.5829723525000001
 50
273.354214502842126
 51
275.4482255702257021
  0
ARC
  5
BC71
  8
0
 10
3644.0926555265168645
 20
306.8639207008220069
 30
0.0
 40
0.5829723525000001
 50
256.447096297187727
 51
258.3907646355884822
  0
ARC
  5
BC72
  8
0
 10
3644.0926555265168645
 20
306.8639207008220069
 30
0.0
 40
0.5829723525000001
 50
261.9652463419910191
 51
263.9390241625196722
  0
ARC
  5
BC73
  8
0
 10
3644.0926555265168645
 20
306.8639207008220069
 30
0.0
 40
0.5829723525000001
 50
267.5801263291310192
 51
269.5997781489884915
  0
ARC
  5
BC74
  8
0
 10
3644.0926555265168645
 20
306.8639207008220069
 30
0.0
 40
0.5819257001000001
 50
276.3711546363026059
 51
278.5189050778392925
  0
ARC
  5
BC75
  8
0
 10
3644.0926555265168645
 20
306.8639207008220069
 30
0.0
 40
0.5819257001000001
 50
270.477295542246793
 51
272.5343770483520984
  0
ARC
  5
BC76
  8
0
 10
3644.0926555265168645
 20
306.8639207008220069
 30
0.0
 40
0.5819257001000001
 50
264.780533126904686
 51
266.7770070406251079
  0
ARC
  5
BC77
  8
0
 10
3644.0926555265168645
 20
306.8639207008220069
 30
0.0
 40
0.5819257001000001
 50
259.2110470057024827
 51
261.1695904509035131
  0
ARC
  5
BC78
  8
0
 10
3644.0926555265168645
 20
306.8639207008220069
 30
0.0
 40
0.5819257001000001
 50
253.7098438241081055
 51
255.6503266864947079
  0
ARC
  5
BC79
  8
0
 10
3644.0926555265168645
 20
306.8639207008220069
 30
0.0
 40
0.577781039
 50
270.6149192948279278
 51
272.6913549090594984
  0
ARC
  5
BC7A
  8
0
 10
3644.0926555265168645
 20
306.8639207008220069
 30
0.0
 40
0.577781039
 50
253.7225605130981876
 51
255.6769968994987039
  0
ARC
  5
BC7B
  8
0
 10
3644.0926555265168645
 20
306.8639207008220069
 30
0.0
 40
0.577781039
 50
259.2635071452054945
 51
261.2364003414934928
  0
ARC
  5
BC7C
  8
0
 10
3644.0926555265168645
 20
306.8639207008220069
 30
0.0
 40
0.577781039
 50
276.5581653718024882
 51
278.724738849088908
  0
ARC
  5
BC7D
  8
0
 10
3644.0926555265168645
 20
306.8639207008220069
 30
0.0
 40
0.577781039
 50
264.8744964778027224
 51
266.8859290481044013
  0
ARC
  5
BC7E
  8
0
 10
3644.0926555265168645
 20
306.8639207008220069
 30
0.0
 40
0.5764228747
 50
250.959279110710213
 51
252.9160447760883983
  0
ARC
  5
BC7F
  8
0
 10
3644.0926555265168645
 20
306.8639207008220069
 30
0.0
 40
0.5764228747
 50
256.4984416302984869
 51
258.4644035773106907
  0
ARC
  5
BC80
  8
0
 10
3644.0926555265168645
 20
306.8639207008220069
 30
0.0
 40
0.5764228747
 50
262.0806298625798831
 51
264.0751744871021174
  0
ARC
  5
BC81
  8
0
 10
3644.0926555265168645
 20
306.8639207008220069
 30
0.0
 40
0.5764228747
 50
267.7626641304942723
 51
269.8071879556883914
  0
ARC
  5
BC82
  8
0
 10
3644.0926555265168645
 20
306.8639207008220069
 30
0.0
 40
0.5764228747
 50
273.609613205637686
 51
275.7312065795434251
  0
ARC
  5
BC83
  8
0
 10
3644.0926555265168645
 20
306.8639207008220069
 30
0.0
 40
0.5711874396
 50
267.9115737463948221
 51
269.976584586988622
  0
ARC
  5
BC84
  8
0
 10
3644.0926555265168645
 20
306.8639207008220069
 30
0.0
 40
0.5711874396
 50
250.9503104880967896
 51
252.9250133987063975
  0
ARC
  5
BC85
  8
0
 10
3644.0926555265168645
 20
306.8639207008220069
 30
0.0
 40
0.5711874396
 50
256.5403349283926104
 51
258.5244906281969861
  0
ARC
  5
BC86
  8
0
 10
3644.0926555265168645
 20
306.8639207008220069
 30
0.0
 40
0.5711874396
 50
273.8180899962979993
 51
275.9629690778043027
  0
ARC
  5
BC87
  8
0
 10
3644.0926555265168645
 20
306.8639207008220069
 30
0.0
 40
0.5711874396
 50
262.1747937859934723
 51
264.1881440768935931
  0
ARC
  5
BC88
  8
0
 10
3644.0926555265168645
 20
306.8639207008220069
 30
0.0
 40
0.5695078027
 50
253.7484982985970134
 51
255.7313971475005872
  0
ARC
  5
BC89
  8
0
 10
3644.0926555265168645
 20
306.8639207008220069
 30
0.0
 40
0.5695078027
 50
259.3704594641752124
 51
261.3727083538919942
  0
ARC
  5
BC8A
  8
0
 10
3644.0926555265168645
 20
306.8639207008220069
 30
0.0
 40
0.5695078027
 50
265.0657636758105014
 51
267.1082630984121238
  0
ARC
  5
BC8B
  8
0
 10
3644.0926555265168645
 20
306.8639207008220069
 30
0.0
 40
0.5695078027
 50
270.8967895331078921
 51
273.0046113713116256
  0
ARC
  5
BC8C
  8
0
 10
3644.0926555265168645
 20
306.8639207008220069
 30
0.0
 40
0.5695078027
 50
276.9401850936117739
 51
277.9509994900108154
  0
ARC
  5
BC8D
  8
0
 10
3644.0926555265168645
 20
306.8639207008220069
 30
0.0
 40
0.5631423001
 50
265.2168569719079869
 51
267.2839409256073964
  0
ARC
  5
BC8E
  8
0
 10
3644.0926555265168645
 20
306.8639207008220069
 30
0.0
 40
0.5631423001
 50
271.1194241739100903
 51
273.2542981135990203
  0
ARC
  5
BC8F
  8
0
 10
3644.0926555265168645
 20
306.8639207008220069
 30
0.0
 40
0.5631423001
 50
253.7689740971896128
 51
255.7743436419956993
  0
ARC
  5
BC90
  8
0
 10
3644.0926555265168645
 20
306.8639207008220069
 30
0.0
 40
0.5631423001
 50
259.4550266902884914
 51
261.4803492408948955
  0
ARC
  5
BC91
  8
0
 10
3644.0926555265168645
 20
306.8639207008220069
 30
0.0
 40
0.5611282751
 50
250.9326087592106092
 51
252.9427151274898051
  0
ARC
  5
BC92
  8
0
 10
3644.0926555265168645
 20
306.8639207008220069
 30
0.0
 40
0.5611282751
 50
256.6230283315911151
 51
258.6431077870054196
  0
ARC
  5
BC93
  8
0
 10
3644.0926555265168645
 20
306.8639207008220069
 30
0.0
 40
0.5611282751
 50
262.3603442218027908
 51
264.4112582467980133
  0
ARC
  5
BC94
  8
0
 10
3644.0926555265168645
 20
306.8639207008220069
 30
0.0
 40
0.5611282751
 50
268.205807978712528
 51
270.3114091353909885
  0
ARC
  5
BC95
  8
0
 10
3644.0926555265168645
 20
306.8639207008220069
 30
0.0
 40
0.5611282751
 50
274.2315587475915777
 51
276.1389980047052859
  0
ARC
  5
BC96
  8
0
 10
3644.0926555265168645
 20
306.8639207008220069
 30
0.0
 40
0.5535823391
 50
256.6870407157913974
 51
258.7349386766121029
  0
ARC
  5
BC97
  8
0
 10
3644.0926555265168645
 20
306.8639207008220069
 30
0.0
 40
0.5535823391
 50
262.5040382843105249
 51
264.5840831303007121
  0
ARC
  5
BC98
  8
0
 10
3644.0926555265168645
 20
306.8639207008220069
 30
0.0
 40
0.5535823391
 50
268.4338514481037237
 51
270.5710135844109914
  0
ARC
  5
BC99
  8
0
 10
3644.0926555265168645
 20
306.8639207008220069
 30
0.0
 40
0.5535823391
 50
250.9189073448953025
 51
252.956416541802696
  0
ARC
  5
BC9A
  8
0
 10
3644.0926555265168645
 20
306.8639207008220069
 30
0.0
 40
0.5512175086
 50
253.8086058183934881
 51
255.8574730428900068
  0
ARC
  5
BC9B
  8
0
 10
3644.0926555265168645
 20
306.8639207008220069
 30
0.0
 40
0.5512175086
 50
259.6186246550021224
 51
261.6887859173049833
  0
ARC
  5
BC9C
  8
0
 10
3644.0926555265168645
 20
306.8639207008220069
 30
0.0
 40
0.5512175086
 50
265.5095675210041009
 51
267.6243887244095276
  0
ARC
  5
BC9D
  8
0
 10
3644.0926555265168645
 20
306.8639207008220069
 30
0.0
 40
0.5512175086
 50
271.5511953086024164
 51
273.7339168291564988
  0
ARC
  5
BC9E
  8
0
 10
3644.0926555265168645
 20
306.8639207008220069
 30
0.0
 40
0.5424274688000001
 50
253.8389355173052024
 51
255.9210953210107107
  0
ARC
  5
BC9F
  8
0
 10
3644.0926555265168645
 20
306.8639207008220069
 30
0.0
 40
0.5424274688000001
 50
259.7438642927875776
 51
261.8483848406975198
  0
ARC
  5
BCA0
  8
0
 10
3644.0926555265168645
 20
306.8639207008220069
 30
0.0
 40
0.5424274688000001
 50
265.733814732694384
 51
267.8853079026989121
  0
ARC
  5
BCA1
  8
0
 10
3644.0926555265168645
 20
306.8639207008220069
 30
0.0
 40
0.5396911518
 50
250.8926826041908953
 51
252.9826412826054991
  0
ARC
  5
BCA2
  8
0
 10
3644.0926555265168645
 20
306.8639207008220069
 30
0.0
 40
0.5396911518
 50
256.8095773895988145
 51
258.9107526144080111
  0
ARC
  5
BCA3
  8
0
 10
3644.0926555265168645
 20
306.8639207008220069
 30
0.0
 40
0.5396911518
 50
262.779257865996783
 51
264.9151988047909185
  0
ARC
  5
BCA4
  8
0
 10
3644.0926555265168645
 20
306.8639207008220069
 30
0.0
 40
0.5396911518
 50
268.8710821898935137
 51
270.4346043556435006
  0
ARC
  5
BCA5
  8
0
 10
3644.0926555265168645
 20
306.8639207008220069
 30
0.0
 40
0.5295769148
 50
250.8727225676022101
 51
253.0026013191063043
  0
ARC
  5
BCA6
  8
0
 10
3644.0926555265168645
 20
306.8639207008220069
 30
0.0
 40
0.5295769148
 50
256.9028561160120034
 51
259.0446103578000816
  0
ARC
  5
BCA7
  8
0
 10
3644.0926555265168645
 20
306.8639207008220069
 30
0.0
 40
0.5264430965
 50
253.8966859911990923
 51
256.0422484219972148
  0
ARC
  5
BCA8
  8
0
 10
3644.0926555265168645
 20
306.8639207008220069
 30
0.0
 40
0.5264430965
 50
259.9824300283024741
 51
262.1524837333922164
  0
ARC
  5
BCA9
  8
0
 10
3651.6657247093171463
 20
305.5447786682220226
 30
0.0
 40
0.0196850394
 50
180.0
 51
270.0
  0
ARC
  5
BCAA
  8
0
 10
3651.6657247093171463
 20
308.0250936289219794
 30
0.0
 40
0.0196850394
 50
90.0
 51
180.0
  0
LINE
  5
BCAB
  8
0
 10
3644.0696679659617985
 20
306.279637588030198
 30
0.0
 11
3644.0599383964517983
 21
306.2829154428104061
 31
0.0
  0
LINE
  5
BCAC
  8
0
 10
3644.1487461831861765
 20
306.2925886883218141
 30
0.0
 11
3644.1586449429169079
 21
306.2899204169219729
 31
0.0
  0
ARC
  5
BCAD
  8
0
 10
3644.3005117410612002
 20
312.5424822885170215
 30
0.0
 40
6.177634808388162
 50
261.3044529940996199
 51
261.9098882328962077
  0
ARC
  5
BCAE
  8
0
 10
3643.5732251507301953
 20
308.572572007315614
 30
0.0
 40
2.150943060269173
 50
266.2122040353845023
 51
269.1217070602290846
  0
ARC
  5
BCAF
  8
0
 10
3643.8359907032468072
 20
337.7256877838647142
 30
0.0
 40
31.3052030487579884
 50
269.4587259730258779
 51
269.8811373008898045
  0
ARC
  5
BCB0
  8
0
 10
3643.7550605754840944
 20
301.5266033369338174
 30
0.0
 40
4.8939748721377709
 50
87.423072548050726
 51
89.8128437216368951
  0
ARC
  5
BCB1
  8
0
 10
3643.9061500811340011
 20
304.4137231859123176
 30
0.0
 40
2.0030929620043079
 50
78.4746825852148504
 51
88.0274723314212366
  0
ARC
  5
BCB2
  8
0
 10
3644.1819777535170033
 20
305.731735247294921
 30
0.0
 40
0.6565825276553653
 50
66.71560129766155
 51
79.0790823685677537
  0
ARC
  5
BCB3
  8
0
 10
3644.4499410571120279
 20
306.3533533668413043
 30
0.0
 40
0.0203362314375167
 50
245.5434859549733915
 51
267.1315835908322924
  0
ARC
  5
BCB4
  8
0
 10
3621.6655427772438998
 20
-641.7415785463774682
 30
0.0
 40
948.3483377545004487
 50
88.1883848765587715
 51
88.6233780314241812
  0
LINE
  5
BCB5
  8
0
 10
3643.9102431519618222
 20
306.3045845604924011
 30
0.0
 11
3643.9339677177181329
 21
306.3773318566878743
 31
0.0
  0
LINE
  5
BCB6
  8
0
 10
3643.9025723217368977
 20
306.3128080634950834
 30
0.0
 11
3643.90460329037478
 21
306.3190356790830151
 31
0.0
  0
LINE
  5
BCB7
  8
0
 10
3643.906226784068167
 20
306.3240138429852095
 30
0.0
 11
3643.9093461151710471
 21
306.3335787349168982
 31
0.0
  0
LINE
  5
BCB8
  8
0
 10
3643.9116861093498301
 20
306.3407539242234066
 30
0.0
 11
3643.9159937921240271
 21
306.3539626918321233
 31
0.0
  0
LINE
  5
BCB9
  8
0
 10
3643.9191302587719292
 20
306.3635801267163856
 30
0.0
 11
3643.9246102399119991
 21
306.3803835453310853
 31
0.0
  0
LINE
  5
BCBA
  8
0
 10
3643.8964910639019763
 20
306.3204591726462809
 30
0.0
 11
3643.8990574570498211
 21
306.3283285754632175
 31
0.0
  0
LINE
  5
BCBB
  8
0
 10
3643.901032088347165
 20
306.3343834423642988
 30
0.0
 11
3643.9047313188689259
 21
306.3457264959898225
 31
0.0
  0
LINE
  5
BCBC
  8
0
 10
3643.9074581616919204
 20
306.3540878899822815
 30
0.0
 11
3643.9124169542278651
 21
306.3692931734705098
 31
0.0
  0
LINE
  5
BCBD
  8
0
 10
3643.8780705682579537
 20
306.3274654605875753
 30
0.0
 11
3643.8806412504550281
 21
306.3353480151210988
 31
0.0
  0
LINE
  5
BCBE
  8
0
 10
3643.8826192679521228
 20
306.3414132652221156
 30
0.0
 11
3643.8863250534109284
 21
306.352776418202609
 31
0.0
  0
LINE
  5
BCBF
  8
0
 10
3643.8890569133500321
 20
306.3611531962899903
 30
0.0
 11
3643.8940252605611931
 21
306.3763877775862738
 31
0.0
  0
LINE
  5
BCC0
  8
0
 10
3643.8688871602889776
 20
306.3256043606822914
 30
0.0
 11
3643.8709242138270383
 21
306.3318506345697756
 31
0.0
  0
LINE
  5
BCC1
  8
0
 10
3643.8725526724729207
 20
306.3368440225548852
 30
0.0
 11
3643.8756818043370913
 21
306.3464389668993135
 31
0.0
  0
LINE
  5
BCC2
  8
0
 10
3643.8780293857139441
 20
306.353637420874179
 30
0.0
 11
3643.8823515934209354
 21
306.3668907268043995
 31
0.0
  0
LINE
  5
BCC3
  8
0
 10
3643.8854991179628087
 20
306.3765420686580114
 30
0.0
 11
3643.8903913075291712
 21
306.3915431258826061
 31
0.0
  0
LINE
  5
BCC4
  8
0
 10
3643.8507578793428365
 20
306.333503608191279
 30
0.0
 11
3643.8528016517889228
 21
306.3397704846090051
 31
0.0
  0
LINE
  5
BCC5
  8
0
 10
3643.8544355937378896
 20
306.3447806861931895
 30
0.0
 11
3643.8575755526640023
 21
306.3544088295845995
 31
0.0
  0
LINE
  5
BCC6
  8
0
 10
3643.8599315182150349
 20
306.3616329924004162
 30
0.0
 11
3643.8642697834088722
 21
306.3749355357022068
 31
0.0
  0
LINE
  5
BCC7
  8
0
 10
3643.867429538379838
 20
306.3846243801792752
 30
0.0
 11
3643.8716763520142194
 21
306.3976465031371959
 31
0.0
  0
LINE
  5
BCC8
  8
0
 10
3643.8449325880810648
 20
306.3419395949837849
 30
0.0
 11
3643.8475191399388677
 21
306.3498708109975155
 31
0.0
  0
LINE
  5
BCC9
  8
0
 10
3643.8495096902152
 20
306.355974490572919
 30
0.0
 11
3643.8532397459921413
 21
306.367412064612779
 31
0.0
  0
LINE
  5
BCCA
  8
0
 10
3643.8559901913358772
 20
306.3758458314661084
 30
0.0
 11
3643.8609939550251511
 21
306.3911890115019787
 31
0.0
  0
LINE
  5
BCCB
  8
0
 10
3643.8271093562889291
 20
306.3507772896080041
 30
0.0
 11
3643.829709149044902
 21
306.3587491063896096
 31
0.0
  0
LINE
  5
BCCC
  8
0
 10
3643.8317101607099175
 20
306.3648848642013149
 30
0.0
 11
3643.8354604876089979
 21
306.3763845957690251
 31
0.0
  0
LINE
  5
BCCD
  8
0
 10
3643.8382264664651302
 20
306.384865993783194
 30
0.0
 11
3643.8432598577569479
 21
306.4003000215860197
 31
0.0
  0
LINE
  5
BCCE
  8
0
 10
3643.8181551326069894
 20
306.3496189435419979
 30
0.0
 11
3643.8202176794729894
 21
306.3559433884528858
 31
0.0
  0
LINE
  5
BCCF
  8
0
 10
3643.8218669492239314
 20
306.3610005902691
 30
0.0
 11
3643.8250371894541786
 21
306.3707215860591191
 31
0.0
  0
LINE
  5
BCD0
  8
0
 10
3643.82741661930595
 20
306.3780176979420844
 30
0.0
 11
3643.8317998601169165
 21
306.3914581513710118
 31
0.0
  0
LINE
  5
BCD1
  8
0
 10
3643.8006280532617893
 20
306.3593647389158718
 30
0.0
 11
3643.8027046218708165
 21
306.3657321790130936
 31
0.0
  0
LINE
  5
BCD2
  8
0
 10
3643.80436534509181
 20
306.3708245008061226
 30
0.0
 11
3643.8075582279980154
 21
306.3806149265041086
 31
0.0
  0
LINE
  5
BCD3
  8
0
 10
3643.8099552174940072
 20
306.3879648821056207
 30
0.0
 11
3643.8143721522601481
 21
306.4015086519838746
 31
0.0
  0
LINE
  5
BCD4
  8
0
 10
3643.7950834445077817
 20
306.3686613899405984
 30
0.0
 11
3643.7977163889909207
 21
306.3767348610787167
 31
0.0
  0
LINE
  5
BCD5
  8
0
 10
3643.7997436123018815
 20
306.3829509921425824
 30
0.0
 11
3643.803544777038951
 21
306.3946066094630964
 31
0.0
  0
LINE
  5
BCD6
  8
0
 10
3643.8063497564221507
 20
306.4032075960013799
 30
0.0
 11
3643.8109904757247932
 21
306.4174375625776179
 31
0.0
  0
LINE
  5
BCD7
  8
0
 10
3643.7778837332771218
 20
306.3794110030776778
 30
0.0
 11
3643.7805400858760549
 21
306.3875562509775818
 31
0.0
  0
LINE
  5
BCD8
  8
0
 10
3643.7825858330729716
 20
306.3938291827113858
 30
0.0
 11
3643.7864229673809859
 21
306.4055950944086817
 31
0.0
  0
LINE
  5
BCD9
  8
0
 10
3643.7892555791509039
 20
306.4142808105862059
 30
0.0
 11
3643.7912656304761185
 21
306.4204442868532965
 31
0.0
  0
LINE
  5
BCDA
  8
0
 10
3643.7691544877038723
 20
306.3789425139736977
 30
0.0
 11
3643.7712642083120045
 21
306.3854116089709123
 31
0.0
  0
LINE
  5
BCDB
  8
0
 10
3643.772952031233217
 20
306.3905870274966787
 30
0.0
 11
3643.776198542298971
 21
306.4005418944425969
 31
0.0
  0
LINE
  5
BCDC
  8
0
 10
3643.7786371708170918
 20
306.4080195290692927
 30
0.0
 11
3643.7827073777798432
 21
306.4205001179702208
 31
0.0
  0
LINE
  5
BCDD
  8
0
 10
3643.752265104577873
 20
306.3906436948086025
 30
0.0
 11
3643.7543974660961794
 21
306.3971822140704262
 31
0.0
  0
LINE
  5
BCDE
  8
0
 10
3643.756103812946094
 20
306.4024144329865749
 30
0.0
 11
3643.7593870250670989
 21
306.4124818378127202
 31
0.0
  0
LINE
  5
BCDF
  8
0
 10
3643.7470368179651814
 20
306.4009102934854809
 30
0.0
 11
3643.7497467990278892
 21
306.4092199838972874
 31
0.0
  0
LINE
  5
BCE0
  8
0
 10
3643.7518350369591644
 20
306.4156232057546845
 30
0.0
 11
3643.7534559755208647
 21
306.4205935348023218
 31
0.0
  0
LINE
  5
BCE1
  8
0
 10
3643.7305089174278692
 20
306.4137198982915038
 30
0.0
 11
3643.7327705826392048
 21
306.4206549052577202
 31
0.0
  0
LINE
  5
BCE2
  8
0
 10
3643.7220065924848313
 20
306.4139472221779101
 30
0.0
 11
3643.7241897931121457
 21
306.4206416309692145
 31
0.0
  0
ARC
  5
BCE3
  8
0
 10
3643.9925834980990658
 20
306.4488540998295889
 30
0.0
 40
0.1643035032
 50
233.6531369679807142
 51
237.4030449536201104
  0
ARC
  5
BCE4
  8
0
 10
3643.9949443607852118
 20
306.4466556799366117
 30
0.0
 40
0.1626277283
 50
231.7367692068586962
 51
235.3893415121949033
  0
ARC
  5
BCE5
  8
0
 10
3644.004309801367981
 20
306.4802565498790159
 30
0.0
 40
0.2020296705
 50
221.3904376071936895
 51
222.1113893006873923
  0
ARC
  5
BCE6
  8
0
 10
3644.0324411194937966
 20
306.4577839168943001
 30
0.0
 40
0.1839143582
 50
223.2249429189828902
 51
226.6646771361012043
  0
ARC
  5
BCE7
  8
0
 10
3643.9953144000719476
 20
306.4648371321267177
 30
0.0
 40
0.1820942804
 50
226.9129523377957014
 51
230.282415536271003
  0
ARC
  5
BCE8
  8
0
 10
3643.9968424470080208
 20
306.4619856705261896
 30
0.0
 40
0.1794503998999999
 50
225.0883805347471025
 51
228.5577617781958111
  0
ARC
  5
BCE9
  8
0
 10
3644.0137376032489556
 20
306.4882853485510168
 30
0.0
 40
0.2144140214
 50
218.9306537965900077
 51
219.2765790893855069
  0
ARC
  5
BCEA
  8
0
 10
3644.0419735713121554
 20
306.4767297108903108
 30
0.0
 40
0.2090558166
 50
217.1136466667624063
 51
220.3364054330940007
  0
ARC
  5
BCEB
  8
0
 10
3644.0383197837268199
 20
306.4773021525879244
 30
0.0
 40
0.2087493371
 50
218.8211538475956957
 51
221.9910146312921881
  0
ARC
  5
BCEC
  8
0
 10
3644.009362731865167
 20
306.4846682142745067
 30
0.0
 40
0.2087375606
 50
219.268222482493087
 51
221.0317395140978078
  0
ARC
  5
BCED
  8
0
 10
3644.0062403724141404
 20
306.4819634223918001
 30
0.0
 40
0.2046065876
 50
221.0343740586831132
 51
221.3915757667971036
  0
ARC
  5
BCEE
  8
0
 10
3644.031408744656801
 20
306.4609142259527061
 30
0.0
 40
0.1873387788
 50
225.0506837533854139
 51
228.3751379782409003
  0
ARC
  5
BCEF
  8
0
 10
3643.9600950485150861
 20
306.4705240321835049
 30
0.0
 40
0.1764478401
 50
228.6990705870811951
 51
232.2963010403040869
  0
ARC
  5
BCF0
  8
0
 10
3643.9620644487840764
 20
306.467947082613307
 30
0.0
 40
0.1745399674
 50
226.8616879611732031
 51
230.3784361333846107
  0
ARC
  5
BCF1
  8
0
 10
3643.895134985869845
 20
306.4861955278026926
 30
0.0
 40
0.1657419029
 50
270.4687915980798039
 51
274.0943622114260165
  0
ARC
  5
BCF2
  8
0
 10
3643.8982942480570273
 20
306.4830324444400844
 30
0.0
 40
0.1641180766
 50
268.5820302561511994
 51
272.203112491494096
  0
ARC
  5
BCF3
  8
0
 10
3643.8865590634500222
 20
306.4776106402113101
 30
0.0
 40
0.1530300793999999
 50
263.3686924561013143
 51
267.1519655201236105
  0
ARC
  5
BCF4
  8
0
 10
3643.8895934334341291
 20
306.4754276076723158
 30
0.0
 40
0.1524501087
 50
261.2214432809996083
 51
265.1796523182782153
  0
ARC
  5
BCF5
  8
0
 10
3643.9284592918811541
 20
306.4936297914230181
 30
0.0
 40
0.1865101053
 50
223.7660630402990023
 51
227.3074468684089027
  0
ARC
  5
BCF6
  8
0
 10
3644.0001092665697797
 20
306.4804291397903171
 30
0.0
 40
0.2008211035
 50
220.5509500339028932
 51
223.7850544119233973
  0
ARC
  5
BCF7
  8
0
 10
3643.9679865823118234
 20
306.4858757061211918
 30
0.0
 40
0.1951870257
 50
220.4729123613768138
 51
223.8004266884840945
  0
ARC
  5
BCF8
  8
0
 10
3643.9633584571902247
 20
306.4856946106099258
 30
0.0
 40
0.193195256
 50
222.1915617834758052
 51
225.5001533268952869
  0
ARC
  5
BCF9
  8
0
 10
3644.0134622609061807
 20
306.500771445899602
 30
0.0
 40
0.2289475346
 50
214.6132063454928982
 51
217.6497217277529046
  0
ARC
  5
BCFA
  8
0
 10
3643.9812822274498103
 20
306.5071777840367986
 30
0.0
 40
0.2233647266
 50
214.5083377813022025
 51
217.6221405988952995
  0
ARC
  5
BCFB
  8
0
 10
3643.9777661066641485
 20
306.5081770763414966
 30
0.0
 40
0.2229236568
 50
216.1306733831933968
 51
219.191677495338098
  0
ARC
  5
BCFC
  8
0
 10
3643.9456241364919151
 20
306.5194295818467936
 30
0.0
 40
0.2199140778
 50
217.5468986060913892
 51
220.5968857824296947
  0
ARC
  5
BCFD
  8
0
 10
3643.94452850066682
 20
306.514722808466388
 30
0.0
 40
0.2146619742
 50
215.8921820511303054
 51
219.0758223911956009
  0
ARC
  5
BCFE
  8
0
 10
3643.9095164393970663
 20
306.5288108145036858
 30
0.0
 40
0.2104316667
 50
218.8702618240259881
 51
222.1566358416083915
  0
ARC
  5
BCFF
  8
0
 10
3643.9090960890939641
 20
306.5243585947948759
 30
0.0
 40
0.2060961722
 50
217.1869964262533017
 51
220.4510796971889874
  0
ARC
  5
BD00
  8
0
 10
3643.9406233802960742
 20
306.5009518128101718
 30
0.0
 40
0.1991177869999999
 50
222.1100720517819127
 51
225.3175035175327992
  0
ARC
  5
BD01
  8
0
 10
3643.9644058742660491
 20
306.5384025742113181
 30
0.0
 40
0.2487619812
 50
210.1685452080880054
 51
213.1381524168901933
  0
ARC
  5
BD02
  8
0
 10
3643.9609677009220832
 20
306.539661807903201
 30
0.0
 40
0.2482525707
 50
211.6978667374876011
 51
214.6122730582928
  0
ARC
  5
BD03
  8
0
 10
3643.9240521179849566
 20
306.5496017853141097
 30
0.0
 40
0.2378564068
 50
212.8319260424948993
 51
215.8251062059867138
  0
ARC
  5
BD04
  8
0
 10
3643.8512059330128068
 20
306.4901759510378838
 30
0.0
 40
0.1456231953
 50
255.8692265971473034
 51
259.9554821871004719
  0
ARC
  5
BD05
  8
0
 10
3643.8196387100720131
 20
306.5114791721342726
 30
0.0
 40
0.1449133533
 50
260.2442787527988912
 51
264.1991576634366083
  0
ARC
  5
BD06
  8
0
 10
3643.8224960727261532
 20
306.5089092439766887
 30
0.0
 40
0.1445384844
 50
258.1869350888010786
 51
262.1298442967005258
  0
ARC
  5
BD07
  8
0
 10
3643.7916662676811939
 20
306.5331290456564943
 30
0.0
 40
0.1437652587
 50
262.5204582316958977
 51
266.5395209186062857
  0
ARC
  5
BD08
  8
0
 10
3643.7944577645871505
 20
306.5301418978854144
 30
0.0
 40
0.1432632837
 50
260.4244426826768972
 51
264.4250621008870894
  0
ARC
  5
BD09
  8
0
 10
3643.8114020222960789
 20
306.5135561950868919
 30
0.0
 40
0.1410880326
 50
252.5765786721206041
 51
256.5735906168432052
  0
ARC
  5
BD0A
  8
0
 10
3643.7835592397768778
 20
306.5347187161693228
 30
0.0
 40
0.138704206
 50
254.7342808869306907
 51
258.8143439970837107
  0
ARC
  5
BD0B
  8
0
 10
3643.7860787974100276
 20
306.5310529699222002
 30
0.0
 40
0.1375684775999999
 50
252.5850878667270933
 51
256.6855602739839242
  0
ARC
  5
BD0C
  8
0
 10
3643.8435269910419265
 20
306.5398600954572998
 30
0.0
 40
0.1919165871999999
 50
279.5186731314269082
 51
282.8855019662024119
  0
ARC
  5
BD0D
  8
0
 10
3643.8707551768488884
 20
306.5213566169786077
 30
0.0
 40
0.1894087098999999
 50
279.1981680865948761
 51
282.5999783944063779
  0
ARC
  5
BD0E
  8
0
 10
3643.8743178940139842
 20
306.5170531921983184
 30
0.0
 40
0.1867882565
 50
277.4163149620953845
 51
280.8086164084976986
  0
ARC
  5
BD0F
  8
0
 10
3643.8646202067870945
 20
306.5118456012124284
 30
0.0
 40
0.1751842206
 50
274.5016683327991132
 51
276.0772704223779783
  0
ARC
  5
BD10
  8
0
 10
3643.8648787897200236
 20
306.5087422125766921
 30
0.0
 40
0.1720701107
 50
274.1031349463011111
 51
274.4969379820017821
  0
ARC
  5
BD11
  8
0
 10
3643.8354113960817813
 20
306.5271889450247045
 30
0.0
 40
0.171793921
 50
274.707280613794012
 51
278.3159852670809187
  0
ARC
  5
BD12
  8
0
 10
3643.8649802829258988
 20
306.5073193960100753
 30
0.0
 40
0.1706436789
 50
273.3177243249834873
 51
274.1033271362849746
  0
ARC
  5
BD13
  8
0
 10
3643.838626889266834
 20
306.5231447204031952
 30
0.0
 40
0.1697965038
 50
272.8074360699034742
 51
276.4073440461953055
  0
ARC
  5
BD14
  8
0
 10
3643.8650931528250112
 20
306.5054127324452224
 30
0.0
 40
0.1687336788
 50
272.5338055487006272
 51
273.3169308700983038
  0
ARC
  5
BD15
  8
0
 10
3643.8682692642228176
 20
306.5018243270312723
 30
0.0
 40
0.1669354021
 50
270.6447450467861131
 51
274.2502256624944152
  0
ARC
  5
BD16
  8
0
 10
3643.8281978972668185
 20
306.5162142572713719
 30
0.0
 40
0.1553427286
 50
267.66428015570051
 51
271.4728807762801921
  0
ARC
  5
BD17
  8
0
 10
3643.8571252166730119
 20
306.4957437097256161
 30
0.0
 40
0.1542866355
 50
265.4674277064826811
 51
269.2584163475249852
  0
ARC
  5
BD18
  8
0
 10
3643.8311384420458126
 20
306.5128948368222268
 30
0.0
 40
0.1541523568
 50
265.6720429504786125
 51
269.4687487632963894
  0
ARC
  5
BD19
  8
0
 10
3643.8600947284048743
 20
306.492946490676502
 30
0.0
 40
0.1533495282
 50
263.4945875993341247
 51
267.2740692680919778
  0
ARC
  5
BD1A
  8
0
 10
3643.8486553870229727
 20
306.4945134395028958
 30
0.0
 40
0.1480710976
 50
258.1144610399526869
 51
261.9603790683979128
  0
ARC
  5
BD1B
  8
0
 10
3643.8375233353608564
 20
306.5547938090713274
 30
0.0
 40
0.2051988267
 50
283.4994097345855266
 51
284.5927444767934276
  0
ARC
  5
BD1C
  8
0
 10
3643.8089847766250386
 20
306.5708743983959153
 30
0.0
 40
0.2006131872
 50
283.5508763944882844
 51
286.912995103533774
  0
ARC
  5
BD1D
  8
0
 10
3643.83882858661309
 20
306.5493765578596026
 30
0.0
 40
0.1996265497999999
 50
282.0384487389807191
 51
283.4980859330023009
  0
ARC
  5
BD1E
  8
0
 10
3643.812807340155814
 20
306.5655524405983101
 30
0.0
 40
0.1974416052
 50
281.7582551610965993
 51
285.1084205699839913
  0
ARC
  5
BD1F
  8
0
 10
3643.8398553746469588
 20
306.5446497574400837
 30
0.0
 40
0.1947895475
 50
281.3017248418980785
 51
282.0330520378018946
  0
ARC
  5
BD20
  8
0
 10
3643.8060226068150769
 20
306.5517425204396886
 30
0.0
 40
0.1750371895
 50
277.0205614218784262
 51
280.6320856342510979
  0
ARC
  5
BD21
  8
0
 10
3643.8093067750351111
 20
306.5471993595975277
 30
0.0
 40
0.1728053825
 50
275.1069490399914912
 51
278.7050409585830266
  0
ARC
  5
BD22
  8
0
 10
3643.7997648715149808
 20
306.5392332639200959
 30
0.0
 40
0.1562822732
 50
269.99220599798781
 51
273.8310160410990761
  0
ARC
  5
BD23
  8
0
 10
3643.802702016971125
 20
306.5354474918127039
 30
0.0
 40
0.1549087024
 50
267.9719237549730906
 51
271.7964516287869969
  0
ARC
  5
BD24
  8
0
 10
3643.840109657271114
 20
306.5687195656777249
 30
0.0
 40
0.2249501662
 50
287.4211487877989839
 51
290.5613376243608741
  0
ARC
  5
BD25
  8
0
 10
3643.8444182735670438
 20
306.5631712378536236
 30
0.0
 40
0.2211137051
 50
285.7598305292718237
 51
288.8871106996920162
  0
ARC
  5
BD26
  8
0
 10
3643.7788734699170163
 20
306.5372671785564194
 30
0.0
 40
0.1370992713
 50
244.3912142072753966
 51
248.728445175026792
  0
ARC
  5
BD27
  8
0
 10
3643.7757651994998014
 20
306.5388477141297017
 30
0.0
 40
0.1359779046
 50
246.7117058644876977
 51
250.8668134214007921
  0
ARC
  5
BD28
  8
0
 10
3643.8049934660230065
 20
306.6217912336024938
 30
0.0
 40
0.2690130488999999
 50
293.574090047465404
 51
296.2702817699080242
  0
ARC
  5
BD29
  8
0
 10
3643.8020939475909472
 20
306.6100011989469749
 30
0.0
 40
0.2479155677
 50
291.4811647548862084
 51
292.5939269342849229
  0
ARC
  5
BD2A
  8
0
 10
3643.8049921598581022
 20
306.6026660215028983
 30
0.0
 40
0.2400285948
 50
290.2529821675843209
 51
291.4785894173791121
  0
ARC
  5
BD2B
  8
0
 10
3643.7802629597899795
 20
306.6170625855243088
 30
0.0
 40
0.234157868836772
 50
290.2283584184542065
 51
291.5995794670092778
  0
ARC
  5
BD2C
  8
0
 10
3643.8072146705890191
 20
306.5966980504318258
 30
0.0
 40
0.2336602469
 50
289.5746888224833242
 51
290.2482760409017146
  0
ARC
  5
BD2D
  8
0
 10
3643.8117660113080092
 20
306.5905882066351751
 30
0.0
 40
0.2294524087999999
 50
287.9104969584097944
 51
291.0082544136820957
  0
ARC
  5
BD2E
  8
0
 10
3643.7819985237379115
 20
306.5944477981786918
 30
0.0
 40
0.2035836687999999
 50
284.1761271929416921
 51
287.5125549332880155
  0
ARC
  5
BD2F
  8
0
 10
3643.7768289614650712
 20
306.5793735943838101
 30
0.0
 40
0.1786223287999999
 50
279.5128815451906803
 51
283.1354292646099111
  0
ARC
  5
BD30
  8
0
 10
3643.7802216281179426
 20
306.574273559511596
 30
0.0
 40
0.1761078407999999
 50
277.5743669216132048
 51
281.1815376361847143
  0
ARC
  5
BD31
  8
0
 10
3643.7717951815498054
 20
306.5651610091613861
 30
0.0
 40
0.1572903607
 50
272.4931015473870843
 51
276.3731050576599841
  0
ARC
  5
BD32
  8
0
 10
3643.7747540209438739
 20
306.5608572747382254
 30
0.0
 40
0.1557000609
 50
270.4346318846428971
 51
274.298064116796013
  0
ARC
  5
BD33
  8
0
 10
3643.7643959440938488
 20
306.5579920894417114
 30
0.0
 40
0.1429219207
 50
264.9579695218778284
 51
269.0441574858818967
  0
ARC
  5
BD34
  8
0
 10
3643.7670979651547896
 20
306.5540968778017827
 30
0.0
 40
0.141824815
 50
262.8064727488518884
 51
266.883322046881915
  0
ARC
  5
BD35
  8
0
 10
3644.1460757698791895
 20
306.5282524767999917
 30
0.0
 40
0.3134893990999999
 50
204.6815887450871969
 51
205.5547920563845992
  0
ARC
  5
BD36
  8
0
 10
3644.1381579280891856
 20
306.5244540850006274
 30
0.0
 40
0.3047076071999999
 50
205.5526755830960042
 51
206.4398913782870011
  0
ARC
  5
BD37
  8
0
 10
3644.1686154083108704
 20
306.519321440061276
 30
0.0
 40
0.3044513055999999
 50
204.9659462495156106
 51
206.9979983402934067
  0
ARC
  5
BD38
  8
0
 10
3644.1452345550769678
 20
306.498364468715522
 30
0.0
 40
0.2632298835999999
 50
207.8907236087196111
 51
210.7998373920883921
  0
ARC
  5
BD39
  8
0
 10
3644.1402739547120291
 20
306.4980243384320033
 30
0.0
 40
0.2617069458999999
 50
209.4649157074871937
 51
212.3210233373451103
  0
ARC
  5
BD3A
  8
0
 10
3644.0451776149061516
 20
306.526313674232199
 30
0.0
 40
0.2728918549999999
 50
207.6430402797257102
 51
210.4624098100919127
  0
ARC
  5
BD3B
  8
0
 10
3644.0394759948248975
 20
306.5260058759707817
 30
0.0
 40
0.2700542662999999
 50
209.115133780087092
 51
211.8996594498206036
  0
ARC
  5
BD3C
  8
0
 10
3644.0720712039837963
 20
306.5066458164923802
 30
0.0
 40
0.2569722428999999
 50
211.5325002137913941
 51
212.1709997927881943
  0
ARC
  5
BD3D
  8
0
 10
3644.1015209409179079
 20
306.4974800811838236
 30
0.0
 40
0.2524400573999999
 50
209.7394536670132936
 51
212.6861343522847108
  0
ARC
  5
BD3E
  8
0
 10
3644.0968187300941281
 20
306.4973665761958728
 30
0.0
 40
0.2510380448999999
 50
211.3151697433908964
 51
214.2131887530923962
  0
ARC
  5
BD3F
  8
0
 10
3644.0660546348299249
 20
306.5028342602169005
 30
0.0
 40
0.2498499869
 50
212.1657641910921086
 51
213.4593042215925891
  0
ARC
  5
BD40
  8
0
 10
3644.0599142953938099
 20
306.4987699055972143
 30
0.0
 40
0.2424863793
 50
213.4580383606840996
 51
214.4401324320924118
  0
ARC
  5
BD41
  8
0
 10
3644.0554235175459326
 20
306.4988707389391038
 30
0.0
 40
0.2411631408999999
 50
213.031680681798008
 51
215.9757016732100965
  0
ARC
  5
BD42
  8
0
 10
3644.0194459150511648
 20
306.5016886835020955
 30
0.0
 40
0.2322929152
 50
213.0273342780942016
 51
216.0809779782881037
  0
ARC
  5
BD43
  8
0
 10
3644.0817385571122031
 20
306.4758135611040757
 30
0.0
 40
0.2171610935
 50
215.2857356241860032
 51
218.4574256825906957
  0
ARC
  5
BD44
  8
0
 10
3644.0773809477950635
 20
306.4757214459626198
 30
0.0
 40
0.2161170548
 50
216.9775826519864097
 51
220.1020371590803961
  0
ARC
  5
BD45
  8
0
 10
3644.1154635801799486
 20
306.5456611129317253
 30
0.0
 40
0.3293862378
 50
202.9861289243575868
 51
205.1981674703818896
  0
ARC
  5
BD46
  8
0
 10
3644.0779936544818156
 20
306.5503706177527761
 30
0.0
 40
0.3192023053999999
 50
204.0120994538708032
 51
205.2357280983879946
  0
ARC
  5
BD47
  8
0
 10
3644.0730232510682072
 20
306.5507247561329791
 30
0.0
 40
0.3172618153
 50
204.2351588794664963
 51
206.5647033153422001
  0
ARC
  5
BD48
  8
0
 10
3644.1305551961049787
 20
306.5206613110185003
 30
0.0
 40
0.2962113405999999
 50
206.4377878937864068
 51
207.3391297279897003
  0
ARC
  5
BD49
  8
0
 10
3644.1254419743399922
 20
306.520554364053794
 30
0.0
 40
0.294394547
 50
206.0674225159864079
 51
208.7534820501032868
  0
ARC
  5
BD4A
  8
0
 10
3644.0862639184902037
 20
306.5221516161602722
 30
0.0
 40
0.2834958901
 50
206.1826022019272955
 51
208.9639784881914011
  0
ARC
  5
BD4B
  8
0
 10
3644.0814063424959386
 20
306.522252329600974
 30
0.0
 40
0.2817987103
 50
207.6546071699941933
 51
210.3864063097041139
  0
ARC
  5
BD4C
  8
0
 10
3644.0307518487429661
 20
306.5568825942419835
 30
0.0
 40
0.3038525411999999
 50
206.6529249312135903
 51
207.8170061482842073
  0
ARC
  5
BD4D
  8
0
 10
3644.0038147974009917
 20
306.5312798326021948
 30
0.0
 40
0.2604514076999999
 50
208.961974527687488
 51
211.8528887409958088
  0
ARC
  5
BD4E
  8
0
 10
3643.9993944395018843
 20
306.5318063203638985
 30
0.0
 40
0.2589338875
 50
210.460342251993211
 51
213.3052392914584061
  0
ARC
  5
BD4F
  8
0
 10
3643.9416252069718212
 20
306.5573050682677945
 30
0.0
 40
0.2553242137999999
 50
212.3514586800837947
 51
214.2152647374059029
  0
ARC
  5
BD50
  8
0
 10
3644.09265552650686
 20
306.8639207008250764
 30
0.0
 40
0.5847351398999999
 50
230.3598726501417957
 51
234.5508540281417993
  0
ARC
  5
BD51
  8
0
 10
3644.09265552650686
 20
306.8639207008250764
 30
0.0
 40
0.5847351398999999
 50
236.1283605304591902
 51
240.1927830513207027
  0
ARC
  5
BD52
  8
0
 10
3644.09265552650686
 20
306.8639207008250764
 30
0.0
 40
0.5847351398999999
 50
241.7238787820886046
 51
245.7166405149546904
  0
ARC
  5
BD53
  8
0
 10
3644.09265552650686
 20
306.8639207008250764
 30
0.0
 40
0.5847351398999999
 50
247.2282243392978103
 51
251.1848329832164097
  0
ARC
  5
BD54
  8
0
 10
3644.09265552650686
 20
306.8639207008250764
 30
0.0
 40
0.5829723524999999
 50
229.4852251756350086
 51
230.5211093849445945
  0
ARC
  5
BD55
  8
0
 10
3644.09265552650686
 20
306.8639207008250764
 30
0.0
 40
0.5829723524999999
 50
245.4845592522019899
 51
247.4282275905895006
  0
ARC
  5
BD56
  8
0
 10
3644.09265552650686
 20
306.8639207008250764
 30
0.0
 40
0.5829723524999999
 50
239.9362997252754894
 51
241.9100775457906991
  0
ARC
  5
BD57
  8
0
 10
3644.09265552650686
 20
306.8639207008250764
 30
0.0
 40
0.5829723524999999
 50
234.2755457387821139
 51
236.2951975586396998
  0
ARC
  5
BD58
  8
0
 10
3644.09265552650686
 20
306.8639207008250764
 30
0.0
 40
0.5819257000999999
 50
231.3409468394411022
 51
233.3980283455375115
  0
ARC
  5
BD59
  8
0
 10
3644.09265552650686
 20
306.8639207008250764
 30
0.0
 40
0.5819257000999999
 50
237.0983168471719011
 51
239.0947907608926073
  0
ARC
  5
BD5A
  8
0
 10
3644.09265552650686
 20
306.8639207008250764
 30
0.0
 40
0.5819257000999999
 50
242.7057334368886075
 51
244.6642768820892115
  0
ARC
  5
BD5B
  8
0
 10
3644.09265552650686
 20
306.8639207008250764
 30
0.0
 40
0.5819257000999999
 50
248.2249972012980095
 51
250.1654800636781033
  0
ARC
  5
BD5C
  8
0
 10
3644.09265552650686
 20
306.8639207008250764
 30
0.0
 40
0.5777810389999999
 50
231.1839689787236978
 51
233.2604045929678875
  0
ARC
  5
BD5D
  8
0
 10
3644.09265552650686
 20
306.8639207008250764
 30
0.0
 40
0.5777810389999999
 50
248.1983269882983052
 51
250.1527633746916877
  0
ARC
  5
BD5E
  8
0
 10
3644.09265552650686
 20
306.8639207008250764
 30
0.0
 40
0.5777810389999999
 50
242.6389235462899876
 51
244.6118167425915999
  0
ARC
  5
BD5F
  8
0
 10
3644.09265552650686
 20
306.8639207008250764
 30
0.0
 40
0.5777810389999999
 50
236.9893948396806991
 51
239.0008274099876076
  0
ARC
  5
BD60
  8
0
 10
3644.09265552650686
 20
306.8639207008250764
 30
0.0
 40
0.5764228746999999
 50
245.4109203104945038
 51
247.3768822574851072
  0
ARC
  5
BD61
  8
0
 10
3644.09265552650686
 20
306.8639207008250764
 30
0.0
 40
0.5764228746999999
 50
239.8001494006890937
 51
241.7946940252128911
  0
ARC
  5
BD62
  8
0
 10
3644.09265552650686
 20
306.8639207008250764
 30
0.0
 40
0.5764228746999999
 50
234.0681359320923889
 51
236.1126597572963988
  0
ARC
  5
BD63
  8
0
 10
3644.09265552650686
 20
306.8639207008250764
 30
0.0
 40
0.5764228746999999
 50
230.2590359259334036
 51
230.2657106821554862
  0
ARC
  5
BD64
  8
0
 10
3644.09265552650686
 20
306.8639207008250764
 30
0.0
 40
0.5711874395999998
 50
233.8987393007872981
 51
235.9637501414005953
  0
ARC
  5
BD65
  8
0
 10
3644.09265552650686
 20
306.8639207008250764
 30
0.0
 40
0.5711874395999998
 50
245.3508332595932018
 51
247.3349889593945079
  0
ARC
  5
BD66
  8
0
 10
3644.09265552650686
 20
306.8639207008250764
 30
0.0
 40
0.5711874395999998
 50
239.6871798109019949
 51
241.7005301017821921
  0
ARC
  5
BD67
  8
0
 10
3644.09265552650686
 20
306.8639207008250764
 30
0.0
 40
0.5695078027
 50
248.143926740288606
 51
250.126825589201701
  0
ARC
  5
BD68
  8
0
 10
3644.09265552650686
 20
306.8639207008250764
 30
0.0
 40
0.5695078027
 50
242.5026155338917988
 51
244.5048644236287885
  0
ARC
  5
BD69
  8
0
 10
3644.09265552650686
 20
306.8639207008250764
 30
0.0
 40
0.5695078027
 50
236.7670607893828105
 51
238.8095602119963985
  0
ARC
  5
BD6A
  8
0
 10
3644.09265552650686
 20
306.8639207008250764
 30
0.0
 40
0.5695078027
 50
231.1092667426792104
 51
232.9785343546921013
  0
ARC
  5
BD6B
  8
0
 10
3644.09265552650686
 20
306.8639207008250764
 30
0.0
 40
0.5631423000999999
 50
236.5913829621881064
 51
238.6584669158970087
  0
ARC
  5
BD6C
  8
0
 10
3644.09265552650686
 20
306.8639207008250764
 30
0.0
 40
0.5631423000999999
 50
231.9244751871640062
 51
232.7558997138974917
  0
ARC
  5
BD6D
  8
0
 10
3644.09265552650686
 20
306.8639207008250764
 30
0.0
 40
0.5631423000999999
 50
248.1009802457801925
 51
250.1063497905794861
  0
ARC
  5
BD6E
  8
0
 10
3644.09265552650686
 20
306.8639207008250764
 30
0.0
 40
0.5631423000999999
 50
242.3949746469010051
 51
244.4202971974999912
  0
ARC
  5
BD6F
  8
0
 10
3644.09265552650686
 20
306.8639207008250764
 30
0.0
 40
0.5611282750999999
 50
245.2322161007878947
 51
247.2522955562018865
  0
ARC
  5
BD70
  8
0
 10
3644.09265552650686
 20
306.8639207008250764
 30
0.0
 40
0.5611282750999999
 50
239.4640656409879114
 51
241.514979665992314
  0
ARC
  5
BD71
  8
0
 10
3644.09265552650686
 20
306.8639207008250764
 30
0.0
 40
0.5611282750999999
 50
233.5639147523882002
 51
235.669515909092695
  0
ARC
  5
BD72
  8
0
 10
3644.09265552650686
 20
306.8639207008250764
 30
0.0
 40
0.5535823391
 50
245.1403852111872084
 51
247.1882831719881892
  0
ARC
  5
BD73
  8
0
 10
3644.09265552650686
 20
306.8639207008250764
 30
0.0
 40
0.5535823391
 50
239.2912407574883105
 51
241.3712856034883032
  0
ARC
  5
BD74
  8
0
 10
3644.09265552650686
 20
306.8639207008250764
 30
0.0
 40
0.5535823391
 50
233.2130910833197959
 51
235.4414724396818031
  0
ARC
  5
BD75
  8
0
 10
3644.09265552650686
 20
306.8639207008250764
 30
0.0
 40
0.5512175085999999
 50
248.0178508448890113
 51
250.0667180693963871
  0
ARC
  5
BD76
  8
0
 10
3644.09265552650686
 20
306.8639207008250764
 30
0.0
 40
0.5512175085999999
 50
242.1865379704919974
 51
244.2566992327973878
  0
ARC
  5
BD77
  8
0
 10
3644.09265552650686
 20
306.8639207008250764
 30
0.0
 40
0.5512175085999999
 50
236.2509351633848951
 51
238.3657563667929935
  0
ARC
  5
BD78
  8
0
 10
3644.09265552650686
 20
306.8639207008250764
 30
0.0
 40
0.5424274687999999
 50
247.954228566780813
 51
250.0363883704989121
  0
ARC
  5
BD79
  8
0
 10
3644.09265552650686
 20
306.8639207008250764
 30
0.0
 40
0.5424274687999999
 50
242.0269390470803046
 51
244.1314595949910995
  0
ARC
  5
BD7A
  8
0
 10
3644.09265552650686
 20
306.8639207008250764
 30
0.0
 40
0.5424274687999999
 50
235.9900159850853072
 51
238.141509155096486
  0
ARC
  5
BD7B
  8
0
 10
3644.09265552650686
 20
306.8639207008250764
 30
0.0
 40
0.5396911518
 50
244.9645712733824894
 51
247.0657464981833016
  0
ARC
  5
BD7C
  8
0
 10
3644.09265552650686
 20
306.8639207008250764
 30
0.0
 40
0.5396911518
 50
238.9601250829909134
 51
241.0960660217909037
  0
ARC
  5
BD7D
  8
0
 10
3644.09265552650686
 20
306.8639207008250764
 30
0.0
 40
0.5295769147999999
 50
244.8307135300011907
 51
246.9724677717852046
  0
ARC
  5
BD7E
  8
0
 10
3644.09265552650686
 20
306.8639207008250764
 30
0.0
 40
0.5264430964999999
 50
247.8330754657793875
 51
249.9786378965789027
  0
ARC
  5
BD7F
  8
0
 10
3644.09265552650686
 20
306.8639207008250764
 30
0.0
 40
0.5264430964999999
 50
241.7228401543922871
 51
243.8928938594831095
  0
LINE
  5
BD80
  8
0
 10
3643.7667626366542208
 20
306.3784219797390165
 30
0.0
 11
3643.7765540013001555
 21
306.3753336091023129
 31
0.0
  0
LINE
  5
BD82
  8
0
 10
3643.47873512492788
 20
306.4358555110786142
 30
0.0
 11
3651.6460396699171724
 21
306.2900433983733137
 31
0.0
  0
LINE
  5
BD83
  8
0
 10
3643.3704924840471904
 20
307.2879951107576062
 30
0.0
 11
3651.6460396699171724
 21
307.3217735982830163
 31
0.0
  0
ARC
  5
BD84
  8
0
 10
3643.5642290234968641
 20
308.0751286711451939
 30
0.0
 40
1.6415010508700021
 50
263.2069170262573721
 51
267.0145271227546004
  0
ARC
  5
BE4E
  8
0
 10
3643.3764182014588187
 20
307.2515809995643963
 30
0.0
 40
0.036893110750313
 50
98.5655405911721516
 51
173.459535002812288
  0
ENDSEC
  0
EOF
