  0
SECTION
  2
HEADER
  9
$ACADVER
  1
AC1009
  9
$INSBASE
 10
3624.6899941948240667
 20
305.5581294538084762
 30
0.0
  9
$EXTMIN
 10
3623.4301516751238523
 20
304.2982869340585239
 30
0.0
  9
$EXTMAX
 10
3625.9498367145238262
 20
306.8179719734584978
 30
0.0
  9
$LIMMIN
 10
0.0
 20
0.0
  9
$LIMMAX
 10
11.6929133858000007
 20
8.2677165353999982
  9
$ORTHOMODE
 70
     0
  9
$REGENMODE
 70
     1
  9
$FILLMODE
 70
     1
  9
$QTEXTMODE
 70
     0
  9
$MIRRTEXT
 70
     0
  9
$DRAGMODE
 70
     2
  9
$LTSCALE
 40
0.6431102362
  9
$OSMODE
 70
  4095
  9
$ATTMODE
 70
     1
  9
$TEXTSIZE
 40
0.2
  9
$TRACEWID
 40
0.05
  9
$TEXTSTYLE
  7
STANDARD
  9
$CLAYER
  8
0
  9
$CELTYPE
  6
BYLAYER
  9
$CECOLOR
 62
   256
  9
$DIMSCALE
 40
1.0
  9
$DIMASZ
 40
0.1875
  9
$DIMEXO
 40
0.0625
  9
$DIMDLI
 40
0.4443307087
  9
$DIMRND
 40
0.0
  9
$DIMDLE
 40
0.0
  9
$DIMEXE
 40
0.125
  9
$DIMTP
 40
0.01
  9
$DIMTM
 40
0.01
  9
$DIMTXT
 40
2.0
  9
$DIMCEN
 40
0.1052362205
  9
$DIMTSZ
 40
0.0
  9
$DIMTOL
 70
     1
  9
$DIMLIM
 70
     0
  9
$DIMTIH
 70
     1
  9
$DIMTOH
 70
     1
  9
$DIMSE1
 70
     0
  9
$DIMSE2
 70
     0
  9
$DIMTAD
 70
     0
  9
$DIMZIN
 70
     0
  9
$DIMBLK
  1

  9
$DIMASO
 70
     1
  9
$DIMSHO
 70
     1
  9
$DIMPOST
  1
\X
  9
$DIMAPOST
  1

  9
$DIMALT
 70
     1
  9
$DIMALTD
 70
     2
  9
$DIMALTF
 40
25.3999999999999986
  9
$DIMLFAC
 40
1.0
  9
$DIMTOFL
 70
     0
  9
$DIMTVP
 40
0.0
  9
$DIMTIX
 70
     0
  9
$DIMSOXD
 70
     0
  9
$DIMSAH
 70
     0
  9
$DIMBLK1
  1

  9
$DIMBLK2
  1

  9
$DIMSTYLE
  2
STANDARD
  9
$DIMCLRD
 70
     0
  9
$DIMCLRE
 70
     0
  9
$DIMCLRT
 70
     0
  9
$DIMTFAC
 40
1.0
  9
$DIMGAP
 40
0.09
  9
$LUNITS
 70
     2
  9
$LUPREC
 70
     4
  9
$SKETCHINC
 40
0.1
  9
$FILLETRAD
 40
0.0
  9
$AUNITS
 70
     0
  9
$AUPREC
 70
     0
  9
$MENU
  1
.
  9
$ELEVATION
 40
0.0
  9
$PELEVATION
 40
0.0
  9
$THICKNESS
 40
0.0
  9
$LIMCHECK
 70
     0
  9
$BLIPMODE
 70
     0
  9
$CHAMFERA
 40
0.0
  9
$CHAMFERB
 40
0.0
  9
$SKPOLY
 70
     0
  9
$TDCREATE
 40
2458059.843368056230247
  9
$TDUPDATE
 40
2459057.2162037040106952
  9
$TDINDWG
 40
0.486341169
  9
$TDUSRTIMER
 40
0.486341169
  9
$USRTIMER
 70
     1
  9
$ANGBASE
 50
0.0
  9
$ANGDIR
 70
     0
  9
$PDMODE
 70
     0
  9
$PDSIZE
 40
0.3125
  9
$PLINEWID
 40
0.0
  9
$COORDS
 70
     1
  9
$SPLFRAME
 70
     0
  9
$SPLINETYPE
 70
     6
  9
$SPLINESEGS
 70
     8
  9
$ATTDIA
 70
     1
  9
$ATTREQ
 70
     1
  9
$HANDLING
 70
     1
  9
$HANDSEED
  5
B87F
  9
$SURFTAB1
 70
     6
  9
$SURFTAB2
 70
     6
  9
$SURFTYPE
 70
     6
  9
$SURFU
 70
     6
  9
$SURFV
 70
     6
  9
$UCSNAME
  2

  9
$UCSORG
 10
0.0
 20
0.0
 30
0.0
  9
$UCSXDIR
 10
1.0
 20
0.0
 30
0.0
  9
$UCSYDIR
 10
0.0
 20
1.0
 30
0.0
  9
$PUCSNAME
  2

  9
$PUCSORG
 10
0.0
 20
0.0
 30
0.0
  9
$PUCSXDIR
 10
1.0
 20
0.0
 30
0.0
  9
$PUCSYDIR
 10
0.0
 20
1.0
 30
0.0
  9
$USERI1
 70
     0
  9
$USERI2
 70
     0
  9
$USERI3
 70
     0
  9
$USERI4
 70
     0
  9
$USERI5
 70
     0
  9
$USERR1
 40
0.0
  9
$USERR2
 40
0.0
  9
$USERR3
 40
0.0
  9
$USERR4
 40
0.0
  9
$USERR5
 40
0.0
  9
$WORLDVIEW
 70
     1
  9
$SHADEDGE
 70
     3
  9
$SHADEDIF
 70
    70
  9
$TILEMODE
 70
     1
  9
$MAXACTVP
 70
    64
  9
$PLIMCHECK
 70
     0
  9
$PEXTMIN
 10
1.0000000000000000E+20
 20
1.0000000000000000E+20
 30
1.0000000000000000E+20
  9
$PEXTMAX
 10
-1.0000000000000000E+20
 20
-1.0000000000000000E+20
 30
-1.0000000000000000E+20
  9
$PLIMMIN
 10
0.0
 20
0.0
  9
$PLIMMAX
 10
12.0
 20
9.0
  9
$UNITMODE
 70
     0
  9
$VISRETAIN
 70
     1
  9
$PLINEGEN
 70
     0
  9
$PSLTSCALE
 70
     1
  0
ENDSEC
  0
SECTION
  2
TABLES
  0
TABLE
  2
VPORT
 70
     1
  0
VPORT
  2
*ACTIVE
 70
     0
 10
0.0
 20
0.0
 11
1.0
 21
1.0
 12
364.3737100151361119
 22
1.3476954937975161
 13
0.0
 23
0.0
 14
1.0
 24
1.0
 15
0.0
 25
0.0
 16
0.0
 26
0.0
 36
48.4519809769821421
 17
3260.3162841796870453
 27
304.2104339599608807
 37
0.0
 40
2.549445098920446
 41
2.6410256410256401
 42
50.0
 43
0.0
 44
0.0
 50
0.0
 51
0.0
 71
     0
 72
   100
 73
     1
 74
     1
 75
     0
 76
     0
 77
     0
 78
     0
  0
ENDTAB
  0
TABLE
  2
LTYPE
 70
     2
  0
LTYPE
  2
CONTINUOUS
 70
     0
  3
Solid line
 72
    65
 73
     0
 40
0.0
  0
LTYPE
  2
PHANTOM2
 70
     0
  3
___ _ _ ___ _ _ ___ _ _ ___ _ _
 72
    65
 73
     6
 40
1.25
 49
0.625
 49
-0.125
 49
0.125
 49
-0.125
 49
0.125
 49
-0.125
  0
ENDTAB
  0
TABLE
  2
LAYER
 70
     2
  0
LAYER
  2
0
 70
     0
 62
   255
  6
CONTINUOUS
  0
LAYER
  2
DEFPOINTS
 70
     0
 62
     7
  6
CONTINUOUS
  0
ENDTAB
  0
TABLE
  2
STYLE
 70
     1
  0
STYLE
  2
STANDARD
 70
     0
 40
0.0
 41
0.8
 50
0.0
 71
     0
 42
0.2
  3
txt
  4

  0
ENDTAB
  0
TABLE
  2
VIEW
 70
     0
  0
ENDTAB
  0
TABLE
  2
UCS
 70
     0
  0
ENDTAB
  0
TABLE
  2
APPID
 70
     9
  0
APPID
  2
ACAD
 70
     0
  0
APPID
  2
ACAD_MLEADERVER
 70
     0
  0
APPID
  2
ACAD_EXEMPT_FROM_CAD_STANDARDS
 70
     0
  0
APPID
  2
ACAD_NAV_VCDISPLAY
 70
     0
  0
APPID
  2
ACAECLAYERSTANDARD
 70
     0
  0
APPID
  2
ACCMTRANSPARENCY
 70
     0
  0
APPID
  2
ACAD_DSTYLE_DIMJAG
 70
     0
  0
APPID
  2
ACAD_DSTYLE_DIMTALN
 70
     0
  0
APPID
  2
ACDBATTR
 70
     0
  0
ENDTAB
  0
TABLE
  2
DIMSTYLE
 70
     1
  0
DIMSTYLE
  2
STANDARD
 70
     0
  3

  4

  5

  6

  7

 40
1.0
 41
0.1875
 42
0.0625
 43
0.38
 44
0.125
 45
0.0
 46
0.0
 47
0.01
 48
0.01
140
0.15625
141
0.09
142
0.0
143
25.3999999999999986
144
1.0
145
0.0
146
1.0
147
0.09
 71
     1
 72
     0
 73
     1
 74
     1
 75
     0
 76
     0
 77
     0
 78
     4
170
     0
171
     2
172
     0
173
     0
174
     0
175
     0
176
     0
177
     0
178
     0
  0
ENDTAB
  0
ENDSEC
  0
SECTION
  2
BLOCKS
  0
BLOCK
  8
0
  2
$MODEL_SPACE
 70
     0
 10
0.0
 20
0.0
 30
0.0
  3
$MODEL_SPACE
  1

  0
ENDBLK
  5
21
  8
0
  0
BLOCK
 67
     1
  8
0
  2
$PAPER_SPACE
 70
     0
 10
0.0
 20
0.0
 30
0.0
  3
$PAPER_SPACE
  1

  0
ENDBLK
  5
1D
 67
     1
  8
0
  0
ENDSEC
  0
SECTION
  2
ENTITIES
  0
ATTDEF
  5
A142
  8
DEFPOINTS
 10
3624.6862536170669955
 20
305.5642674100654972
 30
0.0
 40
0.001
  1
K-74046T
  3

  2
MODELNUMBER
 70
     0
1001
ACDBATTR
1070
     0
1070
     1
  0
ATTDEF
  5
A143
  8
DEFPOINTS
 10
3624.6862536170669955
 20
305.5626007433988889
 30
0.0
 40
0.001
  1
TAUT
  3

  2
TRADENAME
 70
     0
1001
ACDBATTR
1070
     0
1070
     1
  0
ATTDEF
  5
A144
  8
DEFPOINTS
 10
3624.6862536170669955
 20
305.5609340767322237
 30
0.0
 40
0.001
  1
BATH SPOUT
  3

  2
PRODUCT
 70
     0
1001
ACDBATTR
1070
     0
1070
     1
  0
LINE
  5
B4B4
  8
0
 10
3623.8597386492238002
 20
306.0951084997585099
 30
0.0
 11
3623.8597386478240878
 21
305.092519476058385
 31
0.0
  0
LINE
  5
B4B5
  8
0
 10
3624.0677327785238049
 20
305.2501201680585154
 30
0.0
 11
3624.067732776523826
 21
306.0297334186583953
 31
0.0
  0
LINE
  5
B4B6
  8
0
 10
3624.6729473147229328
 20
305.0978067682585788
 30
0.0
 11
3624.6729473147229328
 21
305.1175120891758183
 31
0.0
  0
LINE
  5
B4B7
  8
0
 10
3624.6729473147229328
 20
305.150029804715075
 30
0.0
 11
3624.6729473147229328
 21
305.166132109248224
 31
0.0
  0
LINE
  5
B4B8
  8
0
 10
3624.6729473147229328
 20
305.1927728750475808
 30
0.0
 11
3624.6729473147229328
 21
305.199435361417386
 31
0.0
  0
LINE
  5
B4B9
  8
0
 10
3624.6899950589240689
 20
305.0873171258584762
 30
0.0
 11
3624.6899950589240689
 21
305.1268249243642003
 31
0.0
  0
LINE
  5
B4BA
  8
0
 10
3624.6899950589240689
 20
305.1415342978585272
 30
0.0
 11
3624.6899950589240689
 21
305.1737298249585137
 31
0.0
  0
LINE
  5
B4BB
  8
0
 10
3624.6899950589240689
 20
305.1857921868585208
 30
0.0
 11
3624.6899950589240689
 21
305.199459085615274
 31
0.0
  0
LINE
  5
B4BC
  8
0
 10
3624.7007861643241995
 20
305.1252399860637752
 30
0.0
 11
3624.7007861643241995
 21
305.1430460730481968
 31
0.0
  0
LINE
  5
B4BD
  8
0
 10
3624.7007861643241995
 20
305.1724718094295099
 30
0.0
 11
3624.7007861643241995
 21
305.1870204874362003
 31
0.0
  0
LINE
  5
B4BE
  8
0
 10
3624.7070428030237963
 20
305.1994352236176269
 30
0.0
 11
3624.7070428030237963
 21
305.1927911344794211
 31
0.0
  0
LINE
  5
B4BF
  8
0
 10
3624.7070428030237963
 20
305.166141548579219
 30
0.0
 11
3624.7070428030237963
 21
305.1500462291571125
 31
0.0
  0
LINE
  5
B4C0
  8
0
 10
3624.7070428030237963
 20
305.1175125176976053
 30
0.0
 11
3624.7070428030237963
 21
305.0978247306238131
 31
0.0
  0
LINE
  5
B4C1
  8
0
 10
3624.7178339085239713
 20
305.1158385774584758
 30
0.0
 11
3624.7178339085239713
 21
305.1514390891584867
 31
0.0
  0
LINE
  5
B4C2
  8
0
 10
3624.7178339085239713
 20
305.1647651091585089
 30
0.0
 11
3624.7178339085239713
 21
305.1939038421584769
 31
0.0
  0
LINE
  5
B4C3
  8
0
 10
3624.7286250140241464
 20
305.0977662351212985
 30
0.0
 11
3624.7286250140241464
 21
305.1175016983397086
 31
0.0
  0
LINE
  5
B4C4
  8
0
 10
3624.7286250140241464
 20
305.1500230999844234
 30
0.0
 11
3624.7286250140241464
 21
305.1661068117879267
 31
0.0
  0
LINE
  5
B4C5
  8
0
 10
3624.7286250140241464
 20
305.1927481817060084
 30
0.0
 11
3624.7286250140241464
 21
305.1993521177299158
 31
0.0
  0
LINE
  5
B4C6
  8
0
 10
3624.7348816527241979
 20
305.1870481031303939
 30
0.0
 11
3624.7348816527241979
 21
305.1724557437094063
 31
0.0
  0
LINE
  5
B4C7
  8
0
 10
3624.7348816527241979
 20
305.1430850350965898
 30
0.0
 11
3624.7348816527241979
 21
305.1252865202271209
 31
0.0
  0
LINE
  5
B4C8
  8
0
 10
3624.7411761612238479
 20
305.047988423928075
 30
0.0
 11
3624.7411761612238479
 21
305.1992766053418791
 31
0.0
  0
LINE
  5
B4C9
  8
0
 10
3625.2797798246870116
 20
306.0614731445795087
 30
0.0
 11
3624.0930743217058989
 21
306.0608957145926183
 31
0.0
  0
LINE
  5
B4CA
  8
0
 10
3625.312239913223948
 20
306.0296057135583965
 30
0.0
 11
3625.3122398845239331
 21
305.2501201674584763
 31
0.0
  0
LINE
  5
B4CB
  8
0
 10
3625.5202340138230284
 20
306.0951073782918002
 30
0.0
 11
3625.5202340155237835
 21
305.0925194835584762
 31
0.0
  0
ARC
  5
B4CC
  8
0
 10
3624.0992542872158992
 20
305.2501544535630273
 30
0.0
 40
0.0315215273389491
 50
180.0623197941669957
 51
271.9503524765842144
  0
ARC
  5
B4CD
  8
0
 10
3623.8912229977190691
 20
305.092518494043702
 30
0.0
 40
0.031484349910217
 50
179.9982129120539014
 51
250.0911789832163947
  0
ARC
  5
B4CE
  8
0
 10
3624.099234326217811
 20
306.030001157440779
 30
0.0
 40
0.0315026874600547
 50
101.2762131301166022
 51
180.4869580393431079
  0
ARC
  5
B4CF
  8
0
 10
3623.8940917417257879
 20
306.0924712587454906
 30
0.0
 40
0.0344541725284258
 50
98.9689231955285038
 51
175.610089919661192
  0
ARC
  5
B4D0
  8
0
 10
3624.6900828298739725
 20
302.4646413529607116
 30
0.0
 40
3.7485225096628052
 50
90.0014651990522765
 51
102.3440141862327977
  0
ARC
  5
B4D1
  8
0
 10
3624.6899021055241974
 20
302.4648133344584835
 30
0.0
 40
3.7483505279
 50
77.6553641226159925
 51
89.9987027864884652
  0
CIRCLE
  5
B4D2
  8
0
 10
3624.6899941948240667
 20
305.5581294537585109
 30
0.0
 40
1.2598425197000001
  0
ARC
  5
B4D3
  8
0
 10
3625.2807180508239071
 20
305.2501552359585162
 30
0.0
 40
0.031522317
 50
270.4222020176263186
 51
359.9362690735995898
  0
ARC
  5
B4D4
  8
0
 10
3625.2807376789050977
 20
306.0299832130414757
 30
0.0
 40
0.0315044960753942
 50
359.3134426049223862
 51
91.7422739477470941
  0
ARC
  5
B4D5
  8
0
 10
3625.4887507024241131
 20
305.0925175282583837
 30
0.0
 40
0.031483068
 50
289.9271445216272127
 51
0.0035583605988936
  0
ARC
  5
B4D6
  8
0
 10
3625.4763952770272226
 20
306.0837161307246106
 30
0.0
 40
0.0452945401244418
 50
14.5658618702009193
 51
70.8316355022272433
  0
ARC
  5
B4D7
  8
0
 10
3624.6987481180872237
 20
307.1167869030430211
 30
0.0
 40
2.2108626354553609
 50
248.2780466795423138
 51
269.7729758012333718
  0
ARC
  5
B4D8
  8
0
 10
3624.6812232025031335
 20
307.1167981009793948
 30
0.0
 40
2.2108738518207769
 50
270.2271441264015266
 51
291.7221557922110264
  0
ARC
  5
B4D9
  8
0
 10
3624.5242942682898502
 20
333.6476646540650108
 30
0.0
 40
28.4390985288307903
 50
270.3338220106087988
 51
271.5246023143803882
  0
ARC
  5
B4DA
  8
0
 10
3624.6874882015517869
 20
297.3187552586796869
 30
0.0
 40
7.8807042256522051
 50
88.8419545356243958
 51
89.9817741732664871
  0
ARC
  5
B4DB
  8
0
 10
3625.3225516922980205
 20
328.7350544852134249
 30
0.0
 40
23.5420130777317596
 50
268.8419545356243816
 51
269.6140217651191051
  0
ARC
  5
B4DC
  8
0
 10
3625.1632050616640299
 20
305.0815152962915136
 30
0.0
 40
0.1120628397620915
 50
75.6217535405552752
 51
89.6140217651191335
  0
ARC
  5
B4DD
  8
0
 10
3624.8719341569048993
 20
306.0466164695695852
 30
0.0
 40
0.9140564015270356
 50
280.1869490524082948
 51
290.4323771584200244
  0
ARC
  5
B4DE
  8
0
 10
3624.9889356358480654
 20
305.1821523038618125
 30
0.0
 40
0.0553807985506581
 50
340.0550307403950114
 51
13.0981834626947702
  0
ARC
  5
B4DF
  8
0
 10
3624.9460694036220048
 20
305.1977077269149277
 30
0.0
 40
0.1009821697090054
 50
306.6475620959594721
 51
340.0550307403950114
  0
ARC
  5
B4E0
  8
0
 10
3624.8552136509688353
 20
305.3198331750122065
 30
0.0
 40
0.2531971258179675
 50
284.1196697863052236
 51
306.6475620959594721
  0
ARC
  5
B4E1
  8
0
 10
3624.6952756695200151
 20
305.9556490637480124
 30
0.0
 40
0.9088204950466131
 50
272.8949873128731269
 51
284.1196697863052236
  0
ARC
  5
B4E2
  8
0
 10
3624.9327555502582072
 20
305.1240372602240996
 30
0.0
 40
0.080402092225562
 50
33.3064111505772402
 51
63.0266129211806572
  0
ARC
  5
B4E3
  8
0
 10
3624.9735060010730194
 20
305.1508118309441784
 30
0.0
 40
0.0316427148823914
 50
331.3190517522957066
 51
33.3064111505772402
  0
ARC
  5
B4E4
  8
0
 10
3624.9053152006031269
 20
305.2037310753520956
 30
0.0
 40
0.1176647448037684
 50
288.5291761593410911
 51
324.6330770730717745
  0
ARC
  5
B4E5
  8
0
 10
3624.7717009638818126
 20
305.5286168967376739
 30
0.0
 40
0.4687566422199
 50
277.2451572455595965
 51
291.3958263959157762
  0
ARC
  5
B4E6
  8
0
 10
3624.6894149277518409
 20
305.6415971157093736
 30
0.0
 40
0.5950677306323074
 50
274.9901090134392803
 51
283.3013583676207077
  0
ARC
  5
B4E7
  8
0
 10
3624.6663537332428859
 20
305.7198893399148005
 30
0.0
 40
0.6765798966554306
 50
283.6764816772903828
 51
287.8796094703556037
  0
ARC
  5
B4E8
  8
0
 10
3624.7036998202102041
 20
305.6041227831956917
 30
0.0
 40
0.5549385144437559
 50
287.8796094703556037
 51
297.2370014110571219
  0
ARC
  5
B4E9
  8
0
 10
3624.9079308732748359
 20
305.2185285665813126
 30
0.0
 40
0.118737745946618
 50
294.7702841444661885
 51
316.999827324150715
  0
ARC
  5
B4EA
  8
0
 10
3624.9631865604451377
 20
305.1656249845054276
 30
0.0
 40
0.0422581284595146
 50
318.3649092441845028
 51
348.16389586112399
  0
LINE
  5
B4EB
  8
0
 10
3624.7178339085608059
 20
305.1514390892174902
 30
0.0
 11
3624.7007861643241995
 21
305.1430460730481968
 31
0.0
  0
LINE
  5
B4EC
  8
0
 10
3624.7178339085608059
 20
305.1514390892174902
 30
0.0
 11
3624.7348816527241979
 21
305.1430850350965898
 31
0.0
  0
LINE
  5
B4ED
  8
0
 10
3624.7007861643241995
 20
305.1252399860637752
 30
0.0
 11
3624.7178339085239713
 21
305.1158385774584758
 31
0.0
  0
LINE
  5
B4EE
  8
0
 10
3624.7348816527241979
 20
305.1252865202271209
 30
0.0
 11
3624.7178339085239713
 21
305.1158385774584758
 31
0.0
  0
LINE
  5
B4EF
  8
0
 10
3624.7286250140241464
 20
305.1175016983397086
 30
0.0
 11
3624.7411761612238479
 21
305.1243921501852014
 31
0.0
  0
LINE
  5
B4F0
  8
0
 10
3624.7286250140241464
 20
305.0977662351212985
 30
0.0
 11
3624.7411761612238479
 21
305.0901381214162029
 31
0.0
  0
LINE
  5
B4F1
  8
0
 10
3624.7286250140241464
 20
305.1500230999844234
 30
0.0
 11
3624.7411761612238479
 21
305.1438317809730734
 31
0.0
  0
LINE
  5
B4F2
  8
0
 10
3624.7286250140241464
 20
305.1661068117879267
 30
0.0
 11
3624.7411761612238479
 21
305.1717745762509253
 31
0.0
  0
LINE
  5
B4F3
  8
0
 10
3624.7286250140241464
 20
305.1927481817060084
 30
0.0
 11
3624.7411761612238479
 21
305.1876702304251125
 31
0.0
  0
LINE
  5
B4F4
  8
0
 10
3624.6899950589240689
 20
305.1857921868585208
 30
0.0
 11
3624.7070428030237963
 21
305.1927911344794211
 31
0.0
  0
LINE
  5
B4F5
  8
0
 10
3624.6899950589240689
 20
305.1857921868585208
 30
0.0
 11
3624.6729473147229328
 21
305.1927728750475808
 31
0.0
  0
LINE
  5
B4F6
  8
0
 10
3624.7178339085239713
 20
305.1939038421584769
 30
0.0
 11
3624.7007861643241995
 21
305.1870204874362003
 31
0.0
  0
LINE
  5
B4F7
  8
0
 10
3624.7348816527241979
 20
305.1870481031303939
 30
0.0
 11
3624.7178339085239713
 21
305.1939038421584769
 31
0.0
  0
LINE
  5
B4F8
  8
0
 10
3624.7178339085239713
 20
305.1647651091585089
 30
0.0
 11
3624.7348816527241979
 21
305.1724557437094063
 31
0.0
  0
LINE
  5
B4F9
  8
0
 10
3624.7007861643241995
 20
305.1724718094295099
 30
0.0
 11
3624.7178339085239713
 21
305.1647651091585089
 31
0.0
  0
LINE
  5
B4FA
  8
0
 10
3624.6899950589240689
 20
305.1737298249585137
 30
0.0
 11
3624.7070428030237963
 21
305.166141548579219
 31
0.0
  0
LINE
  5
B4FB
  8
0
 10
3624.6729473147229328
 20
305.166132109248224
 30
0.0
 11
3624.6899950589240689
 21
305.1737298249585137
 31
0.0
  0
LINE
  5
B4FC
  8
0
 10
3624.6899950589240689
 20
305.1415342978585272
 30
0.0
 11
3624.6729473147229328
 21
305.150029804715075
 31
0.0
  0
LINE
  5
B4FD
  8
0
 10
3624.6899950589240689
 20
305.1415342978585272
 30
0.0
 11
3624.7070428030237963
 21
305.1500462291571125
 31
0.0
  0
LINE
  5
B4FE
  8
0
 10
3624.6729473147229328
 20
305.1175120891758183
 30
0.0
 11
3624.6899950589240689
 21
305.1268249243642003
 31
0.0
  0
LINE
  5
B4FF
  8
0
 10
3624.7070428030237963
 20
305.1175125176976053
 30
0.0
 11
3624.6899950589240689
 21
305.1268249243642003
 31
0.0
  0
LINE
  5
B500
  8
0
 10
3624.6899950589240689
 20
305.0873171258584762
 30
0.0
 11
3624.7070428030237963
 21
305.0978247306238131
 31
0.0
  0
LINE
  5
B501
  8
0
 10
3624.6899950589240689
 20
305.0873171258584762
 30
0.0
 11
3624.6729473147229328
 21
305.0978067682585788
 31
0.0
  0
LINE
  5
B502
  8
0
 10
3624.6791877706359628
 20
305.1252400508423079
 30
0.0
 11
3624.6791878774452016
 21
305.143046137826218
 31
0.0
  0
LINE
  5
B503
  8
0
 10
3624.6791880539531121
 20
305.1724718742070763
 30
0.0
 11
3624.6791881412218572
 21
305.1870205522134825
 31
0.0
  0
LINE
  5
B504
  8
0
 10
3624.672931377281202
 20
305.1661416508870275
 30
0.0
 11
3624.6729312807351562
 21
305.1500463314650915
 31
0.0
  0
LINE
  5
B505
  8
0
 10
3624.6621399700420625
 20
305.1158387444971254
 30
0.0
 11
3624.6621401835900542
 21
305.151439256196511
 31
0.0
  0
LINE
  5
B506
  8
0
 10
3624.6621402635250888
 20
305.1647652761961922
 30
0.0
 11
3624.6621404383117806
 21
305.1939040091957054
 31
0.0
  0
LINE
  5
B507
  8
0
 10
3624.6513487561360307
 20
305.0977664668902207
 30
0.0
 11
3624.6513488745181348
 21
305.1175019301081761
 31
0.0
  0
LINE
  5
B508
  8
0
 10
3624.6513490695961082
 20
305.1500233317522088
 30
0.0
 11
3624.6513491660739419
 21
305.1661070435554848
 31
0.0
  0
LINE
  5
B509
  8
0
 10
3624.6513493258798917
 20
305.1927484134731117
 30
0.0
 11
3624.6513493654938429
 21
305.1993523476079986
 31
0.0
  0
LINE
  5
B50A
  8
0
 10
3624.6450926529892058
 20
305.187048372427796
 30
0.0
 11
3624.645092565457162
 21
305.172456013006979
 31
0.0
  0
LINE
  5
B50B
  8
0
 10
3624.6450923892789433
 20
305.143085304394674
 30
0.0
 11
3624.6450922825151792
 21
305.1252867895254894
 31
0.0
  0
LINE
  5
B50C
  8
0
 10
3624.6387973103469449
 20
305.0479887309853098
 30
0.0
 11
3624.638798217841213
 21
305.199276911240986
 31
0.0
  0
LINE
  5
B50D
  8
0
 10
3624.6621401835532197
 20
305.1514392562554008
 30
0.0
 11
3624.6791878774452016
 21
305.143046137826218
 31
0.0
  0
LINE
  5
B50E
  8
0
 10
3624.6621401835532197
 20
305.1514392562554008
 30
0.0
 11
3624.6450923892789433
 21
305.143085304394674
 31
0.0
  0
LINE
  5
B50F
  8
0
 10
3624.6791877706359628
 20
305.1252400508423079
 30
0.0
 11
3624.6621399700420625
 21
305.1158387444971254
 31
0.0
  0
LINE
  5
B510
  8
0
 10
3624.6450922825151792
 20
305.1252867895254894
 30
0.0
 11
3624.6621399700420625
 21
305.1158387444971254
 31
0.0
  0
LINE
  5
B511
  8
0
 10
3624.6513488745181348
 20
305.1175019301081761
 30
0.0
 11
3624.6387977686499653
 21
305.1243924572409014
 31
0.0
  0
LINE
  5
B512
  8
0
 10
3624.6513487561360307
 20
305.0977664668902207
 30
0.0
 11
3624.638797563179196
 21
305.0901384284725282
 31
0.0
  0
LINE
  5
B513
  8
0
 10
3624.6513490695961082
 20
305.1500233317522088
 30
0.0
 11
3624.6387978852581
 21
305.1438320880284891
 31
0.0
  0
LINE
  5
B514
  8
0
 10
3624.6513491660739419
 20
305.1661070435554848
 30
0.0
 11
3624.6387980528720618
 21
305.1717748833057726
 31
0.0
  0
LINE
  5
B515
  8
0
 10
3624.6513493258798917
 20
305.1927484134731117
 30
0.0
 11
3624.6387981482212126
 21
305.1876705374796757
 31
0.0
  0
LINE
  5
B516
  8
0
 10
3624.6621404383117806
 20
305.1939040091957054
 30
0.0
 11
3624.6791881412218572
 21
305.1870205522134825
 31
0.0
  0
LINE
  5
B517
  8
0
 10
3624.6450926529892058
 20
305.187048372427796
 30
0.0
 11
3624.6621404383117806
 21
305.1939040091957054
 31
0.0
  0
LINE
  5
B518
  8
0
 10
3624.6621402635250888
 20
305.1647652761961922
 30
0.0
 11
3624.645092565457162
 21
305.172456013006979
 31
0.0
  0
LINE
  5
B519
  8
0
 10
3624.6791880539531121
 20
305.1724718742070763
 30
0.0
 11
3624.6621402635250888
 21
305.1647652761961922
 31
0.0
  0
ARC
  5
B51A
  8
0
 10
3624.7115013870261464
 20
306.4222970033717957
 30
0.0
 40
1.375697383276274
 50
266.9705705900299222
 51
269.1042204777510278
  0
ARC
  5
B51B
  8
0
 10
3624.662407162783893
 20
306.5987812544792064
 30
0.0
 40
1.552258666302367
 50
271.018324946717712
 51
272.908710014480107
  0
ARC
  5
B51C
  8
0
 10
3623.4977894299508989
 20
273.8542336387844784
 30
0.0
 40
31.3702046493929991
 50
88.4439919788166264
 51
88.8994337937792949
  0
ARC
  5
B51D
  8
0
 10
3624.7013396912871031
 20
321.3776893001543726
 30
0.0
 40
16.1686444688410518
 50
268.7535349729319023
 51
269.9597732367151934
  0
ARC
  5
B51E
  8
0
 10
3624.6763941004401204
 20
303.9484584781184253
 30
0.0
 40
0.9812731471066356
 50
89.2063318879522029
 51
92.8436588319315632
  0
ARC
  5
B51F
  8
0
 10
3624.5905893952581209
 20
297.7545180320922213
 30
0.0
 40
7.1758078912460999
 50
88.7032317524329557
 51
89.2063318879522029
  0
ARC
  5
B520
  8
0
 10
3624.6974108609251743
 20
305.4284630201382811
 30
0.0
 40
0.5030540363300947
 50
269.1550927180334156
 51
276.3425766443273801
  0
ARC
  5
B521
  8
0
 10
3624.6857510969571194
 20
305.4745281061827882
 30
0.0
 40
0.5490808118244667
 50
263.9324037292726075
 51
270.4426289599905999
  0
LINE
  5
B522
  8
0
 10
3623.8654466397852048
 20
305.0744396760247241
 30
0.0
 11
3624.0773600277088917
 21
305.2274774148147003
 31
0.0
  0
LINE
  5
B523
  8
0
 10
3624.0747933580300923
 20
306.049877233291113
 30
0.0
 11
3623.8687752560881563
 21
306.115841444015814
 31
0.0
  0
LINE
  5
B524
  8
0
 10
3625.5145241443688064
 20
305.0744367854362054
 30
0.0
 11
3625.302611265377891
 21
305.2274760907903897
 31
0.0
  0
LINE
  5
B525
  8
0
 10
3625.3051728419100073
 20
306.0498692906307951
 30
0.0
 11
3625.5090194011468157
 21
306.1151368546251774
 31
0.0
  0
ARC
  5
B527
  8
0
 10
3624.9225408908569079
 20
305.0914999002400805
 30
0.0
 40
0.09721066960702
 50
50.4646800293297417
 51
56.6065580767513623
  0
LINE
  5
B528
  8
0
 10
3624.7726721890821864
 20
305.1861629374649283
 30
0.0
 11
3624.7726722082770721
 21
305.161308763158388
 31
0.0
  0
LINE
  5
B529
  8
0
 10
3624.7726722082770721
 20
305.161308763158388
 30
0.0
 11
3624.7735115919808777
 21
305.1611329766038239
 31
0.0
  0
LINE
  5
B52A
  8
0
 10
3624.7735115919808777
 20
305.1611329766038239
 30
0.0
 11
3624.7735115723371564
 21
305.1866166155779752
 31
0.0
  0
LINE
  5
B52B
  8
0
 10
3624.7735115920131648
 20
305.1611329765970027
 30
0.0
 11
3624.7905593293571656
 21
305.1699037585726728
 31
0.0
  0
LINE
  5
B52C
  8
0
 10
3624.7905593293571656
 20
305.1699037585726728
 30
0.0
 11
3624.790559319501881
 21
305.1826415113723101
 31
0.0
  0
LINE
  5
B52D
  8
0
 10
3624.790559319501881
 20
305.1826415113723101
 30
0.0
 11
3624.7735116078661122
 21
305.186616634769905
 31
0.0
  0
LINE
  5
B52E
  8
0
 10
3624.8121415272330523
 20
305.1868747416957035
 30
0.0
 11
3624.8121415371269904
 21
305.174063022139876
 31
0.0
  0
LINE
  5
B52F
  8
0
 10
3624.8121415371269904
 20
305.174063022139876
 30
0.0
 11
3624.8291892830079632
 21
305.1718125744574195
 31
0.0
  0
LINE
  5
B530
  8
0
 10
3624.8291892830079632
 20
305.1718125744574195
 30
0.0
 11
3624.8462370513238966
 21
305.1822434191362277
 31
0.0
  0
LINE
  5
B531
  8
0
 10
3624.8291892829320204
 20
305.1718125744657755
 30
0.0
 11
3624.829189263482931
 21
305.1973968273367745
 31
0.0
  0
LINE
  5
B532
  8
0
 10
3624.8572050351717735
 20
305.1865051031758753
 30
0.0
 11
3624.8399803856350445
 21
305.1755770471821734
 31
0.0
  0
LINE
  5
B533
  8
0
 10
3624.8399803856350445
 20
305.1755770471821734
 30
0.0
 11
3624.8399803947781947
 21
305.1637679796393172
 31
0.0
  0
LINE
  5
B534
  8
0
 10
3624.8399803947781947
 20
305.1637679796393172
 30
0.0
 11
3624.8570281395991515
 21
305.1628150553577257
 31
0.0
  0
LINE
  5
B535
  8
0
 10
3624.8570281395991515
 20
305.1628150553577257
 30
0.0
 11
3624.8740758754138369
 21
305.1737263992291105
 31
0.0
  0
LINE
  5
B536
  8
0
 10
3624.8740758754138369
 20
305.1737263992291105
 30
0.0
 11
3624.8740758662638655
 21
305.1855740766403073
 31
0.0
  0
LINE
  5
B537
  8
0
 10
3624.8570281378251821
 20
305.1628150554568037
 30
0.0
 11
3624.8570281196170981
 21
305.1863928603644922
 31
0.0
  0
LINE
  5
B538
  8
0
 10
3624.923496933944989
 20
305.1764249419961743
 30
0.0
 11
3624.9234969254412135
 21
305.1874362164472245
 31
0.0
  0
LINE
  5
B539
  8
0
 10
3624.9234969339031522
 20
305.1764249420373858
 30
0.0
 11
3624.940544676233003
 21
305.1786491577399829
 31
0.0
  0
LINE
  5
B53A
  8
0
 10
3624.940544676233003
 20
305.1786491577399829
 30
0.0
 11
3624.9405446627220044
 21
305.1961409507819099
 31
0.0
  0
LINE
  5
B53B
  8
0
 10
3624.9019147211151903
 20
305.1787907419604267
 30
0.0
 11
3624.9019147296480696
 21
305.1678208921900932
 31
0.0
  0
LINE
  5
B53C
  8
0
 10
3624.9019147296480696
 20
305.1678208921900932
 30
0.0
 11
3624.8848669941771732
 21
305.1565180658042777
 31
0.0
  0
LINE
  5
B53D
  8
0
 10
3624.8848669941771732
 20
305.1565180658042777
 30
0.0
 11
3624.8678192502829916
 21
305.1561611197290063
 31
0.0
  0
LINE
  5
B53E
  8
0
 10
3624.8678192502829916
 20
305.1561611197290063
 30
0.0
 11
3624.8678192418660728
 21
305.1670206359460167
 31
0.0
  0
LINE
  5
B53F
  8
0
 10
3624.8678192418660728
 20
305.1670206359460167
 30
0.0
 11
3624.8848669773201436
 21
305.1783458636417095
 31
0.0
  0
LINE
  5
B540
  8
0
 10
3624.8848669773201436
 20
305.1783458636417095
 30
0.0
 11
3624.9019147211151903
 21
305.1787907419604267
 31
0.0
  0
LINE
  5
B541
  8
0
 10
3624.8848669772901303
 20
305.1783458637461877
 30
0.0
 11
3624.884866988462818
 21
305.1565180656846792
 31
0.0
  0
LINE
  5
B542
  8
0
 10
3624.9844207088081021
 20
305.1664719111237787
 30
0.0
 11
3624.9683835401478973
 21
305.154429307582177
 31
0.0
  0
LINE
  5
B543
  8
0
 10
3624.9683835401478973
 20
305.154429307582177
 30
0.0
 11
3624.9513358041299398
 21
305.1498455668369161
 31
0.0
  0
LINE
  5
B544
  8
0
 10
3624.9513358041299398
 20
305.1498455668369161
 30
0.0
 11
3624.9513357979030843
 21
305.1579082138368904
 31
0.0
  0
LINE
  5
B545
  8
0
 10
3624.9513357979030843
 20
305.1579082138368904
 30
0.0
 11
3624.9683835318860474
 21
305.1706241943830946
 31
0.0
  0
LINE
  5
B546
  8
0
 10
3624.9683835318860474
 20
305.1706241943830946
 30
0.0
 11
3624.9760442027250065
 21
305.1726621445703813
 31
0.0
  0
LINE
  5
B547
  8
0
 10
3624.9683835318560341
 20
305.1706241944875728
 30
0.0
 11
3624.9683835401478973
 21
305.154429307582177
 31
0.0
  0
LINE
  5
B548
  8
0
 10
3624.9575924428550024
 20
305.1497005571177965
 30
0.0
 11
3624.9575924484079223
 21
305.1426259674939843
 31
0.0
  0
LINE
  5
B549
  8
0
 10
3624.9575924483551717
 20
305.1426259674578887
 30
0.0
 11
3624.9404684459382224
 21
305.1314148585885277
 31
0.0
  0
LINE
  5
B54A
  8
0
 10
3624.9404684459382224
 20
305.1314148585885277
 30
0.0
 11
3624.9234969717517743
 21
305.1274152714697152
 31
0.0
  0
LINE
  5
B54B
  8
0
 10
3624.9234969717517743
 20
305.1274152714697152
 30
0.0
 11
3624.9234969662920776
 21
305.1344605529280898
 31
0.0
  0
LINE
  5
B54C
  8
0
 10
3624.9234969662920776
 20
305.1344605529280898
 30
0.0
 11
3624.9405447008589363
 21
305.1455538057244894
 31
0.0
  0
LINE
  5
B54D
  8
0
 10
3624.9405447008589363
 20
305.1455538057244894
 30
0.0
 11
3624.9575924428550024
 21
305.1497005571177965
 31
0.0
  0
LINE
  5
B54E
  8
0
 10
3624.9405447008289229
 20
305.1455538058290244
 30
0.0
 11
3624.9405447080562226
 21
305.1314345886300998
 31
0.0
  0
LINE
  5
B54F
  8
0
 10
3624.929753600586082
 20
305.1401907894692727
 30
0.0
 11
3624.9297535943878756
 21
305.1482159205693279
 31
0.0
  0
LINE
  5
B550
  8
0
 10
3624.9297535943878756
 20
305.1482159205693279
 30
0.0
 11
3624.9127058523968117
 21
305.1455220840016977
 31
0.0
  0
LINE
  5
B551
  8
0
 10
3624.9127058523968117
 20
305.1455220840016977
 30
0.0
 11
3624.8956581163652118
 21
305.1349086387381249
 31
0.0
  0
LINE
  5
B552
  8
0
 10
3624.8956581163652118
 20
305.1349086387381249
 30
0.0
 11
3624.8956581224438196
 21
305.1269327624863763
 31
0.0
  0
LINE
  5
B553
  8
0
 10
3624.8956581224438196
 20
305.1269327624863763
 30
0.0
 11
3624.9127058646249679
 21
305.1295220057037909
 31
0.0
  0
LINE
  5
B554
  8
0
 10
3624.9127058646249679
 20
305.1295220057037909
 30
0.0
 11
3624.929753600586082
 21
305.1401907894692727
 31
0.0
  0
LINE
  5
B555
  8
0
 10
3624.9127058522940388
 20
305.1455220839375215
 30
0.0
 11
3624.9127058646508885
 21
305.1295220057195934
 31
0.0
  0
LINE
  5
B556
  8
0
 10
3624.8740758983758496
 20
305.1439592452704801
 30
0.0
 11
3624.874075890721997
 21
305.1538335626528919
 31
0.0
  0
LINE
  5
B557
  8
0
 10
3624.874075890721997
 20
305.1538335626528919
 30
0.0
 11
3624.8570492276439836
 21
305.1538430190449276
 31
0.0
  0
LINE
  5
B558
  8
0
 10
3624.8570492276439836
 20
305.1538430190449276
 30
0.0
 11
3624.8399804101131849
 21
305.1440396425056178
 31
0.0
  0
LINE
  5
B559
  8
0
 10
3624.8399804101131849
 20
305.1440396425056178
 30
0.0
 11
3624.8399804175851386
 21
305.1342347796393142
 31
0.0
  0
LINE
  5
B55A
  8
0
 10
3624.8399804175851386
 20
305.1342347796393142
 30
0.0
 11
3624.8570281617189721
 21
305.1341650958120795
 31
0.0
  0
LINE
  5
B55B
  8
0
 10
3624.8570281617189721
 20
305.1341650958120795
 30
0.0
 11
3624.8740758983758496
 21
305.1439592452704801
 31
0.0
  0
LINE
  5
B55C
  8
0
 10
3624.8570492275412107
 20
305.1538430189805808
 30
0.0
 11
3624.8570281617439832
 21
305.1341650958279956
 31
0.0
  0
LINE
  5
B55D
  8
0
 10
3624.9019147508088281
 20
305.1404201203513935
 30
0.0
 11
3624.9019147436310959
 21
305.1496336137312255
 31
0.0
  0
LINE
  5
B55E
  8
0
 10
3624.9019147436310959
 20
305.1496336137312255
 30
0.0
 11
3624.8848670005759232
 21
305.1483166241574736
 31
0.0
  0
LINE
  5
B55F
  8
0
 10
3624.8848670005759232
 20
305.1483166241574736
 30
0.0
 11
3624.8678192641777969
 21
305.1381297821387193
 31
0.0
  0
LINE
  5
B560
  8
0
 10
3624.8678192641777969
 20
305.1381297821387193
 30
0.0
 11
3624.8678192710440271
 21
305.1292387797387278
 31
0.0
  0
LINE
  5
B561
  8
0
 10
3624.8678192710440271
 20
305.1292387797387278
 30
0.0
 11
3624.8848670142419905
 21
305.130473398601282
 31
0.0
  0
LINE
  5
B562
  8
0
 10
3624.8848670142419905
 20
305.130473398601282
 30
0.0
 11
3624.9019147508088281
 21
305.1404201203513935
 31
0.0
  0
LINE
  5
B563
  8
0
 10
3624.8848670004731503
 20
305.1483166240931837
 30
0.0
 11
3624.8848670142679111
 21
305.1304733986173119
 31
0.0
  0
LINE
  5
B564
  8
0
 10
3624.8462370440538507
 20
305.1499427699876037
 30
0.0
 11
3624.8462370357119653
 21
305.1607454656103755
 31
0.0
  0
LINE
  5
B565
  8
0
 10
3624.8462370357119653
 20
305.1607454656103755
 30
0.0
 11
3624.8291892906199791
 21
305.1620545063689747
 31
0.0
  0
LINE
  5
B566
  8
0
 10
3624.8291892906199791
 20
305.1620545063689747
 30
0.0
 11
3624.8121415537038956
 21
305.1525973060399224
 31
0.0
  0
LINE
  5
B567
  8
0
 10
3624.8121415537038956
 20
305.1525973060399224
 30
0.0
 11
3624.8121415619921208
 21
305.1418664126397857
 31
0.0
  0
LINE
  5
B568
  8
0
 10
3624.8121415619921208
 20
305.1418664126397857
 30
0.0
 11
3624.8289539300681099
 21
305.1405355374648138
 31
0.0
  0
LINE
  5
B569
  8
0
 10
3624.8289539300681099
 20
305.1405355374648138
 30
0.0
 11
3624.8462370440538507
 21
305.1499427699876037
 31
0.0
  0
LINE
  5
B56A
  8
0
 10
3624.8291892905172062
 20
305.1620545063046848
 30
0.0
 11
3624.828953930093121
 21
305.1405355374806732
 31
0.0
  0
LINE
  5
B56B
  8
0
 10
3624.8183981877759834
 20
305.158590711171712
 30
0.0
 11
3624.8183981787838093
 21
305.1703429582838112
 31
0.0
  0
LINE
  5
B56C
  8
0
 10
3624.8183981787838093
 20
305.1703429582838112
 30
0.0
 11
3624.8013504325949725
 21
305.1729437378604075
 31
0.0
  0
LINE
  5
B56D
  8
0
 10
3624.8013504325949725
 20
305.1729437378604075
 30
0.0
 11
3624.7843026954351444
 21
305.1638020964127804
 31
0.0
  0
LINE
  5
B56E
  8
0
 10
3624.7843026954351444
 20
305.1638020964127804
 30
0.0
 11
3624.784302704476886
 21
305.1521192983498167
 31
0.0
  0
LINE
  5
B56F
  8
0
 10
3624.784302704476886
 20
305.1521192983498167
 30
0.0
 11
3624.8013504506520803
 21
305.1495088531157762
 31
0.0
  0
LINE
  5
B570
  8
0
 10
3624.8013504506520803
 20
305.1495088531157762
 30
0.0
 11
3624.8183981877759834
 21
305.158590711171712
 31
0.0
  0
LINE
  5
B571
  8
0
 10
3624.8013504324921996
 20
305.1729437377961744
 30
0.0
 11
3624.8013504506770914
 21
305.1495088531316924
 31
0.0
  0
LINE
  5
B572
  8
0
 10
3624.8183982104928873
 20
305.12917576967169
 30
0.0
 11
3624.818398202996832
 21
305.1389455001087754
 31
0.0
  0
LINE
  5
B573
  8
0
 10
3624.818398202996832
 20
305.1389455001087754
 30
0.0
 11
3624.8013504575160368
 21
305.140634625065104
 31
0.0
  0
LINE
  5
B574
  8
0
 10
3624.8013504575160368
 20
305.140634625065104
 30
0.0
 11
3624.7843027195672221
 21
305.1325757781405059
 31
0.0
  0
LINE
  5
B575
  8
0
 10
3624.7843027195672221
 20
305.1325757781405059
 30
0.0
 11
3624.7843027270469065
 21
305.1228490581356141
 31
0.0
  0
LINE
  5
B576
  8
0
 10
3624.7843027270469065
 20
305.1228490581356141
 30
0.0
 11
3624.8013504724999621
 21
305.1211384269973905
 31
0.0
  0
LINE
  5
B577
  8
0
 10
3624.8013504724999621
 20
305.1211384269973905
 30
0.0
 11
3624.8183982104928873
 21
305.12917576967169
 31
0.0
  0
LINE
  5
B578
  8
0
 10
3624.8013504574128092
 20
305.1406346250009278
 30
0.0
 11
3624.8013504725249732
 21
305.1211384270134204
 31
0.0
  0
LINE
  5
B579
  8
0
 10
3624.9854312937118266
 20
305.1481851153682214
 30
0.0
 11
3624.9854312890138317
 21
305.1542681270681783
 31
0.0
  0
LINE
  5
B57A
  8
0
 10
3624.9854312890138317
 20
305.1542681270681783
 30
0.0
 11
3624.9683835493260631
 21
305.1485596739104267
 31
0.0
  0
LINE
  5
B57B
  8
0
 10
3624.9683835493260631
 20
305.1485596739104267
 30
0.0
 11
3624.9513358141739445
 21
305.1369202233897795
 31
0.0
  0
LINE
  5
B57C
  8
0
 10
3624.9513358141739445
 20
305.1369202233897795
 30
0.0
 11
3624.9513358188091843
 21
305.1308372116369014
 31
0.0
  0
LINE
  5
B57D
  8
0
 10
3624.9513358188091843
 20
305.1308372116369014
 30
0.0
 11
3624.968383558523783
 21
305.1363936503717014
 31
0.0
  0
LINE
  5
B57E
  8
0
 10
3624.968383558523783
 20
305.1363936503717014
 30
0.0
 11
3624.9854312937118266
 21
305.1481851153682214
 31
0.0
  0
LINE
  5
B57F
  8
0
 10
3624.9683835492228354
 20
305.1485596738461936
 30
0.0
 11
3624.9683835585501583
 21
305.1363936503876175
 31
0.0
  0
LINE
  5
B580
  8
0
 10
3624.9854313040950728
 20
305.1347623952385106
 30
0.0
 11
3624.9854313008590907
 21
305.1389303444681786
 31
0.0
  0
LINE
  5
B581
  8
0
 10
3624.9854313008590907
 20
305.1389303444681786
 30
0.0
 11
3624.9683835624091444
 21
305.1321846240629156
 31
0.0
  0
LINE
  5
B582
  8
0
 10
3624.9683835624091444
 20
305.1321846240629156
 30
0.0
 11
3624.951335826065133
 21
305.12151786804111
 31
0.0
  0
LINE
  5
B583
  8
0
 10
3624.951335826065133
 20
305.12151786804111
 30
0.0
 11
3624.9513358291928853
 21
305.1174144915071906
 31
0.0
  0
LINE
  5
B584
  8
0
 10
3624.9513358291928853
 20
305.1174144915071906
 30
0.0
 11
3624.9680028929437867
 21
305.1238894643743151
 31
0.0
  0
LINE
  5
B585
  8
0
 10
3624.9680028929437867
 20
305.1238894643743151
 30
0.0
 11
3624.9854313040950728
 21
305.1347623952385106
 31
0.0
  0
LINE
  5
B586
  8
0
 10
3624.9683835623050072
 20
305.1321846239986826
 30
0.0
 11
3624.9680028929701621
 21
305.1238894643901745
 31
0.0
  0
LINE
  5
B587
  8
0
 10
3624.9575924609271169
 20
305.1264121901688213
 30
0.0
 11
3624.9575924568498522
 21
305.1315615955355725
 31
0.0
  0
LINE
  5
B588
  8
0
 10
3624.9575924568498522
 20
305.1315615955355725
 30
0.0
 11
3624.9405447166209342
 21
305.1263952597112734
 31
0.0
  0
LINE
  5
B589
  8
0
 10
3624.9405447166209342
 20
305.1263952597112734
 30
0.0
 11
3624.9234969803937929
 21
305.1162929279219043
 31
0.0
  0
LINE
  5
B58A
  8
0
 10
3624.9234969803937929
 20
305.1162929279219043
 30
0.0
 11
3624.9234969842968894
 21
305.1111721859543877
 31
0.0
  0
LINE
  5
B58B
  8
0
 10
3624.9234969842968894
 20
305.1111721859543877
 30
0.0
 11
3624.9405447244339484
 21
305.1161824274004744
 31
0.0
  0
LINE
  5
B58C
  8
0
 10
3624.9405447244339484
 20
305.1161824274004744
 30
0.0
 11
3624.9575924609271169
 21
305.1264121901688213
 31
0.0
  0
LINE
  5
B58D
  8
0
 10
3624.9405447165167971
 20
305.1263952596470972
 30
0.0
 11
3624.9405447244589595
 21
305.1161824274163905
 31
0.0
  0
LINE
  5
B58E
  8
0
 10
3624.9575924690780084
 20
305.1158584765154842
 30
0.0
 11
3624.9575924666719402
 21
305.1188966423068791
 31
0.0
  0
LINE
  5
B58F
  8
0
 10
3624.9575924666719402
 20
305.1188966423068791
 30
0.0
 11
3624.9404306323840501
 21
305.1127028794567764
 31
0.0
  0
LINE
  5
B590
  8
0
 10
3624.9404306323840501
 20
305.1127028794567764
 30
0.0
 11
3624.9234969901881414
 21
305.1035841486273057
 31
0.0
  0
LINE
  5
B591
  8
0
 10
3624.9234969901881414
 20
305.1035841486273057
 30
0.0
 11
3624.9234969926019403
 21
305.1004189551373997
 31
0.0
  0
LINE
  5
B592
  8
0
 10
3624.9234969926019403
 20
305.1004189551373997
 30
0.0
 11
3624.9405447320191342
 21
305.1065253742506798
 31
0.0
  0
LINE
  5
B593
  8
0
 10
3624.9405447320191342
 20
305.1065253742506798
 30
0.0
 11
3624.9575924690780084
 21
305.1158584765154842
 31
0.0
  0
LINE
  5
B594
  8
0
 10
3624.9404306322808225
 20
305.1127028793926002
 30
0.0
 11
3624.9405447320441453
 21
305.1065253742667096
 31
0.0
  0
LINE
  5
B595
  8
0
 10
3624.9297536256831336
 20
305.1077221982619108
 30
0.0
 11
3624.9297536224939904
 21
305.1118264838303844
 31
0.0
  0
LINE
  5
B596
  8
0
 10
3624.9297536224939904
 20
305.1118264838303844
 30
0.0
 11
3624.9127058819608465
 21
305.1072773186297127
 31
0.0
  0
LINE
  5
B597
  8
0
 10
3624.9127058819608465
 20
305.1072773186297127
 30
0.0
 11
3624.89565814450998
 21
305.0985182929720168
 31
0.0
  0
LINE
  5
B598
  8
0
 10
3624.89565814450998
 20
305.0985182929720168
 30
0.0
 11
3624.8956581476381871
 21
305.0944149164380974
 31
0.0
  0
LINE
  5
B599
  8
0
 10
3624.8956581476381871
 20
305.0944149164380974
 30
0.0
 11
3624.9127058882099846
 21
305.0989453499810793
 31
0.0
  0
LINE
  5
B59A
  8
0
 10
3624.9127058882099846
 20
305.0989453499810793
 30
0.0
 11
3624.9297536256831336
 21
305.1077221982619108
 31
0.0
  0
LINE
  5
B59B
  8
0
 10
3624.9127058818580736
 20
305.1072773185654796
 30
0.0
 11
3624.9127058882359051
 21
305.0989453499971091
 31
0.0
  0
LINE
  5
B59C
  8
0
 10
3624.9297536152398607
 20
305.1212163533544981
 30
0.0
 11
3624.9297536105182189
 21
305.1272993650425178
 31
0.0
  0
LINE
  5
B59D
  8
0
 10
3624.9297536105182189
 20
305.1272993650425178
 30
0.0
 11
3624.9127058692311039
 21
305.1236921498046968
 31
0.0
  0
LINE
  5
B59E
  8
0
 10
3624.9127058692311039
 20
305.1236921498046968
 30
0.0
 11
3624.8956581324468971
 21
305.1140858921381209
 31
0.0
  0
LINE
  5
B59F
  8
0
 10
3624.8956581324468971
 20
305.1140858921381209
 30
0.0
 11
3624.8956581371439825
 21
305.1080028804399262
 31
0.0
  0
LINE
  5
B5A0
  8
0
 10
3624.8956581371439825
 20
305.1080028804399262
 30
0.0
 11
3624.9127058785629742
 21
305.11152612635982
 31
0.0
  0
LINE
  5
B5A1
  8
0
 10
3624.9127058785629742
 20
305.11152612635982
 30
0.0
 11
3624.9297536152398607
 21
305.1212163533544981
 31
0.0
  0
LINE
  5
B5A2
  8
0
 10
3624.9127058691269667
 20
305.1236921497405206
 30
0.0
 11
3624.9127058785879854
 21
305.1115261263756793
 31
0.0
  0
LINE
  5
B5A3
  8
0
 10
3624.9019147797889673
 20
305.1027924240053721
 30
0.0
 11
3624.9019147758299368
 21
305.1078667481626212
 31
0.0
  0
LINE
  5
B5A4
  8
0
 10
3624.9019147758299368
 20
305.1078667481626212
 30
0.0
 11
3624.8848670339270939
 21
305.1047984129608039
 31
0.0
  0
LINE
  5
B5A5
  8
0
 10
3624.8848670339270939
 20
305.1047984129608039
 30
0.0
 11
3624.8678192962652247
 21
305.0965814572481918
 31
0.0
  0
LINE
  5
B5A6
  8
0
 10
3624.8678192962652247
 20
305.0965814572481918
 30
0.0
 11
3624.8678193002037915
 21
305.0914252193588254
 31
0.0
  0
LINE
  5
B5A7
  8
0
 10
3624.8678193002037915
 20
305.0914252193588254
 30
0.0
 11
3624.8848670422271425
 21
305.0945057223008803
 31
0.0
  0
LINE
  5
B5A8
  8
0
 10
3624.8848670422271425
 20
305.0945057223008803
 30
0.0
 11
3624.9019147797889673
 21
305.1027924240053721
 31
0.0
  0
LINE
  5
B5A9
  8
0
 10
3624.8848670338238662
 20
305.1047984128966277
 30
0.0
 11
3624.8848670422530631
 21
305.0945057223167964
 31
0.0
  0
LINE
  5
B5AA
  8
0
 10
3624.9019147673120642
 20
305.1190508989568002
 30
0.0
 11
3624.9019147617600538
 21
305.126080790914898
 31
0.0
  0
LINE
  5
B5AB
  8
0
 10
3624.9019147617600538
 20
305.126080790914898
 30
0.0
 11
3624.8848670191978272
 21
305.1238771008988806
 31
0.0
  0
LINE
  5
B5AC
  8
0
 10
3624.8848670191978272
 20
305.1238771008988806
 30
0.0
 11
3624.8678192822621895
 21
305.1147135863188282
 31
0.0
  0
LINE
  5
B5AD
  8
0
 10
3624.8678192822621895
 20
305.1147135863188282
 30
0.0
 11
3624.8678192876691355
 21
305.1077038008198201
 31
0.0
  0
LINE
  5
B5AE
  8
0
 10
3624.8678192876691355
 20
305.1077038008198201
 30
0.0
 11
3624.8848670301849779
 21
305.1098377448894894
 31
0.0
  0
LINE
  5
B5AF
  8
0
 10
3624.8848670301849779
 20
305.1098377448894894
 30
0.0
 11
3624.9019147673120642
 21
305.1190508989568002
 31
0.0
  0
LINE
  5
B5B0
  8
0
 10
3624.8848670190941448
 20
305.1238771008347044
 30
0.0
 11
3624.884867030209989
 21
305.1098377449055192
 31
0.0
  0
LINE
  5
B5B1
  8
0
 10
3624.9297535816749587
 20
305.1647031989904235
 30
0.0
 11
3624.9295067971979734
 21
305.17470308808862
 31
0.0
  0
LINE
  5
B5B2
  8
0
 10
3624.9295067971979734
 20
305.17470308808862
 30
0.0
 11
3624.9127058318381387
 21
305.172915858980673
 31
0.0
  0
LINE
  5
B5B3
  8
0
 10
3624.9127058318381387
 20
305.172915858980673
 30
0.0
 11
3624.8956580960721112
 21
305.1611861383281052
 31
0.0
  0
LINE
  5
B5B4
  8
0
 10
3624.8956580960721112
 20
305.1611861383281052
 30
0.0
 11
3624.8956581037559772
 21
305.1512579582039848
 31
0.0
  0
LINE
  5
B5B5
  8
0
 10
3624.8956581037559772
 20
305.1512579582039848
 30
0.0
 11
3624.912705846587869
 21
305.1529580298187057
 31
0.0
  0
LINE
  5
B5B6
  8
0
 10
3624.912705846587869
 20
305.1529580298187057
 30
0.0
 11
3624.9297535816749587
 21
305.1647031989904235
 31
0.0
  0
LINE
  5
B5B7
  8
0
 10
3624.912705831734911
 20
305.1729158589164967
 30
0.0
 11
3624.9127058466137896
 21
305.1529580298346218
 31
0.0
  0
LINE
  5
B5B8
  8
0
 10
3624.9575924314108306
 20
305.1644658440363855
 30
0.0
 11
3624.9575924245168608
 21
305.1735575540686796
 31
0.0
  0
LINE
  5
B5B9
  8
0
 10
3624.9575924245168608
 20
305.1735575540686796
 30
0.0
 11
3624.9405446828059212
 21
305.1703074634619952
 31
0.0
  0
LINE
  5
B5BA
  8
0
 10
3624.9405446828059212
 20
305.1703074634619952
 30
0.0
 11
3624.9234969480407926
 21
305.1581180325828768
 31
0.0
  0
LINE
  5
B5BB
  8
0
 10
3624.9234969480407926
 20
305.1581180325828768
 30
0.0
 11
3624.9234969549929701
 21
305.1491172027373864
 31
0.0
  0
LINE
  5
B5BC
  8
0
 10
3624.9234969549929701
 20
305.1491172027373864
 30
0.0
 11
3624.9405446967839453
 21
305.1522169363686885
 31
0.0
  0
LINE
  5
B5BD
  8
0
 10
3624.9405446967839453
 20
305.1522169363686885
 30
0.0
 11
3624.9575924314108306
 21
305.1644658440363855
 31
0.0
  0
LINE
  5
B5BE
  8
0
 10
3624.9405446827031483
 20
305.1703074633977053
 30
0.0
 11
3624.9405446968098659
 21
305.1522169363847183
 31
0.0
  0
LINE
  5
B5BF
  8
0
 10
3624.8740759170859747
 20
305.1197317419079127
 30
0.0
 11
3624.8740759109059582
 21
305.127681900192897
 31
0.0
  0
LINE
  5
B5C0
  8
0
 10
3624.8740759109059582
 20
305.127681900192897
 30
0.0
 11
3624.8570281675201841
 21
305.1268134984691187
 31
0.0
  0
LINE
  5
B5C1
  8
0
 10
3624.8570281675201841
 20
305.1268134984691187
 30
0.0
 11
3624.8399804300847791
 21
305.1180503199393002
 31
0.0
  0
LINE
  5
B5C2
  8
0
 10
3624.8399804300847791
 20
305.1180503199393002
 30
0.0
 11
3624.8399804361552015
 21
305.1101333724217284
 31
0.0
  0
LINE
  5
B5C3
  8
0
 10
3624.8399804361552015
 20
305.1101333724217284
 30
0.0
 11
3624.8570281796678501
 21
305.110946823110794
 31
0.0
  0
LINE
  5
B5C4
  8
0
 10
3624.8570281796678501
 20
305.110946823110794
 30
0.0
 11
3624.8740759170859747
 21
305.1197317419079127
 31
0.0
  0
LINE
  5
B5C5
  8
0
 10
3624.8570281674169564
 20
305.1268134984048856
 30
0.0
 11
3624.8570281796942254
 21
305.1109468231268238
 31
0.0
  0
LINE
  5
B5C6
  8
0
 10
3624.8740759317070115
 20
305.1008551958254884
 30
0.0
 11
3624.8740759270021954
 21
305.1069081445061784
 31
0.0
  0
LINE
  5
B5C7
  8
0
 10
3624.8740759270021954
 20
305.1069081445061784
 30
0.0
 11
3624.8570281841521137
 21
305.1051442406048864
 31
0.0
  0
LINE
  5
B5C8
  8
0
 10
3624.8570281841521137
 20
305.1051442406048864
 30
0.0
 11
3624.8399804460568703
 21
305.0973398379774153
 31
0.0
  0
LINE
  5
B5C9
  8
0
 10
3624.8399804460568703
 20
305.0973398379774153
 30
0.0
 11
3624.8399804507771478
 21
305.0912568263393041
 31
0.0
  0
LINE
  5
B5CA
  8
0
 10
3624.8399804507771478
 20
305.0912568263393041
 30
0.0
 11
3624.8569199003918584
 21
305.0929650972219065
 31
0.0
  0
LINE
  5
B5CB
  8
0
 10
3624.8569199003918584
 20
305.0929650972219065
 30
0.0
 11
3624.8740759317070115
 21
305.1008551958254884
 31
0.0
  0
LINE
  5
B5CC
  8
0
 10
3624.857028184048886
 20
305.1051442405407101
 30
0.0
 11
3624.8569199004168695
 21
305.0929650972378795
 31
0.0
  0
LINE
  5
B5CD
  8
0
 10
3624.846237081334948
 20
305.10164677250458
 30
0.0
 11
3624.8462370759648365
 21
305.1086461711400943
 31
0.0
  0
LINE
  5
B5CE
  8
0
 10
3624.8462370759648365
 20
305.1086461711400943
 30
0.0
 11
3624.829179297025803
 21
305.1081815816322091
 31
0.0
  0
LINE
  5
B5CF
  8
0
 10
3624.829179297025803
 20
305.1081815816322091
 30
0.0
 11
3624.8121415944128785
 21
305.0998575673780238
 31
0.0
  0
LINE
  5
B5D0
  8
0
 10
3624.8121415944128785
 20
305.0998575673780238
 30
0.0
 11
3624.8121415991317917
 21
305.0937745557399126
 31
0.0
  0
LINE
  5
B5D1
  8
0
 10
3624.8121415991317917
 20
305.0937745557399126
 30
0.0
 11
3624.8295532442862168
 21
305.0943525235418861
 31
0.0
  0
LINE
  5
B5D2
  8
0
 10
3624.8295532442862168
 20
305.0943525235418861
 30
0.0
 11
3624.846237081334948
 21
305.10164677250458
 31
0.0
  0
LINE
  5
B5D3
  8
0
 10
3624.8291792969230301
 20
305.1081815815679761
 30
0.0
 11
3624.8295532443121374
 21
305.0943525235579159
 31
0.0
  0
LINE
  5
B5D4
  8
0
 10
3624.8183982436221413
 20
305.086276882371692
 30
0.0
 11
3624.8183982388950426
 21
305.0923598940830743
 31
0.0
  0
LINE
  5
B5D5
  8
0
 10
3624.8183982388950426
 20
305.0923598940830743
 30
0.0
 11
3624.8013357132258534
 21
305.0922720616285915
 31
0.0
  0
LINE
  5
B5D6
  8
0
 10
3624.8013357132258534
 20
305.0922720616285915
 30
0.0
 11
3624.7843027553622051
 21
305.0861300459835093
 31
0.0
  0
LINE
  5
B5D7
  8
0
 10
3624.7843027553622051
 20
305.0861300459835093
 30
0.0
 11
3624.7843027600820278
 21
305.0800470343453981
 31
0.0
  0
LINE
  5
B5D8
  8
0
 10
3624.7843027600820278
 20
305.0800470343453981
 30
0.0
 11
3624.8013505043591067
 21
305.0801116519169227
 31
0.0
  0
LINE
  5
B5D9
  8
0
 10
3624.8013505043591067
 20
305.0801116519169227
 30
0.0
 11
3624.8183982436221413
 21
305.086276882371692
 31
0.0
  0
LINE
  5
B5DA
  8
0
 10
3624.8013357131230805
 20
305.0922720615644153
 30
0.0
 11
3624.8013505043841178
 21
305.080111651932782
 31
0.0
  0
LINE
  5
B5DB
  8
0
 10
3624.8462370939319044
 20
305.085357804171224
 30
0.0
 11
3624.8462370899419511
 21
305.0905244288712197
 31
0.0
  0
LINE
  5
B5DC
  8
0
 10
3624.8462370899419511
 20
305.0905244288712197
 30
0.0
 11
3624.8291697282161294
 21
305.0891534477844971
 31
0.0
  0
LINE
  5
B5DD
  8
0
 10
3624.8291697282161294
 20
305.0891534477844971
 30
0.0
 11
3624.8121416077219692
 21
305.0826522121399194
 31
0.0
  0
LINE
  5
B5DE
  8
0
 10
3624.8121416077219692
 20
305.0826522121399194
 30
0.0
 11
3624.8121416117160152
 21
305.0774724310209081
 31
0.0
  0
LINE
  5
B5DF
  8
0
 10
3624.8121416117160152
 20
305.0774724310209081
 30
0.0
 11
3624.8292114434198083
 21
305.0788228207982797
 31
0.0
  0
LINE
  5
B5E0
  8
0
 10
3624.8292114434198083
 20
305.0788228207982797
 30
0.0
 11
3624.8462370939319044
 21
305.085357804171224
 31
0.0
  0
LINE
  5
B5E1
  8
0
 10
3624.8291697281119923
 20
305.0891534477202072
 30
0.0
 11
3624.8292114434461837
 21
305.0788228208141959
 31
0.0
  0
LINE
  5
B5E2
  8
0
 10
3624.8740759421448274
 20
305.0871881778317061
 30
0.0
 11
3624.8739377721631172
 21
305.0913792477217044
 31
0.0
  0
LINE
  5
B5E3
  8
0
 10
3624.8739377721631172
 20
305.0913792477217044
 30
0.0
 11
3624.857010769819226
 21
305.0886947386106272
 31
0.0
  0
LINE
  5
B5E4
  8
0
 10
3624.857010769819226
 20
305.0886947386106272
 30
0.0
 11
3624.8399804580758428
 21
305.0818056736483754
 31
0.0
  0
LINE
  5
B5E5
  8
0
 10
3624.8399804580758428
 20
305.0818056736483754
 30
0.0
 11
3624.8399804612768094
 21
305.0775565975649783
 31
0.0
  0
LINE
  5
B5E6
  8
0
 10
3624.8399804612768094
 20
305.0775565975649783
 30
0.0
 11
3624.857028203362006
 21
305.0802367643889852
 31
0.0
  0
LINE
  5
B5E7
  8
0
 10
3624.857028203362006
 20
305.0802367643889852
 30
0.0
 11
3624.8740759421448274
 21
305.0871881778317061
 31
0.0
  0
LINE
  5
B5E8
  8
0
 10
3624.8570107697159983
 20
305.0886947385463941
 30
0.0
 11
3624.8570282033879266
 21
305.0802367644049014
 31
0.0
  0
LINE
  5
B5E9
  8
0
 10
3624.8462370647921489
 20
305.123084242767618
 30
0.0
 11
3624.8462370579181879
 21
305.1319918341658877
 31
0.0
  0
LINE
  5
B5EA
  8
0
 10
3624.8462370579181879
 20
305.1319918341658877
 30
0.0
 11
3624.8291893135951796
 21
305.1324142259662153
 31
0.0
  0
LINE
  5
B5EB
  8
0
 10
3624.8291893135951796
 20
305.1324142259662153
 30
0.0
 11
3624.8121415757768773
 21
305.1240171671399253
 31
0.0
  0
LINE
  5
B5EC
  8
0
 10
3624.8121415757768773
 20
305.1240171671399253
 30
0.0
 11
3624.8121415825758049
 21
305.1151988696173021
 31
0.0
  0
LINE
  5
B5ED
  8
0
 10
3624.8121415825758049
 20
305.1151988696173021
 30
0.0
 11
3624.8291893271180015
 21
305.1147374107328005
 31
0.0
  0
LINE
  5
B5EE
  8
0
 10
3624.8291893271180015
 20
305.1147374107328005
 30
0.0
 11
3624.8462370647921489
 21
305.123084242767618
 31
0.0
  0
LINE
  5
B5EF
  8
0
 10
3624.8291893134919519
 20
305.1324142259019823
 30
0.0
 11
3624.8291893271430126
 21
305.1147374107487167
 31
0.0
  0
LINE
  5
B5F0
  8
0
 10
3624.8183982290561289
 20
305.1051381989718152
 30
0.0
 11
3624.8183982229261346
 21
305.1130383268388755
 31
0.0
  0
LINE
  5
B5F1
  8
0
 10
3624.8183982229261346
 20
305.1130383268388755
 30
0.0
 11
3624.8013308595341186
 21
305.1138333780785956
 31
0.0
  0
LINE
  5
B5F2
  8
0
 10
3624.8013308595341186
 20
305.1138333780785956
 30
0.0
 11
3624.7843027394969795
 21
305.1067692042404929
 31
0.0
  0
LINE
  5
B5F3
  8
0
 10
3624.7843027394969795
 20
305.1067692042404929
 30
0.0
 11
3624.78430274555285
 21
305.0988896861400121
 31
0.0
  0
LINE
  5
B5F4
  8
0
 10
3624.78430274555285
 20
305.0988896861400121
 30
0.0
 11
3624.8013079321608529
 21
305.0980636808315012
 31
0.0
  0
LINE
  5
B5F5
  8
0
 10
3624.8013079321608529
 20
305.0980636808315012
 30
0.0
 11
3624.8183982290561289
 21
305.1051381989718152
 31
0.0
  0
LINE
  5
B5F6
  8
0
 10
3624.8013308594299815
 20
305.1138333780144194
 30
0.0
 11
3624.8013079321867735
 21
305.0980636808474742
 31
0.0
  0
LINE
  5
B5F7
  8
0
 10
3624.8183982542282138
 20
305.0725446045797185
 30
0.0
 11
3624.8183982509908674
 21
305.0767441674407792
 31
0.0
  0
LINE
  5
B5F8
  8
0
 10
3624.8183982509908674
 20
305.0767441674407792
 30
0.0
 11
3624.8013505079770766
 21
305.0758177316312754
 31
0.0
  0
LINE
  5
B5F9
  8
0
 10
3624.8013505079770766
 20
305.0758177316312754
 30
0.0
 11
3624.7845417193411777
 21
305.070631214349703
 31
0.0
  0
LINE
  5
B5FA
  8
0
 10
3624.7845417193411777
 20
305.070631214349703
 30
0.0
 11
3624.7843027707690453
 21
305.0662754819405222
 31
0.0
  0
LINE
  5
B5FB
  8
0
 10
3624.7843027707690453
 20
305.0662754819405222
 30
0.0
 11
3624.8013505140797861
 21
305.0672651690902057
 31
0.0
  0
LINE
  5
B5FC
  8
0
 10
3624.8013505140797861
 20
305.0672651690902057
 30
0.0
 11
3624.8183982542282138
 21
305.0725446045797185
 31
0.0
  0
LINE
  5
B5FD
  8
0
 10
3624.801350507873849
 20
305.0758177315670991
 30
0.0
 11
3624.8013505141047972
 21
305.0672651691061219
 31
0.0
  0
LINE
  5
B5FE
  8
0
 10
3624.8462371025580069
 20
305.0742034627612043
 30
0.0
 11
3624.8462370999232007
 21
305.0775998671712159
 31
0.0
  0
LINE
  5
B5FF
  8
0
 10
3624.8462370999232007
 20
305.0775998671712159
 30
0.0
 11
3624.8291893576101756
 21
305.0752873682055224
 31
0.0
  0
LINE
  5
B600
  8
0
 10
3624.8291893576101756
 20
305.0752873682055224
 30
0.0
 11
3624.8121416177509673
 21
305.0696658154399188
 31
0.0
  0
LINE
  5
B601
  8
0
 10
3624.8121416177509673
 20
305.0696658154399188
 30
0.0
 11
3624.8121416203412082
 21
305.0663180896108884
 31
0.0
  0
LINE
  5
B602
  8
0
 10
3624.8121416203412082
 20
305.0663180896108884
 30
0.0
 11
3624.8290640585400979
 21
305.0686125544178822
 31
0.0
  0
LINE
  5
B603
  8
0
 10
3624.8290640585400979
 20
305.0686125544178822
 30
0.0
 11
3624.8462371025580069
 21
305.0742034627612043
 31
0.0
  0
LINE
  5
B604
  8
0
 10
3624.829189357506948
 20
305.0752873681412893
 30
0.0
 11
3624.829064058565109
 21
305.0686125544337983
 31
0.0
  0
LINE
  5
B605
  8
0
 10
3624.9019147881599565
 20
305.0919345359978934
 30
0.0
 11
3624.9019147857720782
 21
305.0951473774700275
 31
0.0
  0
LINE
  5
B606
  8
0
 10
3624.9019147857720782
 20
305.0951473774700275
 30
0.0
 11
3624.8848518475820129
 21
305.0910165207532145
 31
0.0
  0
LINE
  5
B607
  8
0
 10
3624.8848518475820129
 20
305.0910165207532145
 30
0.0
 11
3624.867819306209185
 21
305.0837057256387084
 31
0.0
  0
LINE
  5
B608
  8
0
 10
3624.867819306209185
 20
305.0837057256387084
 30
0.0
 11
3624.8678193087371255
 21
305.0804307045386849
 31
0.0
  0
LINE
  5
B609
  8
0
 10
3624.8678193087371255
 20
305.0804307045386849
 30
0.0
 11
3624.8848780103248828
 21
305.0845374210621799
 31
0.0
  0
LINE
  5
B60A
  8
0
 10
3624.8848780103248828
 20
305.0845374210621799
 30
0.0
 11
3624.9019147881599565
 21
305.0919345359978934
 31
0.0
  0
LINE
  5
B60B
  8
0
 10
3624.8848518474787852
 20
305.0910165206889246
 30
0.0
 11
3624.8848780103508034
 21
305.0845374210782097
 31
0.0
  0
LINE
  5
B60C
  8
0
 10
3624.8740759484257978
 20
305.0791207092992749
 30
0.0
 11
3624.8740759468278156
 21
305.0812208357705799
 31
0.0
  0
LINE
  5
B60D
  8
0
 10
3624.8740759468278156
 20
305.0812208357705799
 30
0.0
 11
3624.8570219454668404
 21
305.0775073656790255
 31
0.0
  0
LINE
  5
B60E
  8
0
 10
3624.8570219454668404
 20
305.0775073656790255
 30
0.0
 11
3624.8399804658101857
 21
305.0717251002371881
 31
0.0
  0
LINE
  5
B60F
  8
0
 10
3624.8399804658101857
 20
305.0717251002371881
 30
0.0
 11
3624.8399804678069813
 21
305.0691352096777109
 31
0.0
  0
LINE
  5
B610
  8
0
 10
3624.8399804678069813
 20
305.0691352096777109
 30
0.0
 11
3624.8570282090618093
 21
305.0728560109890282
 31
0.0
  0
LINE
  5
B611
  8
0
 10
3624.8570282090618093
 20
305.0728560109890282
 30
0.0
 11
3624.8740759484257978
 21
305.0791207092992749
 31
0.0
  0
LINE
  5
B612
  8
0
 10
3624.8570219453640675
 20
305.0775073656147924
 30
0.0
 11
3624.8570282090868204
 21
305.0728560110048875
 31
0.0
  0
LINE
  5
B613
  8
0
 10
3624.929753631703079
 20
305.0998302992887261
 30
0.0
 11
3624.9297536300550746
 21
305.1019647894814852
 31
0.0
  0
LINE
  5
B614
  8
0
 10
3624.9297536300550746
 20
305.1019647894814852
 30
0.0
 11
3624.9127058903432044
 21
305.0963026321256848
 31
0.0
  0
LINE
  5
B615
  8
0
 10
3624.9127058903432044
 20
305.0963026321256848
 30
0.0
 11
3624.8956581521388216
 21
305.0885195488236263
 31
0.0
  0
LINE
  5
B616
  8
0
 10
3624.8956581521388216
 20
305.0885195488236263
 30
0.0
 11
3624.8956581538600403
 21
305.086281705467627
 31
0.0
  0
LINE
  5
B617
  8
0
 10
3624.8956581538600403
 20
305.086281705467627
 30
0.0
 11
3624.9127106284731781
 21
305.0919305060414786
 31
0.0
  0
LINE
  5
B618
  8
0
 10
3624.9127106284731781
 20
305.0919305060414786
 30
0.0
 11
3624.929753631703079
 21
305.0998302992887261
 31
0.0
  0
LINE
  5
B619
  8
0
 10
3624.9127058902399767
 20
305.0963026320615086
 30
0.0
 11
3624.9127106284981892
 21
305.0919305060573947
 31
0.0
  0
LINE
  5
B61A
  8
0
 10
3624.8462371068458197
 20
305.0686356774712067
 30
0.0
 11
3624.8462371057930795
 21
305.0699990051710984
 31
0.0
  0
LINE
  5
B61B
  8
0
 10
3624.8462371057930795
 20
305.0699990051710984
 30
0.0
 11
3624.8291862342530294
 21
305.0665339965369185
 31
0.0
  0
LINE
  5
B61C
  8
0
 10
3624.8291862342530294
 20
305.0665339965369185
 30
0.0
 11
3624.8121416237290759
 21
305.0619226478212909
 31
0.0
  0
LINE
  5
B61D
  8
0
 10
3624.8121416237290759
 20
305.0619226478212909
 30
0.0
 11
3624.8121416248350215
 21
305.0604875179046758
 31
0.0
  0
LINE
  5
B61E
  8
0
 10
3624.8121416248350215
 20
305.0604875179046758
 30
0.0
 11
3624.8291893660898495
 21
305.064208319215993
 31
0.0
  0
LINE
  5
B61F
  8
0
 10
3624.8291893660898495
 20
305.064208319215993
 30
0.0
 11
3624.8462371068458197
 21
305.0686356774712067
 31
0.0
  0
LINE
  5
B620
  8
0
 10
3624.8291862341498017
 20
305.0665339964725717
 30
0.0
 11
3624.8291893661148606
 21
305.0642083192319092
 31
0.0
  0
LINE
  5
B621
  8
0
 10
3624.8183982607461076
 20
305.0640410672157827
 30
0.0
 11
3624.8183982589162042
 21
305.0664373601763941
 31
0.0
  0
LINE
  5
B622
  8
0
 10
3624.8183982589162042
 20
305.0664373601763941
 30
0.0
 11
3624.8013463578768096
 21
305.0644818836408945
 31
0.0
  0
LINE
  5
B623
  8
0
 10
3624.8013463578768096
 20
305.0644818836408945
 30
0.0
 11
3624.7843366486267769
 21
305.0601186970757226
 31
0.0
  0
LINE
  5
B624
  8
0
 10
3624.7843366486267769
 20
305.0601186970757226
 30
0.0
 11
3624.7843027773760696
 21
305.0576713452417152
 31
0.0
  0
LINE
  5
B625
  8
0
 10
3624.7843027773760696
 20
305.0576713452417152
 30
0.0
 11
3624.8013528677838622
 21
305.0596477404703251
 31
0.0
  0
LINE
  5
B626
  8
0
 10
3624.8013528677838622
 20
305.0596477404703251
 30
0.0
 11
3624.8183982607461076
 21
305.0640410672157827
 31
0.0
  0
LINE
  5
B627
  8
0
 10
3624.8013463577740367
 20
305.0644818835766046
 30
0.0
 11
3624.8013528678097828
 21
305.0596477404861844
 31
0.0
  0
LINE
  5
B628
  8
0
 10
3624.7905593458808653
 20
305.1485184510393083
 30
0.0
 11
3624.7905593541149756
 21
305.1378226899723245
 31
0.0
  0
LINE
  5
B629
  8
0
 10
3624.7905593541149756
 20
305.1378226899723245
 30
0.0
 11
3624.7735116159087738
 21
305.1301181917585836
 31
0.0
  0
LINE
  5
B62A
  8
0
 10
3624.7735116159087738
 20
305.1301181917585836
 30
0.0
 11
3624.7726722322640853
 21
305.1302484753584849
 31
0.0
  0
LINE
  5
B62B
  8
0
 10
3624.7726722322640853
 20
305.1302484753584849
 30
0.0
 11
3624.7726722161828548
 21
305.1510715175584778
 31
0.0
  0
LINE
  5
B62C
  8
0
 10
3624.7726722161828548
 20
305.1510715175584778
 30
0.0
 11
3624.7735115994141779
 21
305.1514690811774813
 31
0.0
  0
LINE
  5
B62D
  8
0
 10
3624.7735115994141779
 20
305.1514690811774813
 30
0.0
 11
3624.7905593458549447
 21
305.148518451043401
 31
0.0
  0
LINE
  5
B62E
  8
0
 10
3624.7735115994760235
 20
305.1514690811657147
 30
0.0
 11
3624.7735116159087738
 21
305.1301181917585836
 31
0.0
  0
LINE
  5
B62F
  8
0
 10
3624.7905593678588048
 20
305.1200232369308196
 30
0.0
 11
3624.7905593746559134
 21
305.1112248382218013
 31
0.0
  0
LINE
  5
B630
  8
0
 10
3624.7905593746559134
 20
305.1112248382218013
 30
0.0
 11
3624.7735116357312108
 21
305.1044517312586208
 31
0.0
  0
LINE
  5
B631
  8
0
 10
3624.7735116357312108
 20
305.1044517312586208
 30
0.0
 11
3624.7726722520860676
 21
305.1045820148585221
 31
0.0
  0
LINE
  5
B632
  8
0
 10
3624.7726722520860676
 20
305.1045820148585221
 30
0.0
 11
3624.7726722388501912
 21
305.1217217990584913
 31
0.0
  0
LINE
  5
B633
  8
0
 10
3624.7726722388501912
 20
305.1217217990584913
 30
0.0
 11
3624.7735116221119824
 21
305.1220692657906852
 31
0.0
  0
LINE
  5
B634
  8
0
 10
3624.7735116221119824
 20
305.1220692657906852
 30
0.0
 11
3624.7905593678328842
 21
305.1200232369349123
 31
0.0
  0
LINE
  5
B635
  8
0
 10
3624.7735116221729186
 20
305.1220692657789186
 30
0.0
 11
3624.7735116357312108
 21
305.1044517312586208
 31
0.0
  0
LINE
  5
B636
  8
0
 10
3624.7905593858549764
 20
305.0968106248089953
 30
0.0
 11
3624.7905593911777942
 21
305.0898308322722983
 31
0.0
  0
LINE
  5
B637
  8
0
 10
3624.7905593911777942
 20
305.0898308322722983
 30
0.0
 11
3624.7735116515777918
 21
305.0839328211587258
 31
0.0
  0
LINE
  5
B638
  8
0
 10
3624.7735116515777918
 20
305.0839328211587258
 30
0.0
 11
3624.7726722679321938
 21
305.0840631047585134
 31
0.0
  0
LINE
  5
B639
  8
0
 10
3624.7726722679321938
 20
305.0840631047585134
 30
0.0
 11
3624.7726722518509632
 21
305.1048861469585063
 31
0.0
  0
LINE
  5
B63A
  8
0
 10
3624.7726722574229825
 20
305.0976712930585109
 30
0.0
 11
3624.7735116407097848
 21
305.0979722747118217
 31
0.0
  0
LINE
  5
B63B
  8
0
 10
3624.7735116407097848
 20
305.0979722747118217
 30
0.0
 11
3624.7905593858290558
 21
305.096810624813088
 31
0.0
  0
LINE
  5
B63C
  8
0
 10
3624.7735116407711757
 20
305.0979722746998846
 30
0.0
 11
3624.7735116515777918
 21
305.0839328211587258
 31
0.0
  0
LINE
  5
B63D
  8
0
 10
3624.790559399787071
 20
305.0787084887164156
 30
0.0
 11
3624.7905594037729315
 21
305.0735222578722983
 31
0.0
  0
LINE
  5
B63E
  8
0
 10
3624.7905594037729315
 20
305.0735222578722983
 30
0.0
 11
3624.7735116634180486
 21
305.0686008959805804
 31
0.0
  0
LINE
  5
B63F
  8
0
 10
3624.7735116634180486
 20
305.0686008959805804
 30
0.0
 11
3624.7726722798738592
 21
305.0685994249585065
 31
0.0
  0
LINE
  5
B640
  8
0
 10
3624.7726722798738592
 20
305.0685994249585065
 30
0.0
 11
3624.7726722718339261
 21
305.0790109460584745
 31
0.0
  0
LINE
  5
B641
  8
0
 10
3624.7726722718339261
 20
305.0790109460584745
 30
0.0
 11
3624.77351165518985
 21
305.0792104633849817
 31
0.0
  0
LINE
  5
B642
  8
0
 10
3624.77351165518985
 20
305.0792104633849817
 30
0.0
 11
3624.7905593997611504
 21
305.0787084887203946
 31
0.0
  0
LINE
  5
B643
  8
0
 10
3624.7735116552521504
 20
305.0792104633732151
 30
0.0
 11
3624.7735116634180486
 21
305.0686008959805804
 31
0.0
  0
LINE
  5
B644
  8
0
 10
3624.7905594098760957
 20
305.065691784006674
 30
0.0
 11
3624.7905594124868003
 21
305.0623241592745103
 31
0.0
  0
LINE
  5
B645
  8
0
 10
3624.7905594124868003
 20
305.0623241592745103
 30
0.0
 11
3624.7735116715198274
 21
305.0581089367586856
 31
0.0
  0
LINE
  5
B646
  8
0
 10
3624.7735116715198274
 20
305.0581089367586856
 30
0.0
 11
3624.7726722878751389
 21
305.0582392203584732
 31
0.0
  0
LINE
  5
B647
  8
0
 10
3624.7726722878751389
 20
305.0582392203584732
 30
0.0
 11
3624.7726722827837875
 21
305.064832461758499
 31
0.0
  0
LINE
  5
B648
  8
0
 10
3624.7726722827837875
 20
305.064832461758499
 30
0.0
 11
3624.773511666000104
 21
305.0650455481787162
 31
0.0
  0
LINE
  5
B649
  8
0
 10
3624.773511666000104
 20
305.0650455481787162
 30
0.0
 11
3624.7905594098501751
 21
305.0656917840107099
 31
0.0
  0
LINE
  5
B64A
  8
0
 10
3624.7735116660619497
 20
305.0650455481667791
 30
0.0
 11
3624.7735116715198274
 21
305.0581089367586856
 31
0.0
  0
LINE
  5
B64B
  8
0
 10
3624.7726722895367857
 20
305.0560882116585049
 30
0.0
 11
3624.7735116729941183
 21
305.0562574387337236
 31
0.0
  0
LINE
  5
B64C
  8
0
 10
3624.7735116729941183
 20
305.0562574387337236
 30
0.0
 11
3624.7905594158542044
 21
305.0578789251724174
 31
0.0
  0
LINE
  5
B64D
  8
0
 10
3624.7905594158542044
 20
305.0578789251724174
 30
0.0
 11
3624.7905594169901633
 21
305.0564086628722862
 31
0.0
  0
LINE
  5
B64E
  8
0
 10
3624.7905594169901633
 20
305.0564086628722862
 30
0.0
 11
3624.7735116768458283
 21
305.0532762815606134
 31
0.0
  0
LINE
  5
B64F
  8
0
 10
3624.7735116768458283
 20
305.0532762815606134
 30
0.0
 11
3624.7726722917841471
 21
305.053178228383274
 31
0.0
  0
LINE
  5
B650
  8
0
 10
3624.7726722917841471
 20
305.053178228383274
 30
0.0
 11
3624.7726722895367857
 21
305.0560882116585049
 31
0.0
  0
LINE
  5
B651
  8
0
 10
3624.7735116752928661
 20
305.0532762813776912
 30
0.0
 11
3624.7735679851439272
 21
305.05626279483198
 31
0.0
  0
LINE
  5
B652
  8
0
 10
3624.829266518894201
 20
305.1974445103859921
 30
0.0
 11
3624.8121415272330523
 21
305.1868747416957035
 31
0.0
  0
LINE
  5
B653
  8
0
 10
3624.8462370513238966
 20
305.195289571152216
 30
0.0
 11
3624.829266518894201
 21
305.1974445103859921
 31
0.0
  0
LINE
  5
B654
  8
0
 10
3624.8462370513238966
 20
305.1822434191362277
 30
0.0
 11
3624.8462370513238966
 21
305.195289571152216
 31
0.0
  0
LINE
  5
B655
  8
0
 10
3624.8572050351717735
 20
305.1865051031758753
 30
0.0
 11
3624.8740758662638655
 21
305.1855740766403073
 31
0.0
  0
LINE
  5
B656
  8
0
 10
3624.9314134381179429
 20
305.1962909106708821
 30
0.0
 11
3624.9127170295842006
 21
305.1817104717217717
 31
0.0
  0
LINE
  5
B657
  8
0
 10
3624.9127170295842006
 20
305.1817104717217717
 30
0.0
 11
3624.895669285690019
 21
305.1813535256465002
 31
0.0
  0
LINE
  5
B658
  8
0
 10
3624.895669285690019
 20
305.1813535256465002
 30
0.0
 11
3624.8956692772731003
 21
305.1922130418635106
 31
0.0
  0
LINE
  5
B659
  8
0
 10
3624.8956692772731003
 20
305.1922130418635106
 30
0.0
 11
3624.9025560910049535
 21
305.1967881206957145
 31
0.0
  0
LINE
  5
B65A
  8
0
 10
3624.9127170162428229
 20
305.196609012107217
 30
0.0
 11
3624.9127170238689359
 21
305.1817104716021731
 31
0.0
  0
LINE
  5
B65B
  8
0
 10
3624.8974073067488462
 20
305.1968805542661016
 30
0.0
 11
3624.8849715659471258
 21
305.1886355284383967
 31
0.0
  0
LINE
  5
B65C
  8
0
 10
3624.8849715659471258
 20
305.1886355284383967
 30
0.0
 11
3624.8679238220538537
 21
305.1882785823631252
 31
0.0
  0
LINE
  5
B65D
  8
0
 10
3624.8679238220538537
 20
305.1882785823631252
 30
0.0
 11
3624.8679238149588855
 21
305.1974315541432929
 31
0.0
  0
LINE
  5
B65E
  8
0
 10
3624.8849715558958451
 20
305.1971084538300261
 30
0.0
 11
3624.8849715602332253
 21
305.1886355283187982
 31
0.0
  0
LINE
  5
B65F
  8
0
 10
3624.8013214530637924
 20
305.1835038590982094
 30
0.0
 11
3624.8183982016239497
 21
305.1936917102872826
 31
0.0
  0
LINE
  5
B660
  8
0
 10
3624.8013214530637924
 20
305.1835038590982094
 30
0.0
 11
3624.7843027133239957
 21
305.1870951618373056
 31
0.0
  0
LINE
  5
B661
  8
0
 10
3624.7843027133239957
 20
305.1870951618373056
 30
0.0
 11
3624.7843027133239957
 21
305.1988647783832107
 31
0.0
  0
LINE
  5
B662
  8
0
 10
3624.8013504575242223
 20
305.1835211629265245
 30
0.0
 11
3624.8013504575242223
 21
305.1986368871610011
 31
0.0
  0
LINE
  5
B663
  8
0
 10
3624.8183982016239497
 20
305.1936917102872826
 30
0.0
 11
3624.8183982016239497
 21
305.198372106223303
 31
0.0
  0
LINE
  5
B664
  8
0
 10
3624.7735116078511055
 20
305.1866166347733156
 30
0.0
 11
3624.7726721890821864
 21
305.1861629374649283
 31
0.0
  0
LINE
  5
B665
  8
0
 10
3624.95759244992405
 20
305.1915275854124729
 30
0.0
 11
3624.940544676233003
 21
305.1786491577399829
 31
0.0
  0
LINE
  5
B666
  8
0
 10
3624.95759244992405
 20
305.1915275854124729
 30
0.0
 11
3624.95759244992405
 21
305.1958704614734188
 31
0.0
  0
LINE
  5
B667
  8
0
 10
3624.9234969254412135
 20
305.1874362164472245
 30
0.0
 11
3624.934773913591016
 21
305.1962353103602936
 31
0.0
  0
ARC
  5
B668
  8
0
 10
3624.0575638649361281
 20
328.7350582791958118
 30
0.0
 40
23.5420130777317596
 50
270.3856345490905824
 51
271.1577017785759267
  0
ARC
  5
B669
  8
0
 10
3624.216768611023781
 20
305.0815181348668261
 30
0.0
 40
0.1120628397620915
 50
90.3856345490905682
 51
104.3779027736389935
  0
ARC
  5
B66A
  8
0
 10
3624.5080453048872187
 20
306.046617560953905
 30
0.0
 40
0.9140564015270356
 50
249.5672791557834955
 51
259.8127072617841122
  0
ARC
  5
B66B
  8
0
 10
3624.3910386405032114
 20
305.1821540970890965
 30
0.0
 40
0.0553807985506581
 50
166.9014728515062984
 51
199.9446255737977935
  0
ARC
  5
B66C
  8
0
 10
3624.4339049660361525
 20
305.1977092630110064
 30
0.0
 40
0.1009821697090054
 50
199.9446255738008915
 51
233.3520942182294107
  0
ARC
  5
B66D
  8
0
 10
3624.5247614512509244
 20
305.3198341661124005
 30
0.0
 40
0.2531971258179675
 50
233.3520942182294107
 51
255.8799865278884909
  0
ARC
  5
B66E
  8
0
 10
3624.4472183774910263
 20
305.124038716459097
 30
0.0
 40
0.080402092225562
 50
116.9730433930264013
 51
146.6932451636166093
  0
ARC
  5
B66F
  8
0
 10
3624.406468087282974
 20
305.1508135316180983
 30
0.0
 40
0.0316427148823914
 50
146.6932451636166093
 51
208.6806045619090924
  0
ARC
  5
B670
  8
0
 10
3624.4746592051837979
 20
305.2037323669860029
 30
0.0
 40
0.1176647448037684
 50
215.3665792411281927
 51
251.4704801548654132
  0
ARC
  5
B671
  8
0
 10
3624.6082753907139704
 20
305.5286173868876745
 30
0.0
 40
0.4687566422199
 50
248.6038299182974924
 51
262.7544990686283199
  0
ARC
  5
B672
  8
0
 10
3624.7136237686900131
 20
305.7198891981414022
 30
0.0
 40
0.6765798966554306
 50
252.1200468438499911
 51
256.3231746369218058
  0
ARC
  5
B673
  8
0
 10
3624.6762769873030265
 20
305.6041228654430029
 30
0.0
 40
0.5549385144437559
 50
242.7626549031529919
 51
252.1200468438499911
  0
ARC
  5
B674
  8
0
 10
3624.4720436212751338
 20
305.2185298739050268
 30
0.0
 40
0.118737745946618
 50
222.9998289900553061
 51
245.2293721697232911
  0
ARC
  5
B675
  8
0
 10
3624.4167876167662143
 20
305.1656266232785129
 30
0.0
 40
0.0422581284595146
 50
191.835760453081889
 51
221.6347470700056022
  0
ARC
  5
B676
  8
0
 10
3624.4574328417179458
 20
305.0915012952036136
 30
0.0
 40
0.09721066960702
 50
123.3930982374544953
 51
129.5349762848767909
  0
LINE
  5
B677
  8
0
 10
3624.6073021113211325
 20
305.1861634334467794
 30
0.0
 11
3624.6073019430400564
 21
305.1613092591409782
 31
0.0
  0
LINE
  5
B678
  8
0
 10
3624.6073019430400564
 20
305.1613092591409782
 30
0.0
 11
3624.6064625582830558
 21
305.1611334776213198
 31
0.0
  0
LINE
  5
B679
  8
0
 10
3624.6064625582830558
 20
305.1611334776213198
 30
0.0
 11
3624.6064627307878254
 21
305.1866171165950163
 31
0.0
  0
LINE
  5
B67A
  8
0
 10
3624.6064625582498593
 20
305.1611334776144986
 30
0.0
 11
3624.5894148735160343
 21
305.1699043618500014
 31
0.0
  0
LINE
  5
B67B
  8
0
 10
3624.5894148735160343
 20
305.1699043618500014
 30
0.0
 11
3624.5894149597788783
 21
305.1826421146494113
 31
0.0
  0
LINE
  5
B67C
  8
0
 10
3624.5894149597788783
 20
305.1826421146494113
 30
0.0
 11
3624.6064626952597791
 21
305.1866171357871167
 31
0.0
  0
LINE
  5
B67D
  8
0
 10
3624.567832777440799
 20
305.1868754744323837
 30
0.0
 11
3624.5678326906959228
 21
305.1740637548768973
 31
0.0
  0
LINE
  5
B67E
  8
0
 10
3624.5678326906959228
 20
305.1740637548768973
 30
0.0
 11
3624.5507849313171391
 21
305.1718134094543871
 31
0.0
  0
LINE
  5
B67F
  8
0
 10
3624.5507849313171391
 20
305.1718134094543871
 30
0.0
 11
3624.5337372255708033
 21
305.182244356393312
 31
0.0
  0
LINE
  5
B680
  8
0
 10
3624.5507849313921724
 20
305.1718134094630273
 30
0.0
 11
3624.5507851043080336
 21
305.1973976623334011
 31
0.0
  0
LINE
  5
B681
  8
0
 10
3624.522769267286094
 20
305.1865061062238169
 30
0.0
 11
3624.5399938512709923
 21
305.1755779469090726
 31
0.0
  0
LINE
  5
B682
  8
0
 10
3624.5399938512709923
 20
305.1755779469090726
 30
0.0
 11
3624.5399937712918472
 21
305.1637688793665006
 31
0.0
  0
LINE
  5
B683
  8
0
 10
3624.5399937712918472
 20
305.1637688793665006
 30
0.0
 11
3624.5229460207560805
 21
305.1628160573450259
 31
0.0
  0
LINE
  5
B684
  8
0
 10
3624.5229460207560805
 20
305.1628160573450259
 30
0.0
 11
3624.5058983503909076
 21
305.1737275034760728
 31
0.0
  0
LINE
  5
B685
  8
0
 10
3624.5058983503909076
 20
305.1737275034760728
 30
0.0
 11
3624.505898430608795
 21
305.1855751808869854
 31
0.0
  0
LINE
  5
B686
  8
0
 10
3624.5229460225291405
 20
305.1628160574439903
 30
0.0
 11
3624.5229461821668338
 21
305.186393862351224
 31
0.0
  0
LINE
  5
B687
  8
0
 10
3624.4564773080478517
 20
305.1764263426928778
 30
0.0
 11
3624.4564773826041346
 21
305.1874376171434733
 31
0.0
  0
LINE
  5
B688
  8
0
 10
3624.4564773080910527
 20
305.1764263427340893
 30
0.0
 11
3624.439429579103944
 21
305.1786506606965759
 31
0.0
  0
LINE
  5
B689
  8
0
 10
3624.439429579103944
 20
305.1786506606965759
 30
0.0
 11
3624.4394296975378893
 21
305.1961424537381049
 31
0.0
  0
LINE
  5
B68A
  8
0
 10
3624.4780595350680414
 20
305.1787920131972101
 30
0.0
 11
3624.47805946073413
 21
305.167822163427104
 31
0.0
  0
LINE
  5
B68B
  8
0
 10
3624.47805946073413
 20
305.167822163427104
 30
0.0
 11
3624.4951071284058344
 21
305.1565192347816264
 31
0.0
  0
LINE
  5
B68C
  8
0
 10
3624.4951071284058344
 20
305.1565192347816264
 30
0.0
 11
3624.512154870158156
 21
305.156162186446295
 31
0.0
  0
LINE
  5
B68D
  8
0
 10
3624.512154870158156
 20
305.156162186446295
 30
0.0
 11
3624.5121549437149042
 21
305.1670217026630212
 31
0.0
  0
LINE
  5
B68E
  8
0
 10
3624.5121549437149042
 20
305.1670217026630212
 30
0.0
 11
3624.4951072761959949
 21
305.1783470326184897
 31
0.0
  0
LINE
  5
B68F
  8
0
 10
3624.4951072761959949
 20
305.1783470326184897
 30
0.0
 11
3624.4780595350680414
 21
305.1787920131972101
 31
0.0
  0
LINE
  5
B690
  8
0
 10
3624.4951072762260083
 20
305.1783470327230248
 30
0.0
 11
3624.4951071341210991
 21
305.1565192346619142
 31
0.0
  0
LINE
  5
B691
  8
0
 10
3624.3955534734850517
 20
305.1664736772686979
 30
0.0
 11
3624.4115905699068207
 21
305.1544309775292163
 31
0.0
  0
LINE
  5
B692
  8
0
 10
3624.4115905699068207
 20
305.1544309775292163
 30
0.0
 11
3624.4286382784289344
 21
305.1498471345240091
 31
0.0
  0
LINE
  5
B693
  8
0
 10
3624.4286382784289344
 20
305.1498471345240091
 30
0.0
 11
3624.4286383330190802
 21
305.1579097815239265
 31
0.0
  0
LINE
  5
B694
  8
0
 10
3624.4286383330190802
 20
305.1579097815239265
 30
0.0
 11
3624.411590675313164
 21
305.1706258643297929
 31
0.0
  0
LINE
  5
B695
  8
0
 10
3624.411590675313164
 20
305.1706258643297929
 30
0.0
 11
3624.4039300166991779
 21
305.1726638604691857
 31
0.0
  0
LINE
  5
B696
  8
0
 10
3624.411590675341813
 20
305.1706258644343279
 30
0.0
 11
3624.4115905699068207
 21
305.1544309775292163
 31
0.0
  0
LINE
  5
B697
  8
0
 10
3624.4223816388339401
 20
305.1497021623350747
 30
0.0
 11
3624.4223815908449069
 21
305.1426275727114898
 31
0.0
  0
LINE
  5
B698
  8
0
 10
3624.4223815908981123
 20
305.1426275726753943
 30
0.0
 11
3624.4395055260652043
 21
305.1314163610887249
 31
0.0
  0
LINE
  5
B699
  8
0
 10
3624.4395055260652043
 20
305.1314163610887249
 30
0.0
 11
3624.4564769762591823
 21
305.1274166721673851
 31
0.0
  0
LINE
  5
B69A
  8
0
 10
3624.4564769762591823
 20
305.1274166721673851
 30
0.0
 11
3624.456477023980824
 21
305.1344619536257028
 31
0.0
  0
LINE
  5
B69B
  8
0
 10
3624.456477023980824
 20
305.1344619536257028
 30
0.0
 11
3624.4394293559548714
 21
305.1455553086818213
 31
0.0
  0
LINE
  5
B69C
  8
0
 10
3624.4394293559548714
 20
305.1455553086818213
 30
0.0
 11
3624.4223816388339401
 21
305.1497021623350747
 31
0.0
  0
LINE
  5
B69D
  8
0
 10
3624.4394293559857942
 20
305.1455553087862995
 30
0.0
 11
3624.4394292640649837
 21
305.1314360915877728
 31
0.0
  0
LINE
  5
B69E
  8
0
 10
3624.4502204240588981
 20
305.1401922276969003
 30
0.0
 11
3624.4502204783939305
 21
305.1482173587967281
 31
0.0
  0
LINE
  5
B69F
  8
0
 10
3624.4502204783939305
 20
305.1482173587967281
 30
0.0
 11
3624.4672682042269116
 21
305.1455234199690949
 31
0.0
  0
LINE
  5
B6A0
  8
0
 10
3624.4672682042269116
 20
305.1455234199690949
 30
0.0
 11
3624.4843158765938824
 21
305.1349098724458031
 31
0.0
  0
LINE
  5
B6A1
  8
0
 10
3624.4843158765938824
 20
305.1349098724458031
 30
0.0
 11
3624.4843158226722153
 21
305.1269339961942251
 31
0.0
  0
LINE
  5
B6A2
  8
0
 10
3624.4843158226722153
 20
305.1269339961942251
 30
0.0
 11
3624.4672680960229627
 21
305.1295233416714723
 31
0.0
  0
LINE
  5
B6A3
  8
0
 10
3624.4672680960229627
 20
305.1295233416714723
 30
0.0
 11
3624.4502204240588981
 21
305.1401922276969003
 31
0.0
  0
LINE
  5
B6A4
  8
0
 10
3624.4672682043301393
 20
305.1455234199049187
 30
0.0
 11
3624.4672680959970421
 21
305.1295233416873884
 31
0.0
  0
LINE
  5
B6A5
  8
0
 10
3624.5058981488741665
 20
305.1439603495181814
 30
0.0
 11
3624.5058982157570426
 21
305.1538346669004227
 31
0.0
  0
LINE
  5
B6A6
  8
0
 10
3624.5058982157570426
 20
305.1538346669004227
 30
0.0
 11
3624.5229248788918994
 21
305.1538440211587044
 31
0.0
  0
LINE
  5
B6A7
  8
0
 10
3624.5229248788918994
 20
305.1538440211587044
 30
0.0
 11
3624.5399936376179539
 21
305.1440405422331992
 31
0.0
  0
LINE
  5
B6A8
  8
0
 10
3624.5399936376179539
 20
305.1440405422331992
 30
0.0
 11
3624.5399935713298873
 21
305.1342356793671229
 31
0.0
  0
LINE
  5
B6A9
  8
0
 10
3624.5399935713298873
 20
305.1342356793671229
 30
0.0
 11
3624.52294582677996
 21
305.134166097800005
 31
0.0
  0
LINE
  5
B6AA
  8
0
 10
3624.52294582677996
 20
305.134166097800005
 30
0.0
 11
3624.5058981488741665
 21
305.1439603495181814
 31
0.0
  0
LINE
  5
B6AB
  8
0
 10
3624.5229248789951271
 20
305.1538440210945282
 30
0.0
 11
3624.5229458267540394
 21
305.1341660978159211
 31
0.0
  0
LINE
  5
B6AC
  8
0
 10
3624.4780592752108532
 20
305.1404213915890864
 30
0.0
 11
3624.4780593376549405
 21
305.149634884968691
 31
0.0
  0
LINE
  5
B6AD
  8
0
 10
3624.4780593376549405
 20
305.149634884968691
 30
0.0
 11
3624.4951070728097875
 21
305.1483177931348791
 31
0.0
  0
LINE
  5
B6AE
  8
0
 10
3624.4951070728097875
 20
305.1483177931348791
 30
0.0
 11
3624.5121547481030575
 21
305.1381308488564059
 31
0.0
  0
LINE
  5
B6AF
  8
0
 10
3624.5121547481030575
 20
305.1381308488564059
 30
0.0
 11
3624.5121546879049674
 21
305.1292398464565281
 31
0.0
  0
LINE
  5
B6B0
  8
0
 10
3624.5121546879049674
 20
305.1292398464565281
 30
0.0
 11
3624.4951069521121099
 21
305.1304745675791992
 31
0.0
  0
LINE
  5
B6B1
  8
0
 10
3624.4951069521121099
 20
305.1304745675791992
 30
0.0
 11
3624.4780592752108532
 21
305.1404213915890864
 31
0.0
  0
LINE
  5
B6B2
  8
0
 10
3624.4951070729130151
 20
305.1483177930707029
 30
0.0
 11
3624.4951069520870988
 21
305.1304745675951153
 31
0.0
  0
LINE
  5
B6B3
  8
0
 10
3624.5337370390861906
 20
305.1499437072453134
 30
0.0
 11
3624.5337371122282093
 21
305.160746402867801
 31
0.0
  0
LINE
  5
B6B4
  8
0
 10
3624.5337371122282093
 20
305.160746402867801
 30
0.0
 11
3624.5507848651709537
 21
305.1620553413662833
 31
0.0
  0
LINE
  5
B6B5
  8
0
 10
3624.5507848651709537
 20
305.1620553413662833
 30
0.0
 11
3624.5678325453582147
 21
305.1525980387773984
 31
0.0
  0
LINE
  5
B6B6
  8
0
 10
3624.5678325453582147
 20
305.1525980387773984
 30
0.0
 11
3624.5678324727018662
 21
305.1418671453776028
 31
0.0
  0
LINE
  5
B6B7
  8
0
 10
3624.5678324727018662
 20
305.1418671453776028
 30
0.0
 11
3624.5510200966427874
 21
305.1405363710507004
 31
0.0
  0
LINE
  5
B6B8
  8
0
 10
3624.5510200966427874
 20
305.1405363710507004
 30
0.0
 11
3624.5337370390861906
 21
305.1499437072453134
 31
0.0
  0
LINE
  5
B6B9
  8
0
 10
3624.5507848652750909
 20
305.1620553413019934
 30
0.0
 11
3624.5510200966177763
 21
305.1405363710666165
 31
0.0
  0
LINE
  5
B6BA
  8
0
 10
3624.5615759472379978
 20
305.1585914814392027
 30
0.0
 11
3624.5615760267269252
 21
305.1703437285510745
 31
0.0
  0
LINE
  5
B6BB
  8
0
 10
3624.5615760267269252
 20
305.1703437285510745
 30
0.0
 11
3624.5786237885149603
 21
305.1729444058674972
 31
0.0
  0
LINE
  5
B6BC
  8
0
 10
3624.5786237885149603
 20
305.1729444058674972
 30
0.0
 11
3624.5956714708390791
 21
305.163802662160208
 31
0.0
  0
LINE
  5
B6BD
  8
0
 10
3624.5956714708390791
 20
305.163802662160208
 30
0.0
 11
3624.5956713917180423
 21
305.1521198640974148
 31
0.0
  0
LINE
  5
B6BE
  8
0
 10
3624.5956713917180423
 20
305.1521198640974148
 30
0.0
 11
3624.5786236298849872
 21
305.1495095211234911
 31
0.0
  0
LINE
  5
B6BF
  8
0
 10
3624.5786236298849872
 20
305.1495095211234911
 30
0.0
 11
3624.5615759472379978
 21
305.1585914814392027
 31
0.0
  0
LINE
  5
B6C0
  8
0
 10
3624.578623788618188
 20
305.1729444058033209
 30
0.0
 11
3624.5786236298590666
 21
305.1495095211394073
 31
0.0
  0
LINE
  5
B6C1
  8
0
 10
3624.561575748076848
 20
305.1291765399399196
 30
0.0
 11
3624.5615758141761944
 21
305.1389462703767208
 31
0.0
  0
LINE
  5
B6C2
  8
0
 10
3624.5615758141761944
 20
305.1389462703767208
 30
0.0
 11
3624.5786235697892153
 21
305.1406352930729895
 31
0.0
  0
LINE
  5
B6C3
  8
0
 10
3624.5786235697892153
 20
305.1406352930729895
 30
0.0
 11
3624.5956712593979319
 21
305.1325763438885019
 31
0.0
  0
LINE
  5
B6C4
  8
0
 10
3624.5956712593979319
 20
305.1325763438885019
 30
0.0
 11
3624.5956711935709791
 21
305.1228496238837806
 31
0.0
  0
LINE
  5
B6C5
  8
0
 10
3624.5956711935709791
 20
305.1228496238837806
 30
0.0
 11
3624.5786234378579138
 21
305.1211390950057876
 31
0.0
  0
LINE
  5
B6C6
  8
0
 10
3624.5786234378579138
 20
305.1211390950057876
 30
0.0
 11
3624.561575748076848
 21
305.1291765399399196
 31
0.0
  0
LINE
  5
B6C7
  8
0
 10
3624.5786235698919882
 20
305.1406352930086996
 30
0.0
 11
3624.5786234378319932
 21
305.1211390950218174
 31
0.0
  0
LINE
  5
B6C8
  8
0
 10
3624.3945427788871712
 20
305.1481868875753776
 30
0.0
 11
3624.3945428200740935
 21
305.1542698992752776
 31
0.0
  0
LINE
  5
B6C9
  8
0
 10
3624.3945428200740935
 20
305.1542698992752776
 30
0.0
 11
3624.4115905255189318
 21
305.1485613438575797
 31
0.0
  0
LINE
  5
B6CA
  8
0
 10
3624.4115905255189318
 20
305.1485613438575797
 30
0.0
 11
3624.4286381908541443
 21
305.1369217910773273
 31
0.0
  0
LINE
  5
B6CB
  8
0
 10
3624.4286381908541443
 20
305.1369217910773273
 30
0.0
 11
3624.4286381497290677
 21
305.130838779324506
 31
0.0
  0
LINE
  5
B6CC
  8
0
 10
3624.4286381497290677
 20
305.130838779324506
 30
0.0
 11
3624.4115904433438118
 21
305.1363953203190817
 31
0.0
  0
LINE
  5
B6CD
  8
0
 10
3624.4115904433438118
 20
305.1363953203190817
 30
0.0
 11
3624.3945427788871712
 21
305.1481868875753776
 31
0.0
  0
LINE
  5
B6CE
  8
0
 10
3624.411590525623069
 20
305.1485613437934035
 30
0.0
 11
3624.4115904433188007
 21
305.1363953203351116
 31
0.0
  0
LINE
  5
B6CF
  8
0
 10
3624.3945426879890874
 20
305.1347641674461215
 30
0.0
 11
3624.3945427162261694
 21
305.138932116675619
 31
0.0
  0
LINE
  5
B6D0
  8
0
 10
3624.3945427162261694
 20
305.138932116675619
 30
0.0
 11
3624.411590414211787
 21
305.1321862940105234
 31
0.0
  0
LINE
  5
B6D1
  8
0
 10
3624.411590414211787
 20
305.1321862940105234
 30
0.0
 11
3624.4286380865719366
 21
305.1215194357288851
 31
0.0
  0
LINE
  5
B6D2
  8
0
 10
3624.4286380865719366
 20
305.1215194357288851
 30
0.0
 11
3624.4286380588300744
 21
305.1174160591950795
 31
0.0
  0
LINE
  5
B6D3
  8
0
 10
3624.4286380588300744
 20
305.1174160591950795
 30
0.0
 11
3624.41197103391778
 21
305.1238911320385796
 31
0.0
  0
LINE
  5
B6D4
  8
0
 10
3624.41197103391778
 20
305.1238911320385796
 30
0.0
 11
3624.3945426879890874
 21
305.1347641674461215
 31
0.0
  0
LINE
  5
B6D5
  8
0
 10
3624.4115904143150146
 20
305.1321862939461766
 30
0.0
 11
3624.4119710338941331
 21
305.1238911320544958
 31
0.0
  0
LINE
  5
B6D6
  8
0
 10
3624.4223814810679869
 20
305.1264137953864974
 30
0.0
 11
3624.4223815160339655
 21
305.1315632007533054
 31
0.0
  0
LINE
  5
B6D7
  8
0
 10
3624.4223815160339655
 20
305.1315632007533054
 30
0.0
 11
3624.4394292252732157
 21
305.1263967626691169
 31
0.0
  0
LINE
  5
B6D8
  8
0
 10
3624.4394292252732157
 20
305.1263967626691169
 30
0.0
 11
3624.4564769009011798
 21
305.1162943286199152
 31
0.0
  0
LINE
  5
B6D9
  8
0
 10
3624.4564769009011798
 20
305.1162943286199152
 30
0.0
 11
3624.4564768662808092
 21
305.1111735866525123
 31
0.0
  0
LINE
  5
B6DA
  8
0
 10
3624.4564768662808092
 20
305.1111735866525123
 30
0.0
 11
3624.4394291561989121
 21
305.1161839303584884
 31
0.0
  0
LINE
  5
B6DB
  8
0
 10
3624.4394291561989121
 20
305.1161839303584884
 30
0.0
 11
3624.4223814810679869
 21
305.1264137953864974
 31
0.0
  0
LINE
  5
B6DC
  8
0
 10
3624.4394292253759886
 20
305.126396762604827
 30
0.0
 11
3624.4394291561729915
 21
305.1161839303745182
 31
0.0
  0
LINE
  5
B6DD
  8
0
 10
3624.4223814096121714
 20
305.1158600817335014
 30
0.0
 11
3624.4223814302408755
 21
305.1188982475248963
 31
0.0
  0
LINE
  5
B6DE
  8
0
 10
3624.4223814302408755
 20
305.1188982475248963
 30
0.0
 11
3624.4395432273768165
 21
305.112704381730623
 31
0.0
  0
LINE
  5
B6DF
  8
0
 10
3624.4395432273768165
 20
305.112704381730623
 30
0.0
 11
3624.4564768148729854
 21
305.1035855493256008
 31
0.0
  0
LINE
  5
B6E0
  8
0
 10
3624.4564768148729854
 20
305.1035855493256008
 30
0.0
 11
3624.4564767934739393
 21
305.1004203558358086
 31
0.0
  0
LINE
  5
B6E1
  8
0
 10
3624.4564767934739393
 20
305.1004203558358086
 30
0.0
 11
3624.4394290906861897
 21
305.106526877208978
 31
0.0
  0
LINE
  5
B6E2
  8
0
 10
3624.4394290906861897
 20
305.106526877208978
 30
0.0
 11
3624.4223814096121714
 21
305.1158600817335014
 31
0.0
  0
LINE
  5
B6E3
  8
0
 10
3624.4395432274800442
 20
305.1127043816662763
 30
0.0
 11
3624.4394290906598144
 21
305.1065268772248942
 31
0.0
  0
LINE
  5
B6E4
  8
0
 10
3624.4502202042008321
 20
305.1077236364902205
 30
0.0
 11
3624.4502202320090873
 21
305.1118279220586942
 31
0.0
  0
LINE
  5
B6E5
  8
0
 10
3624.4502202320090873
 20
305.1118279220586942
 30
0.0
 11
3624.467267945254207
 21
305.1072786545980193
 31
0.0
  0
LINE
  5
B6E6
  8
0
 10
3624.467267945254207
 20
305.1072786545980193
 30
0.0
 11
3624.4843156301640192
 21
305.0985195266803771
 31
0.0
  0
LINE
  5
B6E7
  8
0
 10
3624.4843156301640192
 20
305.0985195266803771
 30
0.0
 11
3624.4843156024230666
 21
305.0944161501466851
 31
0.0
  0
LINE
  5
B6E8
  8
0
 10
3624.4843156024230666
 20
305.0944161501466851
 30
0.0
 11
3624.4672678890260613
 21
305.0989466859496133
 31
0.0
  0
LINE
  5
B6E9
  8
0
 10
3624.4672678890260613
 20
305.0989466859496133
 30
0.0
 11
3624.4502202042008321
 21
305.1077236364902205
 31
0.0
  0
LINE
  5
B6EA
  8
0
 10
3624.4672679453578894
 20
305.1072786545337863
 30
0.0
 11
3624.4672678890001407
 21
305.0989466859655863
 31
0.0
  0
LINE
  5
B6EB
  8
0
 10
3624.450220295588224
 20
305.1212177915825805
 30
0.0
 11
3624.4502203367987931
 21
305.1273008032703729
 31
0.0
  0
LINE
  5
B6EC
  8
0
 10
3624.4502203367987931
 20
305.1273008032703729
 30
0.0
 11
3624.4672680564472103
 21
305.1236934857727192
 31
0.0
  0
LINE
  5
B6ED
  8
0
 10
3624.4672680564472103
 20
305.1236934857727192
 30
0.0
 11
3624.484315735609016
 21
305.1140871258461971
 31
0.0
  0
LINE
  5
B6EE
  8
0
 10
3624.484315735609016
 20
305.1140871258461971
 30
0.0
 11
3624.4843156944230032
 21
305.1080041141481729
 31
0.0
  0
LINE
  5
B6EF
  8
0
 10
3624.4843156944230032
 20
305.1080041141481729
 30
0.0
 11
3624.4672679741379397
 21
305.1115274623278992
 31
0.0
  0
LINE
  5
B6F0
  8
0
 10
3624.4672679741379397
 20
305.1115274623278992
 30
0.0
 11
3624.450220295588224
 21
305.1212177915825805
 31
0.0
  0
LINE
  5
B6F1
  8
0
 10
3624.4672680565508927
 20
305.1236934857083725
 30
0.0
 11
3624.4672679741129286
 21
305.1115274623438722
 31
0.0
  0
LINE
  5
B6F2
  8
0
 10
3624.4780590205227782
 20
305.1027936952439745
 30
0.0
 11
3624.4780590549207773
 21
305.1078680194009962
 31
0.0
  0
LINE
  5
B6F3
  8
0
 10
3624.4780590549207773
 20
305.1078680194009962
 30
0.0
 11
3624.4951067784190855
 21
305.1047995819392895
 31
0.0
  0
LINE
  5
B6F4
  8
0
 10
3624.4951067784190855
 20
305.1047995819392895
 30
0.0
 11
3624.5121544667908893
 21
305.0965825239666742
 31
0.0
  0
LINE
  5
B6F5
  8
0
 10
3624.5121544667908893
 20
305.0965825239666742
 30
0.0
 11
3624.5121544319222266
 21
305.0914262860774784
 31
0.0
  0
LINE
  5
B6F6
  8
0
 10
3624.5121544319222266
 20
305.0914262860774784
 30
0.0
 11
3624.495106708377989
 21
305.0945068912795932
 31
0.0
  0
LINE
  5
B6F7
  8
0
 10
3624.495106708377989
 20
305.0945068912795932
 30
0.0
 11
3624.4780590205227782
 21
305.1027936952439745
 31
0.0
  0
LINE
  5
B6F8
  8
0
 10
3624.4951067785209489
 20
305.1047995818751133
 30
0.0
 11
3624.4951067083520684
 21
305.0945068912956231
 31
0.0
  0
LINE
  5
B6F9
  8
0
 10
3624.4780591305261623
 20
305.1190521701950047
 30
0.0
 11
3624.4780591782459851
 21
305.1260820621528751
 31
0.0
  0
LINE
  5
B6FA
  8
0
 10
3624.4780591782459851
 20
305.1260820621528751
 30
0.0
 11
3624.4951069075900705
 21
305.1238782698769114
 31
0.0
  0
LINE
  5
B6FB
  8
0
 10
3624.4951069075900705
 20
305.1238782698769114
 30
0.0
 11
3624.5121545895590316
 21
305.1147146530370264
 31
0.0
  0
LINE
  5
B6FC
  8
0
 10
3624.5121545895590316
 20
305.1147146530370264
 30
0.0
 11
3624.5121545421029623
 21
305.1077048675380752
 31
0.0
  0
LINE
  5
B6FD
  8
0
 10
3624.5121545421029623
 20
305.1077048675380752
 30
0.0
 11
3624.4951068123878031
 21
305.1098389138678044
 31
0.0
  0
LINE
  5
B6FE
  8
0
 10
3624.4951068123878031
 20
305.1098389138678044
 30
0.0
 11
3624.4780591305261623
 21
305.1190521701950047
 31
0.0
  0
LINE
  5
B6FF
  8
0
 10
3624.4951069076928434
 20
305.1238782698126784
 30
0.0
 11
3624.495106812362792
 21
305.1098389138837774
 31
0.0
  0
LINE
  5
B700
  8
0
 10
3624.4502205900062108
 20
305.1647046372174827
 30
0.0
 11
3624.4504674344671002
 21
305.1747045248350787
 31
0.0
  0
LINE
  5
B701
  8
0
 10
3624.4504674344671002
 20
305.1747045248350787
 30
0.0
 11
3624.4672683891058114
 21
305.1729171949475017
 31
0.0
  0
LINE
  5
B702
  8
0
 10
3624.4672683891058114
 20
305.1729171949475017
 30
0.0
 11
3624.484316054512874
 21
305.1611873720351014
 31
0.0
  0
LINE
  5
B703
  8
0
 10
3624.484316054512874
 20
305.1611873720351014
 30
0.0
 11
3624.4843159872739307
 21
305.151259191911322
 31
0.0
  0
LINE
  5
B704
  8
0
 10
3624.4843159872739307
 20
305.151259191911322
 30
0.0
 11
3624.4672682546402029
 21
305.1529593657859891
 31
0.0
  0
LINE
  5
B705
  8
0
 10
3624.4672682546402029
 20
305.1529593657859891
 30
0.0
 11
3624.4502205900062108
 21
305.1647046372174827
 31
0.0
  0
LINE
  5
B706
  8
0
 10
3624.4672683892099485
 20
305.1729171948833255
 30
0.0
 11
3624.4672682546151918
 21
305.1529593658019053
 31
0.0
  0
LINE
  5
B707
  8
0
 10
3624.4223817388478892
 20
305.1644674492533795
 30
0.0
 11
3624.4223818002769804
 21
305.173559159285503
 31
0.0
  0
LINE
  5
B708
  8
0
 10
3624.4223818002769804
 20
305.173559159285503
 30
0.0
 11
3624.439429522492901
 21
305.1703089664187019
 31
0.0
  0
LINE
  5
B709
  8
0
 10
3624.439429522492901
 20
305.1703089664187019
 30
0.0
 11
3624.456477184139203
 21
305.1581194332799782
 31
0.0
  0
LINE
  5
B70A
  8
0
 10
3624.456477184139203
 20
305.1581194332799782
 30
0.0
 11
3624.4564771231971463
 21
305.1491186034347152
 31
0.0
  0
LINE
  5
B70B
  8
0
 10
3624.4564771231971463
 20
305.1491186034347152
 30
0.0
 11
3624.4394293999989713
 21
305.1522184393260204
 31
0.0
  0
LINE
  5
B70C
  8
0
 10
3624.4394293999989713
 20
305.1522184393260204
 30
0.0
 11
3624.4223817388478892
 21
305.1644674492533795
 31
0.0
  0
LINE
  5
B70D
  8
0
 10
3624.4394295225961287
 20
305.1703089663545256
 30
0.0
 11
3624.4394293999730507
 21
305.1522184393418797
 31
0.0
  0
LINE
  5
B70E
  8
0
 10
3624.5058979848349736
 20
305.1197328461561256
 30
0.0
 11
3624.5058980387038901
 21
305.1276830044408825
 31
0.0
  0
LINE
  5
B70F
  8
0
 10
3624.5058980387038901
 20
305.1276830044408825
 30
0.0
 11
3624.5229457768800785
 21
305.1268145004572148
 31
0.0
  0
LINE
  5
B710
  8
0
 10
3624.5229457768800785
 20
305.1268145004572148
 30
0.0
 11
3624.5399934617507824
 21
305.1180512196675068
 31
0.0
  0
LINE
  5
B711
  8
0
 10
3624.5399934617507824
 20
305.1180512196675068
 30
0.0
 11
3624.5399934081901847
 21
305.1101342721501055
 31
0.0
  0
LINE
  5
B712
  8
0
 10
3624.5399934081901847
 20
305.1101342721501055
 30
0.0
 11
3624.5229456695569752
 21
305.1109478250991742
 31
0.0
  0
LINE
  5
B713
  8
0
 10
3624.5229456695569752
 20
305.1109478250991742
 30
0.0
 11
3624.5058979848349736
 21
305.1197328461561256
 31
0.0
  0
LINE
  5
B714
  8
0
 10
3624.5229457769828514
 20
305.1268145003929249
 30
0.0
 11
3624.5229456695310546
 21
305.1109478251152041
 31
0.0
  0
LINE
  5
B715
  8
0
 10
3624.5058978569841202
 20
305.1008563000740992
 30
0.0
 11
3624.5058978979977837
 21
305.1069092487546754
 31
0.0
  0
LINE
  5
B716
  8
0
 10
3624.5058978979977837
 20
305.1069092487546754
 30
0.0
 11
3624.5229456302668041
 21
305.105145242593494
 31
0.0
  0
LINE
  5
B717
  8
0
 10
3624.5229456302668041
 20
305.105145242593494
 30
0.0
 11
3624.5399933215471719
 21
305.0973407377060767
 31
0.0
  0
LINE
  5
B718
  8
0
 10
3624.5399933215471719
 20
305.0973407377060767
 30
0.0
 11
3624.5399932803388765
 21
305.0912577260680791
 31
0.0
  0
LINE
  5
B719
  8
0
 10
3624.5399932803388765
 20
305.0912577260680791
 30
0.0
 11
3624.5230538409709879
 21
305.0929660985611918
 31
0.0
  0
LINE
  5
B71A
  8
0
 10
3624.5230538409709879
 20
305.0929660985611918
 30
0.0
 11
3624.5058978569841202
 21
305.1008563000740992
 31
0.0
  0
LINE
  5
B71B
  8
0
 10
3624.5229456303709412
 20
305.1051452425292041
 30
0.0
 11
3624.5230538409450673
 21
305.0929660985771079
 31
0.0
  0
LINE
  5
B71C
  8
0
 10
3624.5337367121042007
 20
305.1016477097633128
 30
0.0
 11
3624.5337367594602256
 21
305.1086471083987135
 31
0.0
  0
LINE
  5
B71D
  8
0
 10
3624.5337367594602256
 20
305.1086471083987135
 30
0.0
 11
3624.5507945356112032
 21
305.108182416570628
 31
0.0
  0
LINE
  5
B71E
  8
0
 10
3624.5507945356112032
 20
305.108182416570628
 30
0.0
 11
3624.567832188293778
 21
305.0998583001166935
 31
0.0
  0
LINE
  5
B71F
  8
0
 10
3624.567832188293778
 20
305.0998583001166935
 30
0.0
 11
3624.5678321470850278
 21
305.093775288478696
 31
0.0
  0
LINE
  5
B720
  8
0
 10
3624.5678321470850278
 20
305.093775288478696
 30
0.0
 11
3624.5504205053989608
 21
305.0943533607235736
 31
0.0
  0
LINE
  5
B721
  8
0
 10
3624.5504205053989608
 20
305.0943533607235736
 30
0.0
 11
3624.5337367121042007
 21
305.1016477097633128
 31
0.0
  0
LINE
  5
B722
  8
0
 10
3624.5507945357148856
 20
305.1081824165062812
 30
0.0
 11
3624.5504205053730402
 21
305.0943533607394897
 31
0.0
  0
LINE
  5
B723
  8
0
 10
3624.5615754576201653
 20
305.0862776526408879
 30
0.0
 11
3624.5615754988361914
 21
305.0923606643520998
 31
0.0
  0
LINE
  5
B724
  8
0
 10
3624.5615754988361914
 20
305.0923606643520998
 30
0.0
 11
3624.5786380239787832
 21
305.0922727295489949
 31
0.0
  0
LINE
  5
B725
  8
0
 10
3624.5786380239787832
 20
305.0922727295489949
 30
0.0
 11
3624.5956709450001654
 21
305.0861306117325853
 31
0.0
  0
LINE
  5
B726
  8
0
 10
3624.5956709450001654
 20
305.0861306117325853
 30
0.0
 11
3624.5956709037909604
 21
305.0800476000945878
 31
0.0
  0
LINE
  5
B727
  8
0
 10
3624.5956709037909604
 20
305.0800476000945878
 30
0.0
 11
3624.5786231599008715
 21
305.0801123199261724
 31
0.0
  0
LINE
  5
B728
  8
0
 10
3624.5786231599008715
 20
305.0801123199261724
 30
0.0
 11
3624.5615754576201653
 21
305.0862776526408879
 31
0.0
  0
LINE
  5
B729
  8
0
 10
3624.5786380240820108
 20
305.0922727294848187
 30
0.0
 11
3624.5786231598758604
 21
305.0801123199420886
 31
0.0
  0
LINE
  5
B72A
  8
0
 10
3624.5337366017979548
 20
305.0853587414302979
 30
0.0
 11
3624.5337366367798495
 21
305.0905253661301231
 31
0.0
  0
LINE
  5
B72B
  8
0
 10
3624.5337366367798495
 20
305.0905253661301231
 30
0.0
 11
3624.5508039902820201
 21
305.0891542826657883
 31
0.0
  0
LINE
  5
B72C
  8
0
 10
3624.5508039902820201
 20
305.0891542826657883
 30
0.0
 11
3624.5678320717788665
 21
305.082652944878987
 31
0.0
  0
LINE
  5
B72D
  8
0
 10
3624.5678320717788665
 20
305.082652944878987
 30
0.0
 11
3624.5678320367142078
 21
305.0774731637600894
 31
0.0
  0
LINE
  5
B72E
  8
0
 10
3624.5678320367142078
 20
305.0774731637600894
 30
0.0
 11
3624.5507622131099197
 21
305.0788236559299094
 31
0.0
  0
LINE
  5
B72F
  8
0
 10
3624.5507622131099197
 20
305.0788236559299094
 30
0.0
 11
3624.5337366017979548
 21
305.0853587414302979
 31
0.0
  0
LINE
  5
B730
  8
0
 10
3624.550803990384793
 20
305.0891542826016121
 30
0.0
 11
3624.5507622130849086
 21
305.0788236559458824
 31
0.0
  0
LINE
  5
B731
  8
0
 10
3624.505897764565816
 20
305.0871892820806011
 30
0.0
 11
3624.5060359596868693
 21
305.0913803511417086
 31
0.0
  0
LINE
  5
B732
  8
0
 10
3624.5060359596868693
 20
305.0913803511417086
 30
0.0
 11
3624.5229629459281568
 21
305.088695740494984
 31
0.0
  0
LINE
  5
B733
  8
0
 10
3624.5229629459281568
 20
305.088695740494984
 30
0.0
 11
3624.5399932163468293
 21
305.0818065733774915
 31
0.0
  0
LINE
  5
B734
  8
0
 10
3624.5399932163468293
 20
305.0818065733774915
 30
0.0
 11
3624.5399931876590927
 21
305.0775574972940944
 31
0.0
  0
LINE
  5
B735
  8
0
 10
3624.5399931876590927
 20
305.0775574972940944
 30
0.0
 11
3624.5229454616510338
 21
305.0802377663781044
 31
0.0
  0
LINE
  5
B736
  8
0
 10
3624.5229454616510338
 20
305.0802377663781044
 30
0.0
 11
3624.505897764565816
 21
305.0871892820806011
 31
0.0
  0
LINE
  5
B737
  8
0
 10
3624.5229629460309297
 20
305.0886957404308077
 30
0.0
 11
3624.5229454616251132
 21
305.0802377663940206
 31
0.0
  0
LINE
  5
B738
  8
0
 10
3624.5337368572390915
 20
305.1230851800258961
 30
0.0
 11
3624.5337369175449567
 21
305.1319927714238815
 31
0.0
  0
LINE
  5
B739
  8
0
 10
3624.5337369175449567
 20
305.1319927714238815
 30
0.0
 11
3624.5507846644009078
 21
305.1324150609642061
 31
0.0
  0
LINE
  5
B73A
  8
0
 10
3624.5507846644009078
 20
305.1324150609642061
 30
0.0
 11
3624.5678323518500292
 21
305.1240178998780266
 31
0.0
  0
LINE
  5
B73B
  8
0
 10
3624.5678323518500292
 20
305.1240178998780266
 30
0.0
 11
3624.5678322921539802
 21
305.1151996023556876
 31
0.0
  0
LINE
  5
B73C
  8
0
 10
3624.5678322921539802
 20
305.1151996023556876
 30
0.0
 11
3624.5507845448441913
 21
305.1147382457311892
 31
0.0
  0
LINE
  5
B73D
  8
0
 10
3624.5507845448441913
 20
305.1147382457311892
 30
0.0
 11
3624.5337368572390915
 21
305.1230851800258961
 31
0.0
  0
LINE
  5
B73E
  8
0
 10
3624.5507846645041354
 20
305.132415060899973
 30
0.0
 11
3624.5507845448191802
 21
305.1147382457471053
 31
0.0
  0
LINE
  5
B73F
  8
0
 10
3624.5615755853250448
 20
305.1051389692404996
 30
0.0
 11
3624.5615756388438058
 21
305.113039097107503
 31
0.0
  0
LINE
  5
B740
  8
0
 10
3624.5615756388438058
 20
305.113039097107503
 30
0.0
 11
3624.578643007005212
 21
305.1138340459694973
 31
0.0
  0
LINE
  5
B741
  8
0
 10
3624.578643007005212
 20
305.1138340459694973
 30
0.0
 11
3624.5956710846680835
 21
305.1067697699891141
 31
0.0
  0
LINE
  5
B742
  8
0
 10
3624.5956710846680835
 20
305.1067697699891141
 30
0.0
 11
3624.5956710313471376
 21
305.098890251888804
 31
0.0
  0
LINE
  5
B743
  8
0
 10
3624.5956710313471376
 20
305.098890251888804
 30
0.0
 11
3624.5786658397842075
 21
305.098064348585126
 31
0.0
  0
LINE
  5
B744
  8
0
 10
3624.5786658397842075
 20
305.098064348585126
 30
0.0
 11
3624.5615755853250448
 21
305.1051389692404996
 31
0.0
  0
LINE
  5
B745
  8
0
 10
3624.5786430071079849
 20
305.1138340459052074
 30
0.0
 11
3624.5786658397591964
 21
305.0980643486009853
 31
0.0
  0
LINE
  5
B746
  8
0
 10
3624.5615753646429766
 20
305.0725453748491987
 30
0.0
 11
3624.5615753930710525
 21
305.0767449377100888
 31
0.0
  0
LINE
  5
B747
  8
0
 10
3624.5615753930710525
 20
305.0767449377100888
 30
0.0
 11
3624.5786231305269212
 21
305.0758183996406956
 31
0.0
  0
LINE
  5
B748
  8
0
 10
3624.5786231305269212
 20
305.0758183996406956
 30
0.0
 11
3624.5954318880521896
 21
305.0706317815324269
 31
0.0
  0
LINE
  5
B749
  8
0
 10
3624.5954318880521896
 20
305.0706317815324269
 30
0.0
 11
3624.5956708104959034
 21
305.0662760476899962
 31
0.0
  0
LINE
  5
B74A
  8
0
 10
3624.5956708104959034
 20
305.0662760476899962
 30
0.0
 11
3624.5786230731227988
 21
305.0672658370996828
 31
0.0
  0
LINE
  5
B74B
  8
0
 10
3624.5786230731227988
 20
305.0672658370996828
 30
0.0
 11
3624.5615753646429766
 21
305.0725453748491987
 31
0.0
  0
LINE
  5
B74C
  8
0
 10
3624.5786231306310583
 20
305.0758183995764057
 30
0.0
 11
3624.5786230730968782
 21
305.0672658371157127
 31
0.0
  0
LINE
  5
B74D
  8
0
 10
3624.5337365262639651
 20
305.0742044000206192
 30
0.0
 11
3624.5337365492709978
 21
305.0776008044304035
 31
0.0
  0
LINE
  5
B74E
  8
0
 10
3624.5337365492709978
 20
305.0776008044304035
 30
0.0
 11
3624.5507842777137739
 21
305.0752882032048205
 31
0.0
  0
LINE
  5
B74F
  8
0
 10
3624.5507842777137739
 20
305.0752882032048205
 30
0.0
 11
3624.5678319838511925
 21
305.0696665481793275
 31
0.0
  0
LINE
  5
B750
  8
0
 10
3624.5678319838511925
 20
305.0696665481793275
 30
0.0
 11
3624.5678319611802181
 21
305.0663188223504108
 31
0.0
  0
LINE
  5
B751
  8
0
 10
3624.5678319611802181
 20
305.0663188223504108
 30
0.0
 11
3624.5509095367460759
 21
305.0686133886657103
 31
0.0
  0
LINE
  5
B752
  8
0
 10
3624.5509095367460759
 20
305.0686133886657103
 30
0.0
 11
3624.5337365262639651
 21
305.0742044000206192
 31
0.0
  0
LINE
  5
B753
  8
0
 10
3624.5507842778170016
 20
305.0752882031405875
 30
0.0
 11
3624.5509095367201553
 21
305.0686133886816265
 31
0.0
  0
LINE
  5
B754
  8
0
 10
3624.4780589470219638
 20
305.0919358072367231
 30
0.0
 11
3624.4780589686820349
 21
305.0951486487086868
 31
0.0
  0
LINE
  5
B755
  8
0
 10
3624.4780589686820349
 20
305.0951486487086868
 30
0.0
 11
3624.4951218820929171
 21
305.0910176896408075
 31
0.0
  0
LINE
  5
B756
  8
0
 10
3624.4951218820929171
 20
305.0910176896408075
 30
0.0
 11
3624.5121543796121841
 21
305.0837067923577024
 31
0.0
  0
LINE
  5
B757
  8
0
 10
3624.5121543796121841
 20
305.0837067923577024
 30
0.0
 11
3624.512154357439158
 21
305.080431771257679
 31
0.0
  0
LINE
  5
B758
  8
0
 10
3624.512154357439158
 20
305.080431771257679
 30
0.0
 11
3624.4950956804850648
 21
305.084538590106888
 31
0.0
  0
LINE
  5
B759
  8
0
 10
3624.4950956804850648
 20
305.084538590106888
 30
0.0
 11
3624.4780589470219638
 21
305.0919358072367231
 31
0.0
  0
LINE
  5
B75A
  8
0
 10
3624.4951218821961447
 20
305.0910176895765176
 30
0.0
 11
3624.4950956804600537
 21
305.0845385901228042
 31
0.0
  0
LINE
  5
B75B
  8
0
 10
3624.5058977098929063
 20
305.0791218135483973
 30
0.0
 11
3624.5058977240878448
 21
305.0812219400195886
 31
0.0
  0
LINE
  5
B75C
  8
0
 10
3624.5058977240878448
 20
305.0812219400195886
 30
0.0
 11
3624.5229517031721116
 21
305.0775083676306849
 31
0.0
  0
LINE
  5
B75D
  8
0
 10
3624.5229517031721116
 20
305.0775083676306849
 30
0.0
 11
3624.5399931481451858
 21
305.0717259999664748
 31
0.0
  0
LINE
  5
B75E
  8
0
 10
3624.5399931481451858
 20
305.0717259999664748
 30
0.0
 11
3624.5399931306128565
 21
305.0691361094071112
 31
0.0
  0
LINE
  5
B75F
  8
0
 10
3624.5399931306128565
 20
305.0691361094071112
 30
0.0
 11
3624.522945411677938
 21
305.0728570129783179
 31
0.0
  0
LINE
  5
B760
  8
0
 10
3624.522945411677938
 20
305.0728570129783179
 30
0.0
 11
3624.5058977098929063
 21
305.0791218135483973
 31
0.0
  0
LINE
  5
B761
  8
0
 10
3624.522951703275794
 20
305.077508367566395
 30
0.0
 11
3624.5229454116520174
 21
305.0728570129941772
 31
0.0
  0
LINE
  5
B762
  8
0
 10
3624.4502201508421422
 20
305.0998317375172064
 30
0.0
 11
3624.4502201652931035
 21
305.1019662277100224
 31
0.0
  0
LINE
  5
B763
  8
0
 10
3624.4502201652931035
 20
305.1019662277100224
 30
0.0
 11
3624.4672678710408036
 21
305.0963039680942757
 31
0.0
  0
LINE
  5
B764
  8
0
 10
3624.4672678710408036
 20
305.0963039680942757
 30
0.0
 11
3624.4843155625580948
 21
305.0885207825323278
 31
0.0
  0
LINE
  5
B765
  8
0
 10
3624.4843155625580948
 20
305.0885207825323278
 30
0.0
 11
3624.4843155474140985
 21
305.0862829391762716
 31
0.0
  0
LINE
  5
B766
  8
0
 10
3624.4843155474140985
 20
305.0862829391762716
 30
0.0
 11
3624.4672631066850954
 21
305.0919318420386048
 31
0.0
  0
LINE
  5
B767
  8
0
 10
3624.4672631066850954
 20
305.0919318420386048
 30
0.0
 11
3624.4502201508421422
 21
305.0998317375172064
 31
0.0
  0
LINE
  5
B768
  8
0
 10
3624.4672678711440312
 20
305.0963039680300994
 30
0.0
 11
3624.4672631066591748
 21
305.091931842054521
 31
0.0
  0
LINE
  5
B769
  8
0
 10
3624.5337364885767784
 20
305.0686366147306217
 30
0.0
 11
3624.5337364978081496
 21
305.069999942430627
 31
0.0
  0
LINE
  5
B76A
  8
0
 10
3624.5337364978081496
 20
305.069999942430627
 30
0.0
 11
3624.5507873485630626
 21
305.066534831517572
 31
0.0
  0
LINE
  5
B76B
  8
0
 10
3624.5507873485630626
 20
305.066534831517572
 30
0.0
 11
3624.5678319314270084
 21
305.0619233805609269
 31
0.0
  0
LINE
  5
B76C
  8
0
 10
3624.5678319314270084
 20
305.0619233805609269
 30
0.0
 11
3624.5678319217108765
 21
305.0604882506443118
 31
0.0
  0
LINE
  5
B76D
  8
0
 10
3624.5678319217108765
 20
305.0604882506443118
 30
0.0
 11
3624.5507842027768675
 21
305.0642091542155185
 31
0.0
  0
LINE
  5
B76E
  8
0
 10
3624.5507842027768675
 20
305.0642091542155185
 30
0.0
 11
3624.5337364885767784
 21
305.0686366147306217
 31
0.0
  0
LINE
  5
B76F
  8
0
 10
3624.5507873486658355
 20
305.0665348314533958
 30
0.0
 11
3624.5507842027509469
 21
305.0642091542313779
 31
0.0
  0
LINE
  5
B770
  8
0
 10
3624.5615753071160725
 20
305.0640418374853766
 30
0.0
 11
3624.5615753233200849
 21
305.0664381304461017
 31
0.0
  0
LINE
  5
B771
  8
0
 10
3624.5615753233200849
 20
305.0664381304461017
 30
0.0
 11
3624.5786272126288168
 21
305.0644825516254741
 31
0.0
  0
LINE
  5
B772
  8
0
 10
3624.5786272126288168
 20
305.0644825516254741
 30
0.0
 11
3624.5956368957067752
 21
305.0601192630285823
 31
0.0
  0
LINE
  5
B773
  8
0
 10
3624.5956368957067752
 20
305.0601192630285823
 30
0.0
 11
3624.5956707522768738
 21
305.0576719109914166
 31
0.0
  0
LINE
  5
B774
  8
0
 10
3624.5956707522768738
 20
305.0576719109914166
 30
0.0
 11
3624.5786206737238899
 21
305.0596484084941267
 31
0.0
  0
LINE
  5
B775
  8
0
 10
3624.5786206737238899
 20
305.0596484084941267
 30
0.0
 11
3624.5615753071160725
 21
305.0640418374853766
 31
0.0
  0
LINE
  5
B776
  8
0
 10
3624.5786272127320444
 20
305.0644825515612979
 30
0.0
 11
3624.5786206736988788
 21
305.059648408509986
 31
0.0
  0
LINE
  5
B777
  8
0
 10
3624.5894147287140186
 20
305.1485190543170916
 30
0.0
 11
3624.5894146563227878
 21
305.137823293250392
 31
0.0
  0
LINE
  5
B778
  8
0
 10
3624.5894146563227878
 20
305.137823293250392
 30
0.0
 11
3624.6064623483130163
 21
305.1301186927768754
 31
0.0
  0
LINE
  5
B779
  8
0
 10
3624.6064623483130163
 20
305.1301186927768754
 30
0.0
 11
3624.6073017327389607
 21
305.1302489713417003
 31
0.0
  0
LINE
  5
B77A
  8
0
 10
3624.6073017327389607
 20
305.1302489713417003
 30
0.0
 11
3624.6073018737270104
 21
305.1510720135412953
 31
0.0
  0
LINE
  5
B77B
  8
0
 10
3624.6073018737270104
 20
305.1510720135412953
 30
0.0
 11
3624.6064624928799276
 21
305.1514695821953183
 31
0.0
  0
LINE
  5
B77C
  8
0
 10
3624.6064624928799276
 20
305.1514695821953183
 30
0.0
 11
3624.5894147287399392
 21
305.1485190543211843
 31
0.0
  0
LINE
  5
B77D
  8
0
 10
3624.6064624928189914
 20
305.1514695821833811
 30
0.0
 11
3624.6064623483130163
 21
305.1301186927768754
 31
0.0
  0
LINE
  5
B77E
  8
0
 10
3624.5894145358088281
 20
305.120023840209285
 30
0.0
 11
3624.5894144762360156
 21
305.1112254415004941
 31
0.0
  0
LINE
  5
B77F
  8
0
 10
3624.5894144762360156
 20
305.1112254415004941
 30
0.0
 11
3624.6064621745331351
 21
305.1044522322774242
 31
0.0
  0
LINE
  5
B780
  8
0
 10
3624.6064621745331351
 20
305.1044522322774242
 30
0.0
 11
3624.6073015589590796
 21
305.104582510842306
 31
0.0
  0
LINE
  5
B781
  8
0
 10
3624.6073015589590796
 20
305.104582510842306
 30
0.0
 11
3624.607301675007875
 21
305.1217222950418773
 31
0.0
  0
LINE
  5
B782
  8
0
 10
3624.607301675007875
 20
305.1217222950418773
 30
0.0
 11
3624.6064622938288267
 21
305.1220697668090907
 31
0.0
  0
LINE
  5
B783
  8
0
 10
3624.6064622938288267
 20
305.1220697668090907
 30
0.0
 11
3624.5894145358361129
 21
305.1200238402133778
 31
0.0
  0
LINE
  5
B784
  8
0
 10
3624.6064622937678905
 20
305.1220697667972104
 30
0.0
 11
3624.6064621745331351
 21
305.1044522322774242
 31
0.0
  0
LINE
  5
B785
  8
0
 10
3624.5894143785740198
 20
305.0968112280879723
 30
0.0
 11
3624.5894143313830682
 21
305.0898314355515026
 31
0.0
  0
LINE
  5
B786
  8
0
 10
3624.5894143313830682
 20
305.0898314355515026
 30
0.0
 11
3624.6064620356041814
 21
305.083933322177927
 31
0.0
  0
LINE
  5
B787
  8
0
 10
3624.6064620356041814
 20
305.083933322177927
 30
0.0
 11
3624.6073014200310354
 21
305.0840636007428088
 31
0.0
  0
LINE
  5
B788
  8
0
 10
3624.6073014200310354
 20
305.0840636007428088
 30
0.0
 11
3624.6073015610181756
 21
305.1048866429421764
 31
0.0
  0
LINE
  5
B789
  8
0
 10
3624.6073015121678509
 20
305.0976717890424084
 30
0.0
 11
3624.6064621306868503
 21
305.0979727757307955
 31
0.0
  0
LINE
  5
B78A
  8
0
 10
3624.6064621306868503
 20
305.0979727757307955
 30
0.0
 11
3624.5894143786008499
 21
305.0968112280921218
 31
0.0
  0
LINE
  5
B78B
  8
0
 10
3624.6064621306250046
 20
305.0979727757189153
 30
0.0
 11
3624.6064620356041814
 21
305.083933322177927
 31
0.0
  0
LINE
  5
B78C
  8
0
 10
3624.589414256056898
 20
305.0787090919957905
 30
0.0
 11
3624.589414220962226
 21
305.0735228611519005
 31
0.0
  0
LINE
  5
B78D
  8
0
 10
3624.589414220962226
 20
305.0735228611519005
 30
0.0
 11
3624.6064619317958204
 21
305.0686013970001795
 31
0.0
  0
LINE
  5
B78E
  8
0
 10
3624.6064619317958204
 20
305.0686013970001795
 30
0.0
 11
3624.6073013153309148
 21
305.0685999209430861
 31
0.0
  0
LINE
  5
B78F
  8
0
 10
3624.6073013153309148
 20
305.0685999209430861
 30
0.0
 11
3624.6073013858240301
 21
305.0790114420428836
 31
0.0
  0
LINE
  5
B790
  8
0
 10
3624.6073013858240301
 20
305.0790114420428836
 30
0.0
 11
3624.6064620036640918
 21
305.0792109644044103
 31
0.0
  0
LINE
  5
B791
  8
0
 10
3624.6064620036640918
 20
305.0792109644044103
 30
0.0
 11
3624.5894142560828186
 21
305.0787090919998263
 31
0.0
  0
LINE
  5
B792
  8
0
 10
3624.6064620036017914
 20
305.0792109643924732
 30
0.0
 11
3624.6064619317958204
 21
305.0686013970001795
 31
0.0
  0
LINE
  5
B793
  8
0
 10
3624.5894141678882079
 20
305.0656923872863899
 30
0.0
 11
3624.5894141450771713
 21
305.0623247625542831
 31
0.0
  0
LINE
  5
B794
  8
0
 10
3624.5894141450771713
 20
305.0623247625542831
 30
0.0
 11
3624.6064618607579177
 21
305.0581094377785121
 31
0.0
  0
LINE
  5
B795
  8
0
 10
3624.6064618607579177
 20
305.0581094377785121
 30
0.0
 11
3624.6073012451838622
 21
305.0582397163433939
 31
0.0
  0
LINE
  5
B796
  8
0
 10
3624.6073012451838622
 20
305.0582397163433939
 30
0.0
 11
3624.6073012898259549
 21
305.0648329577431923
 31
0.0
  0
LINE
  5
B797
  8
0
 10
3624.6073012898259549
 20
305.0648329577431923
 30
0.0
 11
3624.6064619078870237
 21
305.0650460491983722
 31
0.0
  0
LINE
  5
B798
  8
0
 10
3624.6064619078870237
 20
305.0650460491983722
 30
0.0
 11
3624.5894141679141285
 21
305.0656923872904258
 31
0.0
  0
LINE
  5
B799
  8
0
 10
3624.6064619078251781
 20
305.0650460491866056
 30
0.0
 11
3624.6064618607579177
 21
305.0581094377785121
 31
0.0
  0
LINE
  5
B79A
  8
0
 10
3624.607301230621033
 20
305.0560887076434256
 30
0.0
 11
3624.606461848177787
 21
305.0562579397536069
 31
0.0
  0
LINE
  5
B79B
  8
0
 10
3624.606461848177787
 20
305.0562579397536069
 30
0.0
 11
3624.5894141150452015
 21
305.0578795284521902
 31
0.0
  0
LINE
  5
B79C
  8
0
 10
3624.5894141150452015
 20
305.0578795284521902
 30
0.0
 11
3624.5894141050898725
 21
305.0564092661521727
 31
0.0
  0
LINE
  5
B79D
  8
0
 10
3624.5894141050898725
 20
305.0564092661521727
 30
0.0
 11
3624.6064618264449564
 21
305.0532767825806104
 31
0.0
  0
LINE
  5
B79E
  8
0
 10
3624.6064618264449564
 20
305.0532767825806104
 30
0.0
 11
3624.6073012109181946
 21
305.0531787243683084
 31
0.0
  0
LINE
  5
B79F
  8
0
 10
3624.6073012109181946
 20
305.0531787243683084
 30
0.0
 11
3624.607301230621033
 21
305.0560887076434256
 31
0.0
  0
LINE
  5
B7A0
  8
0
 10
3624.6064618279970091
 20
305.0532767823976883
 30
0.0
 11
3624.6064055360611746
 21
305.0562632961896838
 31
0.0
  0
LINE
  5
B7A1
  8
0
 10
3624.5507078491827997
 20
305.1974453458460061
 30
0.0
 11
3624.567832777440799
 21
305.1868754744323837
 31
0.0
  0
LINE
  5
B7A2
  8
0
 10
3624.5337373038269106
 20
305.195290508409073
 30
0.0
 11
3624.5507078491827997
 21
305.1974453458460061
 31
0.0
  0
LINE
  5
B7A3
  8
0
 10
3624.5337372255708033
 20
305.182244356393312
 30
0.0
 11
3624.5337373038269106
 21
305.195290508409073
 31
0.0
  0
LINE
  5
B7A4
  8
0
 10
3624.522769267286094
 20
305.1865061062238169
 30
0.0
 11
3624.505898430608795
 21
305.1855751808869854
 31
0.0
  0
LINE
  5
B7A5
  8
0
 10
3624.4485609230418959
 20
305.1962923588538956
 30
0.0
 11
3624.4672572441149896
 21
305.1817118077556756
 31
0.0
  0
LINE
  5
B7A6
  8
0
 10
3624.4672572441149896
 20
305.1817118077556756
 30
0.0
 11
3624.4843049858668564
 21
305.1813547594202873
 31
0.0
  0
LINE
  5
B7A7
  8
0
 10
3624.4843049858668564
 20
305.1813547594202873
 30
0.0
 11
3624.4843050594249689
 21
305.1922142756371272
 31
0.0
  0
LINE
  5
B7A8
  8
0
 10
3624.4843050594249689
 20
305.1922142756371272
 30
0.0
 11
3624.4774182731362089
 21
305.1967893957793763
 31
0.0
  0
LINE
  5
B7A9
  8
0
 10
3624.467257346822862
 20
305.1966103481407231
 30
0.0
 11
3624.4672572498288901
 21
305.1817118076360202
 31
0.0
  0
LINE
  5
B7AA
  8
0
 10
3624.4825670579461985
 20
305.1968817984650855
 30
0.0
 11
3624.4950027492900517
 21
305.1886366980423873
 31
0.0
  0
LINE
  5
B7AB
  8
0
 10
3624.4950027492900517
 20
305.1886366980423873
 30
0.0
 11
3624.5120504910419186
 21
305.188279649706999
 31
0.0
  0
LINE
  5
B7AC
  8
0
 10
3624.5120504910419186
 20
305.188279649706999
 30
0.0
 11
3624.5120505530398987
 21
305.1974326214871098
 31
0.0
  0
LINE
  5
B7AD
  8
0
 10
3624.4950028101661701
 20
305.1971096234337892
 30
0.0
 11
3624.4950027550048617
 21
305.188636697922675
 31
0.0
  0
LINE
  5
B7AE
  8
0
 10
3624.5786528313901727
 20
305.1835045269313014
 30
0.0
 11
3624.5615761439421476
 21
305.1936924805543185
 31
0.0
  0
LINE
  5
B7AF
  8
0
 10
3624.5786528313901727
 20
305.1835045269313014
 30
0.0
 11
3624.5956715926718061
 21
305.1870957275843921
 31
0.0
  0
LINE
  5
B7B0
  8
0
 10
3624.5956715926718061
 20
305.1870957275843921
 30
0.0
 11
3624.5956716632708776
 21
305.1988653441301267
 31
0.0
  0
LINE
  5
B7B1
  8
0
 10
3624.5786238270338799
 20
305.1835218309336142
 30
0.0
 11
3624.5786239177050447
 21
305.1986375551678066
 31
0.0
  0
LINE
  5
B7B2
  8
0
 10
3624.5615761439421476
 20
305.1936924805543185
 30
0.0
 11
3624.5615761720168848
 21
305.1983728764902253
 31
0.0
  0
LINE
  5
B7B3
  8
0
 10
3624.6064626952738763
 20
305.1866171357905273
 30
0.0
 11
3624.6073021113211325
 21
305.1861634334467794
 31
0.0
  0
LINE
  5
B7B4
  8
0
 10
3624.4223818826631032
 20
305.1915291906291259
 30
0.0
 11
3624.439429579103944
 21
305.1786506606965759
 31
0.0
  0
LINE
  5
B7B5
  8
0
 10
3624.4223818826631032
 20
305.1915291906291259
 30
0.0
 11
3624.4223819087142147
 21
305.1958720666899012
 31
0.0
  0
LINE
  5
B7B6
  8
0
 10
3624.4564773826041346
 20
305.1874376171434733
 30
0.0
 11
3624.4452004472341287
 21
305.196236778700893
 31
0.0
  0
ARC
  5
B7B7
  8
0
 10
3624.6847032466062046
 20
305.9556490954569767
 30
0.0
 40
0.9088204950466131
 50
255.8799865278884909
 51
267.104669001330592
  0
ARC
  5
B7B8
  8
0
 10
3624.690562104548917
 20
305.6415971122686983
 30
0.0
 40
0.5950677306323074
 50
256.6982979465838071
 51
265.0095473007744999
  0
ARC
  5
B7B9
  8
0
 10
3624.6924389066089134
 20
297.3187552438313901
 30
0.0
 40
7.880704225652206
 50
90.0178821409272274
 51
91.1577017785759836
  0
ENDSEC
  0
EOF
