  0
SECTION
  2
HEADER
  9
$ACADVER
  1
AC1009
  9
$INSBASE
 10
4446.4295693348240093
 20
165.4500050540291909
 30
0.0
  9
$EXTMIN
 10
4445.5437425631253063
 20
157.8344476038512028
 30
0.0
  9
$EXTMAX
 10
4449.2067037700471701
 20
166.3357924965081054
 30
0.0
  9
$LIMMIN
 10
0.0
 20
0.0
  9
$LIMMAX
 10
11.6929133858000007
 20
8.2677165353999982
  9
$ORTHOMODE
 70
     0
  9
$REGENMODE
 70
     1
  9
$FILLMODE
 70
     1
  9
$QTEXTMODE
 70
     0
  9
$MIRRTEXT
 70
     0
  9
$DRAGMODE
 70
     2
  9
$LTSCALE
 40
0.6431102362
  9
$OSMODE
 70
  4095
  9
$ATTMODE
 70
     1
  9
$TEXTSIZE
 40
0.2
  9
$TRACEWID
 40
0.05
  9
$TEXTSTYLE
  7
STANDARD
  9
$CLAYER
  8
0
  9
$CELTYPE
  6
BYLAYER
  9
$CECOLOR
 62
   256
  9
$DIMSCALE
 40
1.0
  9
$DIMASZ
 40
0.1875
  9
$DIMEXO
 40
0.0625
  9
$DIMDLI
 40
0.4443307087
  9
$DIMRND
 40
0.0
  9
$DIMDLE
 40
0.0
  9
$DIMEXE
 40
0.125
  9
$DIMTP
 40
0.01
  9
$DIMTM
 40
0.01
  9
$DIMTXT
 40
2.0
  9
$DIMCEN
 40
0.1052362205
  9
$DIMTSZ
 40
0.0
  9
$DIMTOL
 70
     1
  9
$DIMLIM
 70
     0
  9
$DIMTIH
 70
     1
  9
$DIMTOH
 70
     1
  9
$DIMSE1
 70
     0
  9
$DIMSE2
 70
     0
  9
$DIMTAD
 70
     0
  9
$DIMZIN
 70
     0
  9
$DIMBLK
  1

  9
$DIMASO
 70
     1
  9
$DIMSHO
 70
     1
  9
$DIMPOST
  1
\X
  9
$DIMAPOST
  1

  9
$DIMALT
 70
     1
  9
$DIMALTD
 70
     2
  9
$DIMALTF
 40
25.3999999999999986
  9
$DIMLFAC
 40
1.0
  9
$DIMTOFL
 70
     0
  9
$DIMTVP
 40
0.0
  9
$DIMTIX
 70
     0
  9
$DIMSOXD
 70
     0
  9
$DIMSAH
 70
     0
  9
$DIMBLK1
  1

  9
$DIMBLK2
  1

  9
$DIMSTYLE
  2
STANDARD
  9
$DIMCLRD
 70
     0
  9
$DIMCLRE
 70
     0
  9
$DIMCLRT
 70
     0
  9
$DIMTFAC
 40
1.0
  9
$DIMGAP
 40
0.09
  9
$LUNITS
 70
     2
  9
$LUPREC
 70
     4
  9
$SKETCHINC
 40
0.1
  9
$FILLETRAD
 40
0.0
  9
$AUNITS
 70
     0
  9
$AUPREC
 70
     0
  9
$MENU
  1
.
  9
$ELEVATION
 40
0.0
  9
$PELEVATION
 40
0.0
  9
$THICKNESS
 40
0.0
  9
$LIMCHECK
 70
     0
  9
$BLIPMODE
 70
     0
  9
$CHAMFERA
 40
0.0
  9
$CHAMFERB
 40
0.0
  9
$SKPOLY
 70
     0
  9
$TDCREATE
 40
2458060.468368056230247
  9
$TDUPDATE
 40
2460007.6535648149438202
  9
$TDINDWG
 40
0.3910371528
  9
$TDUSRTIMER
 40
0.3910371528
  9
$USRTIMER
 70
     1
  9
$ANGBASE
 50
0.0
  9
$ANGDIR
 70
     0
  9
$PDMODE
 70
     0
  9
$PDSIZE
 40
0.3125
  9
$PLINEWID
 40
0.0
  9
$COORDS
 70
     1
  9
$SPLFRAME
 70
     0
  9
$SPLINETYPE
 70
     6
  9
$SPLINESEGS
 70
     8
  9
$ATTDIA
 70
     1
  9
$ATTREQ
 70
     1
  9
$HANDLING
 70
     1
  9
$HANDSEED
  5
C65C
  9
$SURFTAB1
 70
     6
  9
$SURFTAB2
 70
     6
  9
$SURFTYPE
 70
     6
  9
$SURFU
 70
     6
  9
$SURFV
 70
     6
  9
$UCSNAME
  2

  9
$UCSORG
 10
0.0
 20
0.0
 30
0.0
  9
$UCSXDIR
 10
1.0
 20
0.0
 30
0.0
  9
$UCSYDIR
 10
0.0
 20
1.0
 30
0.0
  9
$PUCSNAME
  2

  9
$PUCSORG
 10
0.0
 20
0.0
 30
0.0
  9
$PUCSXDIR
 10
1.0
 20
0.0
 30
0.0
  9
$PUCSYDIR
 10
0.0
 20
1.0
 30
0.0
  9
$USERI1
 70
     0
  9
$USERI2
 70
     0
  9
$USERI3
 70
     0
  9
$USERI4
 70
     0
  9
$USERI5
 70
     0
  9
$USERR1
 40
0.0
  9
$USERR2
 40
0.0
  9
$USERR3
 40
0.0
  9
$USERR4
 40
0.0
  9
$USERR5
 40
0.0
  9
$WORLDVIEW
 70
     1
  9
$SHADEDGE
 70
     3
  9
$SHADEDIF
 70
    70
  9
$TILEMODE
 70
     1
  9
$MAXACTVP
 70
    64
  9
$PLIMCHECK
 70
     0
  9
$PEXTMIN
 10
1.0000000000000000E+20
 20
1.0000000000000000E+20
 30
1.0000000000000000E+20
  9
$PEXTMAX
 10
-1.0000000000000000E+20
 20
-1.0000000000000000E+20
 30
-1.0000000000000000E+20
  9
$PLIMMIN
 10
0.0
 20
0.0
  9
$PLIMMAX
 10
12.0
 20
9.0
  9
$UNITMODE
 70
     0
  9
$VISRETAIN
 70
     1
  9
$PLINEGEN
 70
     0
  9
$PSLTSCALE
 70
     1
  0
ENDSEC
  0
SECTION
  2
TABLES
  0
TABLE
  2
VPORT
 70
     1
  0
VPORT
  2
*ACTIVE
 70
     0
 10
0.0
 20
0.0
 11
1.0
 21
1.0
 12
418.5883579322111814
 22
26.2107609193203395
 13
0.0
 23
0.0
 14
1.0
 24
1.0
 15
0.0
 25
0.0
 16
0.0
 26
0.0
 36
47.0568789906323275
 17
4028.786865234375
 27
135.8743591308592897
 37
0.0
 40
8.5734984511962207
 41
2.5251322751322749
 42
50.0
 43
0.0
 44
0.0
 50
0.0
 51
0.0
 71
     0
 72
   100
 73
     1
 74
     1
 75
     0
 76
     0
 77
     0
 78
     0
  0
ENDTAB
  0
TABLE
  2
LTYPE
 70
     2
  0
LTYPE
  2
CONTINUOUS
 70
     0
  3
Solid line
 72
    65
 73
     0
 40
0.0
  0
LTYPE
  2
PHANTOM2
 70
     0
  3
___ _ _ ___ _ _ ___ _ _ ___ _ _
 72
    65
 73
     6
 40
1.25
 49
0.625
 49
-0.125
 49
0.125
 49
-0.125
 49
0.125
 49
-0.125
  0
ENDTAB
  0
TABLE
  2
LAYER
 70
     2
  0
LAYER
  2
0
 70
     0
 62
   255
  6
CONTINUOUS
  0
LAYER
  2
DEFPOINTS
 70
     0
 62
     7
  6
CONTINUOUS
  0
ENDTAB
  0
TABLE
  2
STYLE
 70
     1
  0
STYLE
  2
STANDARD
 70
     0
 40
0.0
 41
0.8
 50
0.0
 71
     0
 42
0.2
  3
txt
  4

  0
ENDTAB
  0
TABLE
  2
VIEW
 70
     0
  0
ENDTAB
  0
TABLE
  2
UCS
 70
     0
  0
ENDTAB
  0
TABLE
  2
APPID
 70
     9
  0
APPID
  2
ACAD
 70
     0
  0
APPID
  2
ACAD_MLEADERVER
 70
     0
  0
APPID
  2
ACAD_EXEMPT_FROM_CAD_STANDARDS
 70
     0
  0
APPID
  2
ACAD_NAV_VCDISPLAY
 70
     0
  0
APPID
  2
ACAECLAYERSTANDARD
 70
     0
  0
APPID
  2
ACCMTRANSPARENCY
 70
     0
  0
APPID
  2
ACAD_DSTYLE_DIMJAG
 70
     0
  0
APPID
  2
ACAD_DSTYLE_DIMTALN
 70
     0
  0
APPID
  2
ACDBATTR
 70
     0
  0
ENDTAB
  0
TABLE
  2
DIMSTYLE
 70
     1
  0
DIMSTYLE
  2
STANDARD
 70
     0
  3

  4

  5

  6

  7

 40
1.0
 41
0.1875
 42
0.0625
 43
0.38
 44
0.125
 45
0.0
 46
0.0
 47
0.01
 48
0.01
140
0.15625
141
0.09
142
0.0
143
25.3999999999999986
144
1.0
145
0.0
146
1.0
147
0.09
 71
     1
 72
     0
 73
     1
 74
     1
 75
     0
 76
     0
 77
     0
 78
     4
170
     0
171
     2
172
     0
173
     0
174
     0
175
     0
176
     0
177
     0
178
     0
  0
ENDTAB
  0
ENDSEC
  0
SECTION
  2
BLOCKS
  0
BLOCK
  8
0
  2
$MODEL_SPACE
 70
     0
 10
0.0
 20
0.0
 30
0.0
  3
$MODEL_SPACE
  1

  0
ENDBLK
  5
21
  8
0
  0
BLOCK
 67
     1
  8
0
  2
$PAPER_SPACE
 70
     0
 10
0.0
 20
0.0
 30
0.0
  3
$PAPER_SPACE
  1

  0
ENDBLK
  5
1D
 67
     1
  8
0
  0
BLOCK
  8
0
  2
A$CC496C78B
 70
     2
 10
0.0
 20
0.0
 30
0.0
  3
A$CC496C78B
  1

  0
ATTDEF
  5
A153
  8
DEFPOINTS
 10
-0.0000000134750735
 20
-0.0000000035004177
 30
0.0
 40
0.001
  1
BATHROOM SINK FAUCET
  3

  2
PRODUCT
 70
     0
1001
ACDBATTR
1070
     0
1070
     1
  0
ATTDEF
  5
A154
  8
DEFPOINTS
 10
-0.0000000134750735
 20
0.0016666631662474
 30
0.0
 40
0.001
  1
FAIRFAX
  3

  2
TRADENAME
 70
     0
1001
ACDBATTR
1070
     0
1070
     1
  0
ATTDEF
  5
A155
  8
DEFPOINTS
 10
-0.0000000134750735
 20
0.0033333298329126
 30
0.0
 40
0.001
  1
K-11549IN-4
  3

  2
MODELNUMBER
 70
     0
1001
ACDBATTR
1070
     0
1070
     1
  0
ENDBLK
  5
A159
  8
0
  0
BLOCK
  8
0
  2
_FILLED
 70
     0
 10
0.0
 20
0.0
 30
0.0
  3
_FILLED
  1

  0
SOLID
  5
B973
  8
0
  6
BYBLOCK
 62
     0
 10
0.0
 20
0.0
 30
0.0
 11
-1.0
 21
0.1666666667
 31
0.0
 12
-1.0
 22
-0.1666666667
 32
0.0
 13
-1.0
 23
-0.1666666667
 33
0.0
  0
ENDBLK
  5
B974
  8
0
  6
BYBLOCK
 62
     0
  0
ENDSEC
  0
SECTION
  2
ENTITIES
  0
ATTDEF
  5
7608
  8
DEFPOINTS
 10
4446.4229297500733082
 20
165.4475252405115953
 30
0.0
 40
0.001
  1
K-74053K-4
  3

  2
MODELNUMBER
 70
     0
1001
ACDBATTR
1070
     0
1070
     1
  0
ATTDEF
  5
7609
  8
DEFPOINTS
 10
4446.4229297500733082
 20
165.4458585738449017
 30
0.0
 40
0.001
  1
TAUT
  3

  2
TRADENAME
 70
     0
1001
ACDBATTR
1070
     0
1070
     1
  0
ATTDEF
  5
760A
  8
DEFPOINTS
 10
4446.4229297500733082
 20
165.4441919071782081
 30
0.0
 40
0.001
  1
KITCHEN  SINK FAUCET
  3

  2
PRODUCT
 70
     0
1001
ACDBATTR
1070
     0
1070
     1
  0
INSERT
  5
A15A
  8
0
 66
     1
  2
A$CC496C78B
 10
4340.9125275624146525
 20
141.4091978713580033
 30
0.0
  0
SEQEND
  5
A15B
  8
0
  0
INSERT
  5
A15C
  8
0
 66
     1
  2
A$CC496C78B
 10
4336.918191327526074
 20
141.5075808773540871
 30
0.0
  0
SEQEND
  5
A15D
  8
0
  0
LINE
  5
C56E
  8
0
 10
4446.781106882095628
 20
166.276737378408086
 30
0.0
 11
4448.0995457145254477
 21
166.276737378408086
 31
0.0
  0
ARC
  5
C56F
  8
0
 10
4446.4295846571039874
 20
165.4499503147661983
 30
0.0
 40
0.4724562674309974
 50
359.3474141665199113
 51
180.0018688100238933
  0
ARC
  5
C570
  8
0
 10
4446.781106882095628
 20
166.4667373784081121
 30
0.0
 40
0.19
 50
250.9277397433586998
 51
270.0
  0
ARC
  5
C571
  8
0
 10
4446.4295693348240093
 20
165.449965724808095
 30
0.0
 40
0.4881889764000002
 50
345.407449396467598
 51
194.5925506035322883
  0
ARC
  5
C572
  8
0
 10
4446.4295693348240093
 20
165.449965724808095
 30
0.0
 40
0.7086614173000001
 50
311.8069716886869855
 51
228.1896851006206077
  0
ARC
  5
C573
  8
0
 10
4446.4295693348240093
 20
165.449965724808095
 30
0.0
 40
0.7283464566999989
 50
310.4366074694503936
 51
229.5602069070363882
  0
ARC
  5
C574
  8
0
 10
4446.4295693348240093
 20
165.449965724808095
 30
0.0
 40
0.8858267716999982
 50
302.2285959501659818
 51
237.7690473650191905
  0
ARC
  5
C575
  8
0
 10
4448.0995457145254477
 20
166.257737378408109
 30
0.0
 40
0.019
 50
0.0000000000113991
 51
90.0
  0
ARC
  5
C576
  8
0
 10
4447.9989444145239759
 20
165.3440898199081062
 30
0.0
 40
0.8661417322999984
 50
72.7119315137158821
 51
82.0629436037606155
  0
LINE
  5
C577
  8
0
 10
4448.9777276187669486
 20
166.2767373783080984
 30
0.0
 11
4449.0629935742117596
 21
166.0918142531778869
 31
0.0
  0
LINE
  5
C578
  8
0
 10
4448.2699400812389285
 20
166.2767373783080984
 30
0.0
 11
4449.175174464338852
 21
166.2767373783080984
 31
0.0
  0
LINE
  5
C579
  8
0
 10
4449.1751736746391543
 20
166.091844495408111
 30
0.0
 11
4449.0643428207386023
 21
166.0918445051080994
 31
0.0
  0
LINE
  5
C57A
  8
0
 10
4449.0643417676301397
 20
164.8080869545781013
 30
0.0
 11
4448.9775345514317451
 21
164.6231940713080917
 31
0.0
  0
LINE
  5
C57B
  8
0
 10
4449.0643421839386065
 20
164.8080869541080915
 30
0.0
 11
4449.1751744644379869
 21
164.8080869536080968
 31
0.0
  0
LINE
  5
C57C
  8
0
 10
4449.1751744642388076
 20
164.6231940713080917
 30
0.0
 11
4448.2699400813380635
 21
164.6231940713080917
 31
0.0
  0
ARC
  5
C57D
  8
0
 10
4679.4446563952387805
 20
165.4499657238081909
 30
0.0
 40
230.4113086412999962
 50
179.8599101655007928
 51
180.1400898339992125
  0
ARC
  5
C57E
  8
0
 10
4449.0643745838533505
 20
166.0603243030273006
 30
0.0
 40
0.031520218084808
 50
90.0577373126264149
 51
179.4650376809410091
  0
ARC
  5
C57F
  8
0
 10
4449.0643775644830384
 20
164.8396106170168878
 30
0.0
 40
0.0315236827634731
 50
180.5424593798784088
 51
269.9356941802661254
  0
ARC
  5
C580
  8
0
 10
4449.1752044884588031
 20
166.0603728005287962
 30
0.0
 40
0.0314717099641897
 50
1.0877293550273539
 51
90.0560980672504456
  0
ARC
  5
C581
  8
0
 10
4449.1751983458889299
 20
164.8395823856266986
 30
0.0
 40
0.0314954410726662
 50
269.9565554135311913
 51
0.860020677954785
  0
CIRCLE
  5
C582
  8
0
 10
4448.6909930817391796
 20
165.4499657785081013
 30
0.0
 40
0.1285263355000114
  0
ARC
  5
C583
  8
0
 10
4448.5603635576226225
 20
166.0251614315708935
 30
0.0
 40
0.4738207179735169
 50
358.5688531539502151
 51
4.2915955450754488
  0
ARC
  5
C584
  8
0
 10
4448.4178030764824143
 20
164.8783345922101091
 30
0.0
 40
0.6162888777312744
 50
356.369694194006513
 51
0.768820753032062
  0
ARC
  5
C585
  8
0
 10
4449.1743173431186733
 20
166.2443643603789099
 30
0.0
 40
0.0323843626869031
 50
358.475229559175375
 51
88.4833679034405662
  0
ARC
  5
C586
  8
0
 10
4449.1743150930769843
 20
164.6555713453915928
 30
0.0
 40
0.0323886769701003
 50
271.5204115882069118
 51
1.6562361682687441
  0
ARC
  5
C587
  8
0
 10
4448.9863769802614115
 20
166.2257547972070029
 30
0.0
 40
0.0317400344145611
 50
89.5965051653567457
 51
166.6640387617887882
  0
ARC
  5
C588
  8
0
 10
4448.9863776226047776
 20
164.6741763267029057
 30
0.0
 40
0.0317397097630549
 50
193.336084568381807
 51
270.3458310207257114
  0
ARC
  5
C589
  8
0
 10
4454.888911380279751
 20
165.4499692560268898
 30
0.0
 40
5.9848735758068603
 50
172.4814218191864938
 51
187.5186494429069057
  0
ARC
  5
C58A
  8
0
 10
4448.2723495728887428
 20
166.2178389019279905
 30
0.0
 40
0.0589477410077369
 50
92.3426202859189402
 51
100.5161570599228043
  0
ARC
  5
C58B
  8
0
 10
4448.2632649877814401
 20
166.2682518006901944
 30
0.0
 40
0.0077282336956188
 50
102.5109031211859048
 51
141.4805156977569141
  0
ARC
  5
C58C
  8
0
 10
4448.2619572434714428
 20
166.2700504027702095
 30
0.0
 40
0.0056162952255539
 50
147.539185929213204
 51
180.2163157970524026
  0
ARC
  5
C58D
  8
0
 10
4448.2715099448332694
 20
164.6787133575643054
 30
0.0
 40
0.055541476553826
 50
259.712424695995594
 51
268.3803359443455747
  0
ARC
  5
C58E
  8
0
 10
4448.2632649877814401
 20
164.6316095028261088
 30
0.0
 40
0.0077282336956188
 50
218.5194843022430859
 51
257.4890968788141095
  0
ARC
  5
C58F
  8
0
 10
4448.2623672299032478
 20
164.6299286542370908
 30
0.0
 40
0.0060266344872272
 50
179.345784005562507
 51
211.313293146760202
  0
LINE
  5
C590
  8
0
 10
4448.118545714524771
 20
166.257737378408109
 30
0.0
 11
4448.118545714524771
 21
164.6435489341081109
 31
0.0
  0
LINE
  5
C591
  8
0
 10
4446.901979458139067
 20
164.6245489341081054
 30
0.0
 11
4448.0995457145254477
 21
164.6245489341081054
 31
0.0
  0
ARC
  5
C592
  8
0
 10
4448.0995457145254477
 20
164.6435489341081109
 30
0.0
 40
0.019
 50
270.0
 51
0.0
  0
ARC
  5
C593
  8
0
 10
4447.9989444145239759
 20
165.5571964926081989
 30
0.0
 40
0.8661417322999984
 50
277.9370563962394272
 51
287.2880684862840894
  0
LINE
  5
C594
  8
0
 10
4449.2066902389742609
 20
164.6565074671840136
 30
0.0
 11
4449.2066902389742609
 21
166.2435026408743113
 31
0.0
  0
LINE
  5
C595
  8
0
 10
4448.2563409882741325
 20
164.6299974661990859
 30
0.0
 11
4448.2563409882741325
 21
166.2700291989310983
 31
0.0
  0
LINE
  5
C597
  8
0
 10
4445.9571283899249465
 20
165.4499349047129897
 30
0.0
 11
4445.9571283899249465
 21
158.2730605764081986
 31
0.0
  0
LINE
  5
C598
  8
0
 10
4446.902010279724891
 20
165.4445692622082049
 30
0.0
 11
4446.902010279724891
 21
158.2730605764074028
 31
0.0
  0
ARC
  5
C599
  8
0
 10
4446.4295740880133962
 20
158.3081981576879969
 30
0.0
 40
0.4737505538367623
 50
184.2534736683003871
 51
355.7310203453699842
  0
ENDSEC
  0
EOF
