  0
SECTION
  2
HEADER
  9
$ACADVER
  1
AC1009
  9
$INSBASE
 10
4419.6588642500000788
 20
148.9683286977000876
 30
0.0
  9
$EXTMIN
 10
4418.7730374779430349
 20
148.9623665277642885
 30
0.0
  9
$EXTMAX
 10
4422.4281319956844527
 20
161.6376121559000865
 30
0.0
  9
$LIMMIN
 10
0.0
 20
0.0
  9
$LIMMAX
 10
11.6929133858000007
 20
8.2677165353999982
  9
$ORTHOMODE
 70
     0
  9
$REGENMODE
 70
     1
  9
$FILLMODE
 70
     1
  9
$QTEXTMODE
 70
     0
  9
$MIRRTEXT
 70
     0
  9
$DRAGMODE
 70
     2
  9
$LTSCALE
 40
0.6431102362
  9
$OSMODE
 70
  4095
  9
$ATTMODE
 70
     1
  9
$TEXTSIZE
 40
0.2
  9
$TRACEWID
 40
0.05
  9
$TEXTSTYLE
  7
STANDARD
  9
$CLAYER
  8
0
  9
$CELTYPE
  6
BYLAYER
  9
$CECOLOR
 62
   256
  9
$DIMSCALE
 40
1.0
  9
$DIMASZ
 40
0.1875
  9
$DIMEXO
 40
0.0625
  9
$DIMDLI
 40
0.4443307087
  9
$DIMRND
 40
0.0
  9
$DIMDLE
 40
0.0
  9
$DIMEXE
 40
0.125
  9
$DIMTP
 40
0.01
  9
$DIMTM
 40
0.01
  9
$DIMTXT
 40
2.0
  9
$DIMCEN
 40
0.1052362205
  9
$DIMTSZ
 40
0.0
  9
$DIMTOL
 70
     1
  9
$DIMLIM
 70
     0
  9
$DIMTIH
 70
     1
  9
$DIMTOH
 70
     1
  9
$DIMSE1
 70
     0
  9
$DIMSE2
 70
     0
  9
$DIMTAD
 70
     0
  9
$DIMZIN
 70
     0
  9
$DIMBLK
  1

  9
$DIMASO
 70
     1
  9
$DIMSHO
 70
     1
  9
$DIMPOST
  1
\X
  9
$DIMAPOST
  1

  9
$DIMALT
 70
     1
  9
$DIMALTD
 70
     2
  9
$DIMALTF
 40
25.3999999999999986
  9
$DIMLFAC
 40
1.0
  9
$DIMTOFL
 70
     0
  9
$DIMTVP
 40
0.0
  9
$DIMTIX
 70
     0
  9
$DIMSOXD
 70
     0
  9
$DIMSAH
 70
     0
  9
$DIMBLK1
  1

  9
$DIMBLK2
  1

  9
$DIMSTYLE
  2
STANDARD
  9
$DIMCLRD
 70
     0
  9
$DIMCLRE
 70
     0
  9
$DIMCLRT
 70
     0
  9
$DIMTFAC
 40
1.0
  9
$DIMGAP
 40
0.09
  9
$LUNITS
 70
     2
  9
$LUPREC
 70
     4
  9
$SKETCHINC
 40
0.1
  9
$FILLETRAD
 40
0.0
  9
$AUNITS
 70
     0
  9
$AUPREC
 70
     0
  9
$MENU
  1
.
  9
$ELEVATION
 40
0.0
  9
$PELEVATION
 40
0.0
  9
$THICKNESS
 40
0.0
  9
$LIMCHECK
 70
     0
  9
$BLIPMODE
 70
     0
  9
$CHAMFERA
 40
0.0
  9
$CHAMFERB
 40
0.0
  9
$SKPOLY
 70
     0
  9
$TDCREATE
 40
2458060.468368056230247
  9
$TDUPDATE
 40
2459383.4515740741044283
  9
$TDINDWG
 40
0.3903427083
  9
$TDUSRTIMER
 40
0.3903427083
  9
$USRTIMER
 70
     1
  9
$ANGBASE
 50
0.0
  9
$ANGDIR
 70
     0
  9
$PDMODE
 70
     0
  9
$PDSIZE
 40
0.3125
  9
$PLINEWID
 40
0.0
  9
$COORDS
 70
     1
  9
$SPLFRAME
 70
     0
  9
$SPLINETYPE
 70
     6
  9
$SPLINESEGS
 70
     8
  9
$ATTDIA
 70
     1
  9
$ATTREQ
 70
     1
  9
$HANDLING
 70
     1
  9
$HANDSEED
  5
B9D5
  9
$SURFTAB1
 70
     6
  9
$SURFTAB2
 70
     6
  9
$SURFTYPE
 70
     6
  9
$SURFU
 70
     6
  9
$SURFV
 70
     6
  9
$UCSNAME
  2

  9
$UCSORG
 10
0.0
 20
0.0
 30
0.0
  9
$UCSXDIR
 10
1.0
 20
0.0
 30
0.0
  9
$UCSYDIR
 10
0.0
 20
1.0
 30
0.0
  9
$PUCSNAME
  2

  9
$PUCSORG
 10
0.0
 20
0.0
 30
0.0
  9
$PUCSXDIR
 10
1.0
 20
0.0
 30
0.0
  9
$PUCSYDIR
 10
0.0
 20
1.0
 30
0.0
  9
$USERI1
 70
     0
  9
$USERI2
 70
     0
  9
$USERI3
 70
     0
  9
$USERI4
 70
     0
  9
$USERI5
 70
     0
  9
$USERR1
 40
0.0
  9
$USERR2
 40
0.0
  9
$USERR3
 40
0.0
  9
$USERR4
 40
0.0
  9
$USERR5
 40
0.0
  9
$WORLDVIEW
 70
     1
  9
$SHADEDGE
 70
     3
  9
$SHADEDIF
 70
    70
  9
$TILEMODE
 70
     1
  9
$MAXACTVP
 70
    64
  9
$PLIMCHECK
 70
     0
  9
$PEXTMIN
 10
1.0000000000000000E+20
 20
1.0000000000000000E+20
 30
1.0000000000000000E+20
  9
$PEXTMAX
 10
-1.0000000000000000E+20
 20
-1.0000000000000000E+20
 30
-1.0000000000000000E+20
  9
$PLIMMIN
 10
0.0
 20
0.0
  9
$PLIMMAX
 10
12.0
 20
9.0
  9
$UNITMODE
 70
     0
  9
$VISRETAIN
 70
     1
  9
$PLINEGEN
 70
     0
  9
$PSLTSCALE
 70
     1
  0
ENDSEC
  0
SECTION
  2
TABLES
  0
TABLE
  2
VPORT
 70
     1
  0
VPORT
  2
*ACTIVE
 70
     0
 10
0.0
 20
0.0
 11
1.0
 21
1.0
 12
391.813719502438687
 22
19.4256302109728303
 13
0.0
 23
0.0
 14
1.0
 24
1.0
 15
0.0
 25
0.0
 16
0.0
 26
0.0
 36
47.0568789906323275
 17
4028.786865234375
 27
135.8743591308592897
 37
0.0
 40
12.7757099263773206
 41
2.0410052910052912
 42
50.0
 43
0.0
 44
0.0
 50
0.0
 51
0.0
 71
     0
 72
   100
 73
     1
 74
     1
 75
     0
 76
     0
 77
     0
 78
     0
  0
ENDTAB
  0
TABLE
  2
LTYPE
 70
     2
  0
LTYPE
  2
CONTINUOUS
 70
     0
  3
Solid line
 72
    65
 73
     0
 40
0.0
  0
LTYPE
  2
PHANTOM2
 70
     0
  3
___ _ _ ___ _ _ ___ _ _ ___ _ _
 72
    65
 73
     6
 40
1.25
 49
0.625
 49
-0.125
 49
0.125
 49
-0.125
 49
0.125
 49
-0.125
  0
ENDTAB
  0
TABLE
  2
LAYER
 70
     2
  0
LAYER
  2
0
 70
     0
 62
   255
  6
CONTINUOUS
  0
LAYER
  2
DEFPOINTS
 70
     0
 62
     7
  6
CONTINUOUS
  0
ENDTAB
  0
TABLE
  2
STYLE
 70
     1
  0
STYLE
  2
STANDARD
 70
     0
 40
0.0
 41
0.8
 50
0.0
 71
     0
 42
0.2
  3
txt
  4

  0
ENDTAB
  0
TABLE
  2
VIEW
 70
     2
  0
ENDTAB
  0
TABLE
  2
UCS
 70
     0
  0
ENDTAB
  0
TABLE
  2
APPID
 70
     9
  0
APPID
  2
ACAD
 70
     0
  0
APPID
  2
ACAD_MLEADERVER
 70
     0
  0
APPID
  2
ACAD_EXEMPT_FROM_CAD_STANDARDS
 70
     0
  0
APPID
  2
ACAD_NAV_VCDISPLAY
 70
     0
  0
APPID
  2
ACAECLAYERSTANDARD
 70
     0
  0
APPID
  2
ACCMTRANSPARENCY
 70
     0
  0
APPID
  2
ACAD_DSTYLE_DIMJAG
 70
     0
  0
APPID
  2
ACAD_DSTYLE_DIMTALN
 70
     0
  0
APPID
  2
ACDBATTR
 70
     0
  0
ENDTAB
  0
TABLE
  2
DIMSTYLE
 70
     1
  0
DIMSTYLE
  2
STANDARD
 70
     0
  3

  4

  5

  6

  7

 40
1.0
 41
0.1875
 42
0.0625
 43
0.38
 44
0.125
 45
0.0
 46
0.0
 47
0.01
 48
0.01
140
0.15625
141
0.09
142
0.0
143
25.3999999999999986
144
1.0
145
0.0
146
1.0
147
0.09
 71
     1
 72
     0
 73
     1
 74
     1
 75
     0
 76
     0
 77
     0
 78
     4
170
     0
171
     2
172
     0
173
     0
174
     0
175
     0
176
     0
177
     0
178
     0
  0
ENDTAB
  0
ENDSEC
  0
SECTION
  2
BLOCKS
  0
BLOCK
  8
0
  2
$MODEL_SPACE
 70
     0
 10
0.0
 20
0.0
 30
0.0
  3
$MODEL_SPACE
  1

  0
ENDBLK
  5
21
  8
0
  0
BLOCK
 67
     1
  8
0
  2
$PAPER_SPACE
 70
     0
 10
0.0
 20
0.0
 30
0.0
  3
$PAPER_SPACE
  1

  0
ENDBLK
  5
1D
 67
     1
  8
0
  0
BLOCK
  8
0
  2
A$CC496C78B
 70
     2
 10
0.0
 20
0.0
 30
0.0
  3
A$CC496C78B
  1

  0
ATTDEF
  5
A153
  8
DEFPOINTS
 10
-0.0000000134750735
 20
-0.0000000035004177
 30
0.0
 40
0.001
  1
BATHROOM SINK FAUCET
  3

  2
PRODUCT
 70
     0
1001
ACDBATTR
1070
     0
1070
     1
  0
ATTDEF
  5
A154
  8
DEFPOINTS
 10
-0.0000000134750735
 20
0.0016666631662474
 30
0.0
 40
0.001
  1
FAIRFAX
  3

  2
TRADENAME
 70
     0
1001
ACDBATTR
1070
     0
1070
     1
  0
ATTDEF
  5
A155
  8
DEFPOINTS
 10
-0.0000000134750735
 20
0.0033333298329126
 30
0.0
 40
0.001
  1
K-11549IN-4
  3

  2
MODELNUMBER
 70
     0
1001
ACDBATTR
1070
     0
1070
     1
  0
ENDBLK
  5
A159
  8
0
  0
ENDSEC
  0
SECTION
  2
ENTITIES
  0
ATTDEF
  5
7608
  8
DEFPOINTS
 10
4419.6523931367009936
 20
148.9656998610975904
 30
0.0
 40
0.001
  1
K-74053W-4
  3

  2
MODELNUMBER
 70
     0
1001
ACDBATTR
1070
     0
1070
     1
  0
ATTDEF
  5
7609
  8
DEFPOINTS
 10
4419.6523931367009936
 20
148.9640331944308969
 30
0.0
 40
0.001
  1
TAUT
  3

  2
TRADENAME
 70
     0
1001
ACDBATTR
1070
     0
1070
     1
  0
ATTDEF
  5
760A
  8
DEFPOINTS
 10
4419.6523931367009936
 20
148.9623665277642885
 30
0.0
 40
0.001
  1
KITCHEN  SINK FAUCET
  3

  2
PRODUCT
 70
     0
1001
ACDBATTR
1070
     0
1070
     1
  0
INSERT
  5
A15A
  8
0
 66
     1
  2
A$CC496C78B
 10
4340.9125275624146525
 20
141.4091978713580033
 30
0.0
  0
SEQEND
  5
A15B
  8
0
  0
INSERT
  5
A15C
  8
0
 66
     1
  2
A$CC496C78B
 10
4336.918191327526074
 20
141.5075808773540871
 30
0.0
  0
SEQEND
  5
A15D
  8
0
  0
LINE
  5
B436
  8
0
 10
4420.131305194900051
 20
161.1651712110000858
 30
0.0
 11
4420.131305194900051
 21
153.4958877528000869
 31
0.0
  0
LINE
  5
B437
  8
0
 10
4420.5446910216996912
 20
148.9683286977000876
 30
0.0
 11
4418.7730374783013758
 21
148.9683286977000876
 31
0.0
  0
LINE
  5
B438
  8
0
 10
4421.3281555903004119
 20
152.0588798788000986
 30
0.0
 11
4420.7415392192997388
 21
152.0588798788000986
 31
0.0
  0
LINE
  5
B439
  8
0
 10
4422.0940311017848217
 20
152.059274320409088
 30
0.0
 11
4422.0478526675851754
 21
152.059274320409088
 31
0.0
  0
LINE
  5
B43A
  8
0
 10
4421.7741590532850751
 20
152.059274320409088
 30
0.0
 11
4421.4777827425841679
 21
152.059274320409088
 31
0.0
  0
LINE
  5
B43B
  8
0
 10
4422.0461214889846815
 20
152.0591208779090948
 30
0.0
 11
4422.0478526675851754
 21
152.059274320409088
 31
0.0
  0
LINE
  5
B43C
  8
0
 10
4422.1254795587847184
 20
152.0889527891091006
 30
0.0
 11
4422.2548204053846348
 21
154.3692682117091124
 31
0.0
  0
LINE
  5
B43D
  8
0
 10
4422.4281319932842962
 20
154.3674884709091089
 30
0.0
 11
4422.4281319932842962
 21
150.4372543732091003
 31
0.0
  0
LINE
  5
B43E
  8
0
 10
4418.7927247138004532
 20
153.4958877528000869
 30
0.0
 11
4420.5250037862006138
 21
153.4958877528000869
 31
0.0
  0
LINE
  5
B43F
  8
0
 10
4421.7419414738851628
 20
150.6813857923606861
 30
0.0
 11
4421.7419414738851628
 21
150.6517775229091001
 31
0.0
  0
LINE
  5
B440
  8
0
 10
4421.4777827425841679
 20
151.3351574107090869
 30
0.0
 11
4421.4777827425841679
 21
152.059274320409088
 31
0.0
  0
LINE
  5
B441
  8
0
 10
4422.3966359303849458
 20
154.3989845337090969
 30
0.0
 11
4422.2869764000852228
 21
154.3989845337090969
 31
0.0
  0
LINE
  5
B442
  8
0
 10
4421.347840629699931
 20
150.4250317712001106
 30
0.0
 11
4421.347840629699931
 21
152.0391846793000923
 31
0.0
  0
LINE
  5
B443
  8
0
 10
4421.8706537427206058
 20
150.4053614253571993
 30
0.0
 11
4421.5146694369850593
 21
151.1687722761091095
 31
0.0
  0
ARC
  5
B444
  8
0
 10
4421.220386168785808
 20
151.3383620893091006
 30
0.0
 40
0.8661417323
 50
278.4619147344935755
 51
306.6972329506176038
  0
ARC
  5
B445
  8
0
 10
4421.220386168785808
 20
151.1266102794091069
 30
0.0
 40
0.8661417323
 50
72.7119315102754058
 51
81.5380852655063961
  0
ARC
  5
B446
  8
0
 10
4421.8714835299861079
 20
151.3351574107090869
 30
0.0
 40
0.3937007874
 50
180.0
 51
204.9999987481986068
  0
ARC
  5
B447
  8
0
 10
4422.396648221484611
 20
154.3675007619096107
 30
0.0
 40
0.0314837741986912
 50
359.9776322092751002
 51
90.0223679726579604
  0
ARC
  5
B448
  8
0
 10
4422.2869366903569244
 20
154.3675713455810978
 30
0.0
 40
0.0314132132267246
 50
89.9275718665324746
 51
178.1056082164498946
  0
ARC
  5
B449
  8
0
 10
4421.3281979347493689
 20
150.4250040941655868
 30
0.0
 40
0.0196427144500981
 50
269.8764852379924832
 51
0.0807310922665953
  0
ARC
  5
B44A
  8
0
 10
4421.3281555884468617
 20
152.0391948349279971
 30
0.0
 40
0.0196850438720625
 50
359.9704407747988171
 51
89.9999946083652276
  0
ARC
  5
B44B
  8
0
 10
4420.5250022331129003
 20
153.4761989639179944
 30
0.0
 40
0.0196887889433481
 50
359.9890892264439231
 51
89.9954804080323356
  0
ARC
  5
B44C
  8
0
 10
4418.792718770776446
 20
153.4762064608634091
 30
0.0
 40
0.019681292833936
 50
89.9826987924784163
 51
180.0109095391808012
  0
ARC
  5
B44D
  8
0
 10
4421.732098954185858
 20
150.6517775229091001
 30
0.0
 40
0.0098425197
 50
306.6972329501052741
 51
0.0
  0
LINE
  5
B44E
  8
0
 10
4422.1769584752855735
 20
151.5652810266091137
 30
0.0
 11
4422.2555406458195648
 21
154.3686097831717063
 31
0.0
  0
ARC
  5
B44F
  8
0
 10
4422.2867960471312472
 20
154.3669046655454906
 30
0.0
 40
0.0320628759697992
 50
95.446581602844887
 51
175.7725511469429875
  0
ARC
  5
B450
  8
0
 10
4416.5286283555387854
 20
151.274394962732714
 30
0.0
 40
5.6558154004335357
 50
2.948098378265203
 51
8.2806083376885251
  0
ARC
  5
B451
  8
0
 10
4422.0940325849596775
 20
152.0907739857696015
 30
0.0
 40
0.0314996653953978
 50
269.9973022039890225
 51
356.6855170492494267
  0
ARC
  5
B452
  8
0
 10
4421.911030643957929
 20
152.8368315639642958
 30
0.0
 40
0.7893563502859015
 50
260.3207544460116196
 51
279.854137033125312
  0
ARC
  5
B453
  8
0
 10
4421.7721356206830023
 20
152.0286803876722956
 30
0.0
 40
0.0306607729810858
 50
78.3742277844533959
 51
86.216061904107832
  0
ARC
  5
B454
  8
0
 10
4422.395168141866634
 20
150.438309480670199
 30
0.0
 40
0.0329807330428388
 50
267.4492418480368201
 51
358.1667017200848022
  0
ARC
  5
B455
  8
0
 10
4420.7415815218782882
 20
150.208468732850605
 30
0.0
 40
0.1968926970509839
 50
89.9876899653158659
 51
179.9949222388709984
  0
ARC
  5
B456
  8
0
 10
4420.7434681019058189
 20
152.25765915525389
 30
0.0
 40
0.1987886348250541
 50
180.5559645542248006
 51
269.4440398116910274
  0
ARC
  5
B457
  8
0
 10
4425.5167209437850033
 20
154.2432285201770981
 30
0.0
 40
6.4031436902605456
 50
211.3874461672016025
 51
219.0589008308263033
  0
ARC
  5
B458
  8
0
 10
4427.2626625995753784
 20
146.9293796019834986
 30
0.0
 40
8.5732830895366767
 50
141.5908330950340996
 51
146.5411892335019957
  0
ARC
  5
B459
  8
0
 10
4421.1257922040349513
 20
150.9737812180557057
 30
0.0
 40
1.2236058867002131
 50
146.1051022040387011
 51
160.3516761543010034
  0
ARC
  5
B45A
  8
0
 10
4420.9180025779069183
 20
151.4031315592038993
 30
0.0
 40
0.9986245218267589
 50
198.8994230303142103
 51
209.7018374185877008
  0
ARC
  5
B45B
  8
0
 10
4420.4109461775942691
 20
151.2321314445983944
 30
0.0
 40
0.463522463875519
 50
160.7155189277544878
 51
199.2032945179599039
  0
ARC
  5
B45C
  8
0
 10
4419.2696297516076811
 20
158.0841712563027954
 30
0.0
 40
0.0832592215487412
 50
136.3376643972214026
 51
177.9598660063251998
  0
ARC
  5
B45D
  8
0
 10
4419.3790276534982695
 20
157.9824985560825894
 30
0.0
 40
0.2326039234801894
 50
114.3988316478919955
 51
136.8246258955192047
  0
ARC
  5
B45E
  8
0
 10
4419.63568119062802
 20
157.3415943659722984
 30
0.0
 40
0.9228116233312001
 50
88.5604524433477849
 51
112.4727319864771005
  0
LINE
  5
B45F
  8
0
 10
4419.6428846431372222
 20
158.1459537760001126
 30
0.0
 11
4419.6748438569647988
 21
158.1459537760001126
 31
0.0
  0
ARC
  5
B460
  8
0
 10
4419.6417860200217547
 20
158.1530024195575095
 30
0.0
 40
0.0066903659307109
 50
236.0025398122836009
 51
270.2610790364366835
  0
ARC
  5
B461
  8
0
 10
4419.6361821710879667
 20
158.1526442650315971
 30
0.0
 40
0.0084759512537552
 50
311.6626616618895014
 51
0.5023083471682253
  0
LINE
  5
B462
  8
0
 10
4419.6446577965998586
 20
158.1680762126001127
 30
0.0
 11
4419.6446577965998586
 21
158.1527185722000866
 31
0.0
  0
LINE
  5
B463
  8
0
 10
4419.6380450607448438
 20
158.1474556889924941
 30
0.0
 11
4419.6233120914030224
 21
158.1570149943001127
 31
0.0
  0
LINE
  5
B464
  8
0
 10
4419.6418165058357772
 20
158.1463121230870001
 30
0.0
 11
4419.6423424843997054
 21
158.1460503542000993
 31
0.0
  0
LINE
  5
B465
  8
0
 10
4419.6423424843997054
 20
158.1460503542000993
 30
0.0
 11
4419.6428846431372222
 21
158.1459537760001126
 31
0.0
  0
LINE
  5
B466
  8
0
 10
4419.6428863906776314
 20
158.1680762126001127
 30
0.0
 11
4419.674842109421661
 21
158.1680762126001127
 31
0.0
  0
ARC
  5
B467
  8
0
 10
4419.6419542397243276
 20
158.1760837890626874
 30
0.0
 40
0.0076504691977244
 50
226.6060684876320011
 51
268.9684294317953004
  0
LINE
  5
B468
  8
0
 10
4419.6418165057975784
 20
158.1684345598006018
 30
0.0
 11
4419.6428863906776314
 21
158.1680762126001127
 31
0.0
  0
LINE
  5
B469
  8
0
 10
4419.6428846431372222
 20
158.1238313393000965
 30
0.0
 11
4419.6748438569647988
 21
158.1238313393000965
 31
0.0
  0
ARC
  5
B46A
  8
0
 10
4419.6417860200217547
 20
158.1308799828574081
 30
0.0
 40
0.0066903659307109
 50
236.0025398122836009
 51
270.2610790364366835
  0
ARC
  5
B46B
  8
0
 10
4419.6361821710879667
 20
158.1305218283316094
 30
0.0
 40
0.0084759512537552
 50
311.6626616618895014
 51
0.5023083471682253
  0
LINE
  5
B46C
  8
0
 10
4419.6446577965998586
 20
158.1459537759000966
 30
0.0
 11
4419.6446577965998586
 21
158.1305961355000989
 31
0.0
  0
LINE
  5
B46D
  8
0
 10
4419.6380450607448438
 20
158.1253332522925064
 30
0.0
 11
4419.6233120914030224
 21
158.1348925576000966
 31
0.0
  0
LINE
  5
B46E
  8
0
 10
4419.6418165058357772
 20
158.1241896863870124
 30
0.0
 11
4419.6423424843997054
 21
158.1239279175001116
 31
0.0
  0
LINE
  5
B46F
  8
0
 10
4419.6423424843997054
 20
158.1239279175001116
 30
0.0
 11
4419.6428846431372222
 21
158.1238313393000965
 31
0.0
  0
LINE
  5
B470
  8
0
 10
4419.6428846431372222
 20
158.1017089027000964
 30
0.0
 11
4419.674843857014821
 21
158.1017089027000964
 31
0.0
  0
ARC
  5
B471
  8
0
 10
4419.6417860200217547
 20
158.108757546257408
 30
0.0
 40
0.0066903659307109
 50
236.0025398122836009
 51
270.2610790364366835
  0
ARC
  5
B472
  8
0
 10
4419.6361821710879667
 20
158.1083993917316093
 30
0.0
 40
0.0084759512537552
 50
311.6626616618895014
 51
0.5023083471682253
  0
LINE
  5
B473
  8
0
 10
4419.6446577965998586
 20
158.1238313393000965
 30
0.0
 11
4419.6446577965998586
 21
158.1084736989000987
 31
0.0
  0
LINE
  5
B474
  8
0
 10
4419.6380450607448438
 20
158.1032108156925062
 30
0.0
 11
4419.6233120914030224
 21
158.1127701210000964
 31
0.0
  0
LINE
  5
B475
  8
0
 10
4419.6418165058357772
 20
158.1020672497870123
 30
0.0
 11
4419.6423424843997054
 21
158.1018054809001114
 31
0.0
  0
LINE
  5
B476
  8
0
 10
4419.6423424843997054
 20
158.1018054809001114
 30
0.0
 11
4419.6428846431372222
 21
158.1017089027000964
 31
0.0
  0
LINE
  5
B477
  8
0
 10
4419.6428846431372222
 20
158.0799448133001022
 30
0.0
 11
4419.674843857014821
 21
158.0799448133001022
 31
0.0
  0
ARC
  5
B478
  8
0
 10
4419.6417860200217547
 20
158.086993456857499
 30
0.0
 40
0.0066903659307109
 50
236.0025398122836009
 51
270.2610790364366835
  0
ARC
  5
B479
  8
0
 10
4419.6361821710879667
 20
158.0866353023315867
 30
0.0
 40
0.0084759512537552
 50
311.6626616618895014
 51
0.5023083471682253
  0
LINE
  5
B47A
  8
0
 10
4419.6446577965998586
 20
158.1017089027000964
 30
0.0
 11
4419.6446577965998586
 21
158.0867096095001045
 31
0.0
  0
LINE
  5
B47B
  8
0
 10
4419.6380450607448438
 20
158.081446726292512
 30
0.0
 11
4419.6233120913539096
 21
158.0906476844000963
 31
0.0
  0
LINE
  5
B47C
  8
0
 10
4419.6418165058357772
 20
158.0803031603869897
 30
0.0
 11
4419.6423424843997054
 21
158.0800413915000888
 31
0.0
  0
LINE
  5
B47D
  8
0
 10
4419.6423424843997054
 20
158.0800413915000888
 30
0.0
 11
4419.6428846431372222
 21
158.0799448133001022
 31
0.0
  0
LINE
  5
B47E
  8
0
 10
4419.6428846431372222
 20
158.0574640295000961
 30
0.0
 11
4419.6748438569647988
 21
158.0574640295000961
 31
0.0
  0
ARC
  5
B47F
  8
0
 10
4419.6417860200217547
 20
158.064512673057493
 30
0.0
 40
0.0066903659307109
 50
236.0025398122836009
 51
270.2610790364366835
  0
LINE
  5
B480
  8
0
 10
4419.6380450607448438
 20
158.058965942492506
 30
0.0
 11
4419.6233120913539096
 21
158.0688835950001021
 31
0.0
  0
LINE
  5
B481
  8
0
 10
4419.6418165058357772
 20
158.0578223765870121
 30
0.0
 11
4419.6423424843997054
 21
158.0575606077001112
 31
0.0
  0
LINE
  5
B482
  8
0
 10
4419.6423424843997054
 20
158.0575606077001112
 30
0.0
 11
4419.6428846431372222
 21
158.0574640295000961
 31
0.0
  0
LINE
  5
B483
  8
0
 10
4419.6428846431372222
 20
158.035341592900096
 30
0.0
 11
4419.6748438569647988
 21
158.035341592900096
 31
0.0
  0
ARC
  5
B484
  8
0
 10
4419.6417860200217547
 20
158.0423902364574076
 30
0.0
 40
0.0066903659307109
 50
236.0025398122836009
 51
270.2610790364366835
  0
ARC
  5
B485
  8
0
 10
4419.6361821710879667
 20
158.0420320819316089
 30
0.0
 40
0.0084759512537552
 50
311.6626616618895014
 51
0.5023083471682253
  0
LINE
  5
B486
  8
0
 10
4419.6446577965998586
 20
158.0574640295000961
 30
0.0
 11
4419.6446577965998586
 21
158.0421063891000983
 31
0.0
  0
LINE
  5
B487
  8
0
 10
4419.6380450607448438
 20
158.0368435058925058
 30
0.0
 11
4419.6233120914030224
 21
158.046402811200096
 31
0.0
  0
LINE
  5
B488
  8
0
 10
4419.6418165058357772
 20
158.0356999399870119
 30
0.0
 11
4419.6423424843997054
 21
158.035438171100111
 31
0.0
  0
LINE
  5
B489
  8
0
 10
4419.6423424843997054
 20
158.035438171100111
 30
0.0
 11
4419.6428846431372222
 21
158.035341592900096
 31
0.0
  0
LINE
  5
B48A
  8
0
 10
4419.6428846431372222
 20
158.0132191562001083
 30
0.0
 11
4419.6748438569647988
 21
158.0132191562001083
 31
0.0
  0
ARC
  5
B48B
  8
0
 10
4419.6417860200217547
 20
158.0202677997575051
 30
0.0
 40
0.0066903659307109
 50
236.0025398122836009
 51
270.2610790364366835
  0
ARC
  5
B48C
  8
0
 10
4419.6361821710879667
 20
158.0199096452315928
 30
0.0
 40
0.0084759512537552
 50
311.6626616618895014
 51
0.5023083471682253
  0
LINE
  5
B48D
  8
0
 10
4419.6446577965998586
 20
158.0353415928001084
 30
0.0
 11
4419.6446577965998586
 21
158.0199839524001106
 31
0.0
  0
LINE
  5
B48E
  8
0
 10
4419.6380450607448438
 20
158.0147210691924897
 30
0.0
 11
4419.6233120914030224
 21
158.0242803745001083
 31
0.0
  0
LINE
  5
B48F
  8
0
 10
4419.6418165058357772
 20
158.0135775032869958
 30
0.0
 11
4419.6423424843997054
 21
158.0133157344000949
 31
0.0
  0
LINE
  5
B490
  8
0
 10
4419.6423424843997054
 20
158.0133157344000949
 30
0.0
 11
4419.6428846431372222
 21
158.0132191562001083
 31
0.0
  0
LINE
  5
B491
  8
0
 10
4419.6428846430862905
 20
157.9910967196001081
 30
0.0
 11
4419.674843857014821
 21
157.9910967196001081
 31
0.0
  0
ARC
  5
B492
  8
0
 10
4419.641786019972642
 20
157.998145363157505
 30
0.0
 40
0.0066903659307109
 50
236.0025398122836009
 51
270.2610790364366835
  0
ARC
  5
B493
  8
0
 10
4419.6361821710379445
 20
157.9977872086315926
 30
0.0
 40
0.0084759512537552
 50
311.6626616618895014
 51
0.5023083471682253
  0
LINE
  5
B494
  8
0
 10
4419.6446577965489269
 20
158.0132191562001083
 30
0.0
 11
4419.6446577965489269
 21
157.9978615158001105
 31
0.0
  0
LINE
  5
B495
  8
0
 10
4419.6380450606948216
 20
157.9925986325924896
 30
0.0
 11
4419.6233120913539096
 21
158.0021579379001082
 31
0.0
  0
LINE
  5
B496
  8
0
 10
4419.641816505785755
 20
157.9914550666869957
 30
0.0
 11
4419.6423424843496832
 21
157.9911932978000948
 31
0.0
  0
LINE
  5
B497
  8
0
 10
4419.6423424843496832
 20
157.9911932978000948
 30
0.0
 11
4419.6428846430862905
 21
157.9910967196001081
 31
0.0
  0
LINE
  5
B498
  8
0
 10
4419.6428846431372222
 20
157.968974283000108
 30
0.0
 11
4419.6748438569647988
 21
157.968974283000108
 31
0.0
  0
ARC
  5
B499
  8
0
 10
4419.6417860200217547
 20
157.9760229265573912
 30
0.0
 40
0.0066903659307109
 50
236.0025398122836009
 51
270.2610790364366835
  0
ARC
  5
B49A
  8
0
 10
4419.6361821710879667
 20
157.9756647720315925
 30
0.0
 40
0.0084759512537552
 50
311.6626616618895014
 51
0.5023083471682253
  0
LINE
  5
B49B
  8
0
 10
4419.6446577965998586
 20
157.9910967196001081
 30
0.0
 11
4419.6446577965998586
 21
157.9757390792001104
 31
0.0
  0
LINE
  5
B49C
  8
0
 10
4419.6380450607448438
 20
157.9704761959924895
 30
0.0
 11
4419.6233120914030224
 21
157.9800355013001081
 31
0.0
  0
LINE
  5
B49D
  8
0
 10
4419.6418165058357772
 20
157.9693326300869956
 30
0.0
 11
4419.6423424843997054
 21
157.9690708612000947
 31
0.0
  0
LINE
  5
B49E
  8
0
 10
4419.6423424843997054
 20
157.9690708612000947
 30
0.0
 11
4419.6428846431372222
 21
157.968974283000108
 31
0.0
  0
LINE
  5
B49F
  8
0
 10
4419.5917414105360876
 20
158.1348925577001125
 30
0.0
 11
4419.6233120914030224
 21
158.1348925576000966
 31
0.0
  0
ARC
  5
B4A0
  8
0
 10
4419.5906427874224391
 20
158.1419412012575094
 30
0.0
 40
0.0066903659307109
 50
236.0025398122836009
 51
270.2610790364366835
  0
ARC
  5
B4A1
  8
0
 10
4419.5850389384877417
 20
158.1415830467315971
 30
0.0
 40
0.0084759512537552
 50
311.6626616618895014
 51
0.5023083471682253
  0
LINE
  5
B4A2
  8
0
 10
4419.5935145640014525
 20
158.1570149943001127
 30
0.0
 11
4419.5935145640014525
 21
158.1416573539000865
 31
0.0
  0
LINE
  5
B4A3
  8
0
 10
4419.5869018281464378
 20
158.136394470692494
 30
0.0
 11
4419.5721688588037068
 21
158.1459537760001126
 31
0.0
  0
LINE
  5
B4A4
  8
0
 10
4419.5906732732346427
 20
158.1352509047870001
 30
0.0
 11
4419.5911992518003899
 21
158.1349891359000992
 31
0.0
  0
LINE
  5
B4A5
  8
0
 10
4419.5911992518003899
 20
158.1349891359000992
 30
0.0
 11
4419.5917414105360876
 21
158.1348925577001125
 31
0.0
  0
LINE
  5
B4A6
  8
0
 10
4419.5917431580783159
 20
158.1570149943001127
 30
0.0
 11
4419.6237035924232259
 21
158.1570149943001127
 31
0.0
  0
ARC
  5
B4A7
  8
0
 10
4419.5922938527501174
 20
158.168658979226592
 30
0.0
 40
0.0114013989041761
 50
233.8025588588388928
 51
261.8283798250254222
  0
LINE
  5
B4A8
  8
0
 10
4419.5906732731991724
 20
158.1573733415006018
 30
0.0
 11
4419.5917431580783159
 21
158.1570149943001127
 31
0.0
  0
LINE
  5
B4A9
  8
0
 10
4419.5917414105360876
 20
158.1127701210000964
 30
0.0
 11
4419.6233120914030224
 21
158.1127701210000964
 31
0.0
  0
ARC
  5
B4AA
  8
0
 10
4419.5906427874224391
 20
158.1198187645574933
 30
0.0
 40
0.0066903659307109
 50
236.0025398122836009
 51
270.2610790364366835
  0
ARC
  5
B4AB
  8
0
 10
4419.5850389384877417
 20
158.1194606100316093
 30
0.0
 40
0.0084759512537552
 50
311.6626616618895014
 51
0.5023083471682253
  0
LINE
  5
B4AC
  8
0
 10
4419.5935145640014525
 20
158.1348925576000966
 30
0.0
 11
4419.5935145640014525
 21
158.1195349172000988
 31
0.0
  0
LINE
  5
B4AD
  8
0
 10
4419.5869018281464378
 20
158.1142720339925063
 30
0.0
 11
4419.5721688588037068
 21
158.1238313393000965
 31
0.0
  0
LINE
  5
B4AE
  8
0
 10
4419.5906732732346427
 20
158.1131284680870124
 30
0.0
 11
4419.5911992518003899
 21
158.1128666992001115
 31
0.0
  0
LINE
  5
B4AF
  8
0
 10
4419.5911992518003899
 20
158.1128666992001115
 30
0.0
 11
4419.5917414105360876
 21
158.1127701210000964
 31
0.0
  0
LINE
  5
B4B0
  8
0
 10
4419.5917414105360876
 20
158.0906476844000963
 30
0.0
 11
4419.6233120913539096
 21
158.0906476844000963
 31
0.0
  0
ARC
  5
B4B1
  8
0
 10
4419.5906427874224391
 20
158.0976963279574079
 30
0.0
 40
0.0066903659307109
 50
236.0025398122836009
 51
270.2610790364366835
  0
ARC
  5
B4B2
  8
0
 10
4419.5850389384877417
 20
158.0973381734316092
 30
0.0
 40
0.0084759512537552
 50
311.6626616618895014
 51
0.5023083471682253
  0
LINE
  5
B4B3
  8
0
 10
4419.5935145640014525
 20
158.1127701210000964
 30
0.0
 11
4419.5935145640014525
 21
158.0974124806000987
 31
0.0
  0
LINE
  5
B4B4
  8
0
 10
4419.5869018281464378
 20
158.0921495973925062
 30
0.0
 11
4419.5721688588037068
 21
158.1017089027000964
 31
0.0
  0
LINE
  5
B4B5
  8
0
 10
4419.5906732732346427
 20
158.0910060314870123
 30
0.0
 11
4419.5911992518003899
 21
158.0907442626001114
 31
0.0
  0
LINE
  5
B4B6
  8
0
 10
4419.5911992518003899
 20
158.0907442626001114
 30
0.0
 11
4419.5917414105360876
 21
158.0906476844000963
 31
0.0
  0
LINE
  5
B4B7
  8
0
 10
4419.5917414105360876
 20
158.0688835950001021
 30
0.0
 11
4419.6233120913539096
 21
158.0688835950001021
 31
0.0
  0
ARC
  5
B4B8
  8
0
 10
4419.5906427874224391
 20
158.0759322385574137
 30
0.0
 40
0.0066903659307109
 50
236.0025398122836009
 51
270.2610790364366835
  0
ARC
  5
B4B9
  8
0
 10
4419.5850389384877417
 20
158.0755740840315866
 30
0.0
 40
0.0084759512537552
 50
311.6626616618895014
 51
0.5023083471682253
  0
LINE
  5
B4BA
  8
0
 10
4419.5935145640014525
 20
158.0906476844000963
 30
0.0
 11
4419.5935145640014525
 21
158.0756483912001045
 31
0.0
  0
LINE
  5
B4BB
  8
0
 10
4419.5869018281464378
 20
158.070385507992512
 30
0.0
 11
4419.5726021822201801
 21
158.0796636567511086
 31
0.0
  0
LINE
  5
B4BC
  8
0
 10
4419.5906732732346427
 20
158.0692419420869896
 30
0.0
 11
4419.5911992518003899
 21
158.0689801732000888
 31
0.0
  0
LINE
  5
B4BD
  8
0
 10
4419.5911992518003899
 20
158.0689801732000888
 30
0.0
 11
4419.5917414105360876
 21
158.0688835950001021
 31
0.0
  0
LINE
  5
B4BE
  8
0
 10
4419.5917414105360876
 20
158.046402811200096
 30
0.0
 11
4419.6233120914030224
 21
158.046402811200096
 31
0.0
  0
ARC
  5
B4BF
  8
0
 10
4419.5906427874224391
 20
158.0534514547574076
 30
0.0
 40
0.0066903659307109
 50
236.0025398122836009
 51
270.2610790364366835
  0
ARC
  5
B4C0
  8
0
 10
4419.5850389384877417
 20
158.053093300231609
 30
0.0
 40
0.0084759512537552
 50
311.6626616618895014
 51
0.5023083471682253
  0
LINE
  5
B4C1
  8
0
 10
4419.5935145640014525
 20
158.0688835950001021
 30
0.0
 11
4419.5935145640014525
 21
158.0531676074000984
 31
0.0
  0
LINE
  5
B4C2
  8
0
 10
4419.5869018281464378
 20
158.0479047241925059
 30
0.0
 11
4419.5721688588037068
 21
158.0574640295000961
 31
0.0
  0
LINE
  5
B4C3
  8
0
 10
4419.5906732732346427
 20
158.046761158287012
 30
0.0
 11
4419.5911992518003899
 21
158.0464993894001111
 31
0.0
  0
LINE
  5
B4C4
  8
0
 10
4419.5911992518003899
 20
158.0464993894001111
 30
0.0
 11
4419.5917414105360876
 21
158.046402811200096
 31
0.0
  0
LINE
  5
B4C5
  8
0
 10
4419.5917414105360876
 20
158.0242803746000959
 30
0.0
 11
4419.6233120912502272
 21
158.0242803746000959
 31
0.0
  0
ARC
  5
B4C6
  8
0
 10
4419.5906427874224391
 20
158.0313290181574075
 30
0.0
 40
0.0066903659307109
 50
236.0025398122836009
 51
270.2610790364366835
  0
ARC
  5
B4C7
  8
0
 10
4419.5850389384877417
 20
158.0309708636316088
 30
0.0
 40
0.0084759512537552
 50
311.6626616618895014
 51
0.5023083471682253
  0
LINE
  5
B4C8
  8
0
 10
4419.5935145640014525
 20
158.046402811200096
 30
0.0
 11
4419.5935145640014525
 21
158.0310451708000983
 31
0.0
  0
LINE
  5
B4C9
  8
0
 10
4419.5869018281464378
 20
158.0257822875925058
 30
0.0
 11
4419.5721688588037068
 21
158.035341592900096
 31
0.0
  0
LINE
  5
B4CA
  8
0
 10
4419.5906732732346427
 20
158.0246387216870119
 30
0.0
 11
4419.5911992518003899
 21
158.024376952800111
 31
0.0
  0
LINE
  5
B4CB
  8
0
 10
4419.5911992518003899
 20
158.024376952800111
 30
0.0
 11
4419.5917414105360876
 21
158.0242803746000959
 31
0.0
  0
LINE
  5
B4CC
  8
0
 10
4419.5917414105360876
 20
158.0021579379001082
 30
0.0
 11
4419.6233120913539096
 21
158.0021579379001082
 31
0.0
  0
ARC
  5
B4CD
  8
0
 10
4419.5906427874224391
 20
158.0092065814573914
 30
0.0
 40
0.0066903659307109
 50
236.0025398122836009
 51
270.2610790364366835
  0
ARC
  5
B4CE
  8
0
 10
4419.5850389384877417
 20
158.0088484269315927
 30
0.0
 40
0.0084759512537552
 50
311.6626616618895014
 51
0.5023083471682253
  0
LINE
  5
B4CF
  8
0
 10
4419.5935145640014525
 20
158.0242803745001083
 30
0.0
 11
4419.5935145640014525
 21
158.0089227341001106
 31
0.0
  0
LINE
  5
B4D0
  8
0
 10
4419.5869018281464378
 20
158.0036598508924897
 30
0.0
 11
4419.5721688588037068
 21
158.0132191562001083
 31
0.0
  0
LINE
  5
B4D1
  8
0
 10
4419.5906732732346427
 20
158.0025162849869957
 30
0.0
 11
4419.5911992518003899
 21
158.0022545161000949
 31
0.0
  0
LINE
  5
B4D2
  8
0
 10
4419.5911992518003899
 20
158.0022545161000949
 30
0.0
 11
4419.5917414105360876
 21
158.0021579379001082
 31
0.0
  0
LINE
  5
B4D3
  8
0
 10
4419.5917414104860654
 20
157.9800355013001081
 30
0.0
 11
4419.6237006245146404
 21
157.9800355013001081
 31
0.0
  0
ARC
  5
B4D4
  8
0
 10
4419.5906427873724169
 20
157.9870841448573913
 30
0.0
 40
0.0066903659307109
 50
236.0025398122836009
 51
270.2610790364366835
  0
ARC
  5
B4D5
  8
0
 10
4419.58503893843681
 20
157.9867259903315926
 30
0.0
 40
0.0084759512537552
 50
311.6626616618895014
 51
0.5023083471682253
  0
LINE
  5
B4D6
  8
0
 10
4419.5935145639496113
 20
158.0021579379001082
 30
0.0
 11
4419.5935145639496113
 21
157.9868002975001104
 31
0.0
  0
LINE
  5
B4D7
  8
0
 10
4419.5869018280964156
 20
157.9815374142924895
 30
0.0
 11
4419.5721688587545941
 21
157.9910967196001081
 31
0.0
  0
LINE
  5
B4D8
  8
0
 10
4419.5906732731846205
 20
157.9803938483869956
 30
0.0
 11
4419.5911992517503677
 21
157.9801320795000947
 31
0.0
  0
LINE
  5
B4D9
  8
0
 10
4419.5911992517503677
 20
157.9801320795000947
 30
0.0
 11
4419.5917414104860654
 21
157.9800355013001081
 31
0.0
  0
LINE
  5
B4DA
  8
0
 10
4419.5917414105360876
 20
157.957913064700108
 30
0.0
 11
4419.6237043954006367
 21
157.957913064700108
 31
0.0
  0
ARC
  5
B4DB
  8
0
 10
4419.5906427874224391
 20
157.9649617082575048
 30
0.0
 40
0.0066903659307109
 50
236.0025398122836009
 51
270.2610790364366835
  0
ARC
  5
B4DC
  8
0
 10
4419.5850389384877417
 20
157.9646035537315925
 30
0.0
 40
0.0084759512537552
 50
311.6626616618895014
 51
0.5023083471682253
  0
LINE
  5
B4DD
  8
0
 10
4419.5935145640014525
 20
157.9800355013001081
 30
0.0
 11
4419.5935145640014525
 21
157.9646778609001103
 31
0.0
  0
LINE
  5
B4DE
  8
0
 10
4419.5869018281464378
 20
157.9594149776924894
 30
0.0
 11
4419.5721688588037068
 21
157.968974283000108
 31
0.0
  0
LINE
  5
B4DF
  8
0
 10
4419.5906732732346427
 20
157.9582714117869955
 30
0.0
 11
4419.5911992518003899
 21
157.9580096429000946
 31
0.0
  0
LINE
  5
B4E0
  8
0
 10
4419.5911992518003899
 20
157.9580096429000946
 30
0.0
 11
4419.5917414105360876
 21
157.957913064700108
 31
0.0
  0
ARC
  5
B4E1
  8
0
 10
4419.6584672822691573
 20
157.3469367562624939
 30
0.0
 40
0.823875486725104
 50
89.9723931835781343
 51
94.9479320172959262
  0
ARC
  5
B4E2
  8
0
 10
4419.632624522387232
 20
157.5670219610194067
 30
0.0
 40
0.6024194577673572
 50
94.3045965057458346
 51
108.6419776646554993
  0
ARC
  5
B4E3
  8
0
 10
4419.4968646130455454
 20
157.9513970091842054
 30
0.0
 40
0.1949001440628462
 50
106.9453984262477064
 51
136.1774112644179127
  0
ARC
  5
B4E4
  8
0
 10
4419.3988289340795745
 20
158.049734213494105
 30
0.0
 40
0.05616102251275
 50
139.3073528308808022
 51
172.0638822326654918
  0
ARC
  5
B4E5
  8
0
 10
4419.3904795099333569
 20
158.0590720543044085
 30
0.0
 40
0.0473002448962113
 50
181.9187878292227936
 51
226.7268917450109029
  0
ARC
  5
B4E6
  8
0
 10
4419.5053454717090062
 20
158.1858817648692934
 30
0.0
 40
0.2183924563451183
 50
227.5905409913958977
 51
253.286204483533794
  0
ARC
  5
B4E7
  8
0
 10
4419.6498164487966278
 20
158.6384127694155097
 30
0.0
 40
0.6934028483162136
 50
252.6066697360535045
 51
270.7476397575665032
  0
ARC
  5
B4E8
  8
0
 10
4419.6247992476273794
 20
157.9870841448573913
 30
0.0
 40
0.0066903659307109
 50
269.7389209635633165
 51
303.9974601877163991
  0
ARC
  5
B4E9
  8
0
 10
4419.6304030965620768
 20
157.9867259903315926
 30
0.0
 40
0.0084759512537552
 50
179.4976916528318043
 51
228.3373383381106123
  0
LINE
  5
B4EA
  8
0
 10
4419.6285402069051997
 20
157.9815374142924895
 30
0.0
 11
4419.6432731762461117
 21
157.9910967196001081
 31
0.0
  0
LINE
  5
B4EB
  8
0
 10
4419.6247687618142663
 20
157.9803938483869956
 30
0.0
 11
4419.6242427832503381
 21
157.9801320795000947
 31
0.0
  0
LINE
  5
B4EC
  8
0
 10
4419.6242427832503381
 20
157.9801320795000947
 30
0.0
 11
4419.6237006245146404
 21
157.9800355013001081
 31
0.0
  0
LINE
  5
B4ED
  8
0
 10
4419.6219274711502294
 20
158.0021579379001082
 30
0.0
 11
4419.6219274711502294
 21
157.9868002975001104
 31
0.0
  0
ARC
  5
B4EE
  8
0
 10
4419.6244107144675581
 20
158.1419412012575094
 30
0.0
 40
0.0066903659307109
 50
269.7389209635633165
 51
303.9974601877163991
  0
LINE
  5
B4EF
  8
0
 10
4419.6281516737453785
 20
158.136394470692494
 30
0.0
 11
4419.6428846430862905
 21
158.1459537760001126
 31
0.0
  0
LINE
  5
B4F0
  8
0
 10
4419.6243802286544451
 20
158.1352509047870001
 30
0.0
 11
4419.6238542500896074
 21
158.1349891359000992
 31
0.0
  0
LINE
  5
B4F1
  8
0
 10
4419.6238542500896074
 20
158.1349891359000992
 30
0.0
 11
4419.6233120913539096
 21
158.1348925577001125
 31
0.0
  0
ARC
  5
B4F2
  8
0
 10
4419.6244107144675581
 20
158.1198187645574933
 30
0.0
 40
0.0066903659307109
 50
269.7389209635633165
 51
303.9974601877163991
  0
ARC
  5
B4F3
  8
0
 10
4419.6300145634022556
 20
158.1194606100316093
 30
0.0
 40
0.0084759512537552
 50
179.4976916528318043
 51
228.3373383381106123
  0
LINE
  5
B4F4
  8
0
 10
4419.6215389378912732
 20
158.1348925576000966
 30
0.0
 11
4419.6215389378912732
 21
158.1195349172000988
 31
0.0
  0
LINE
  5
B4F5
  8
0
 10
4419.6281516737453785
 20
158.1142720339925063
 30
0.0
 11
4419.6428846430862905
 21
158.1238313393000965
 31
0.0
  0
LINE
  5
B4F6
  8
0
 10
4419.6243802286544451
 20
158.1131284680870124
 30
0.0
 11
4419.6238542500896074
 21
158.1128666992001115
 31
0.0
  0
LINE
  5
B4F7
  8
0
 10
4419.6238542500896074
 20
158.1128666992001115
 30
0.0
 11
4419.6233120913539096
 21
158.1127701210000964
 31
0.0
  0
ARC
  5
B4F8
  8
0
 10
4419.6244107144675581
 20
158.0976963279574079
 30
0.0
 40
0.0066903659307109
 50
269.7389209635633165
 51
303.9974601877163991
  0
ARC
  5
B4F9
  8
0
 10
4419.6300145634022556
 20
158.0973381734316092
 30
0.0
 40
0.0084759512537552
 50
179.4976916528318043
 51
228.3373383381106123
  0
LINE
  5
B4FA
  8
0
 10
4419.6215389378912732
 20
158.1127701210000964
 30
0.0
 11
4419.6215389378912732
 21
158.0974124806000987
 31
0.0
  0
LINE
  5
B4FB
  8
0
 10
4419.6281516737453785
 20
158.0921495973925062
 30
0.0
 11
4419.6428846430862905
 21
158.1017089027000964
 31
0.0
  0
LINE
  5
B4FC
  8
0
 10
4419.6243802286544451
 20
158.0910060314870123
 30
0.0
 11
4419.6238542500896074
 21
158.0907442626001114
 31
0.0
  0
LINE
  5
B4FD
  8
0
 10
4419.6238542500896074
 20
158.0907442626001114
 30
0.0
 11
4419.6233120913539096
 21
158.0906476844000963
 31
0.0
  0
ARC
  5
B4FE
  8
0
 10
4419.6244107144675581
 20
158.0759322385574137
 30
0.0
 40
0.0066903659307109
 50
269.7389209635633165
 51
303.9974601877163991
  0
ARC
  5
B4FF
  8
0
 10
4419.6300145634022556
 20
158.0755740840315866
 30
0.0
 40
0.0084759512537552
 50
179.4976916528318043
 51
228.3373383381106123
  0
LINE
  5
B500
  8
0
 10
4419.6215389378912732
 20
158.0906476844000963
 30
0.0
 11
4419.6215389378912732
 21
158.0756483912001045
 31
0.0
  0
LINE
  5
B501
  8
0
 10
4419.6281516737453785
 20
158.070385507992512
 30
0.0
 11
4419.6428846430862905
 21
158.0799448133001022
 31
0.0
  0
LINE
  5
B502
  8
0
 10
4419.6243802286544451
 20
158.0692419420869896
 30
0.0
 11
4419.6238542500896074
 21
158.0689801732000888
 31
0.0
  0
LINE
  5
B503
  8
0
 10
4419.6238542500896074
 20
158.0689801732000888
 30
0.0
 11
4419.6233120913539096
 21
158.0688835950001021
 31
0.0
  0
ARC
  5
B504
  8
0
 10
4419.6244107144675581
 20
158.0534514547574076
 30
0.0
 40
0.0066903659307109
 50
269.7389209635633165
 51
303.9974601877163991
  0
ARC
  5
B505
  8
0
 10
4419.6300145634022556
 20
158.053093300231609
 30
0.0
 40
0.0084759512537552
 50
179.4976916528318043
 51
228.3373383381106123
  0
LINE
  5
B506
  8
0
 10
4419.6215389378912732
 20
158.0688835950001021
 30
0.0
 11
4419.6215389378912732
 21
158.0531676074000984
 31
0.0
  0
LINE
  5
B507
  8
0
 10
4419.6281516737453785
 20
158.0479047241925059
 30
0.0
 11
4419.6428846430862905
 21
158.0574640295000961
 31
0.0
  0
LINE
  5
B508
  8
0
 10
4419.6243802286544451
 20
158.046761158287012
 30
0.0
 11
4419.6238542500896074
 21
158.0464993894001111
 31
0.0
  0
LINE
  5
B509
  8
0
 10
4419.6238542500896074
 20
158.0464993894001111
 30
0.0
 11
4419.6233120913539096
 21
158.046402811200096
 31
0.0
  0
ARC
  5
B50A
  8
0
 10
4419.6244107144675581
 20
158.0313290181574075
 30
0.0
 40
0.0066903659307109
 50
269.7389209635633165
 51
303.9974601877163991
  0
ARC
  5
B50B
  8
0
 10
4419.6300145634022556
 20
158.0309708636316088
 30
0.0
 40
0.0084759512537552
 50
179.4976916528318043
 51
228.3373383381106123
  0
LINE
  5
B50C
  8
0
 10
4419.6215389378912732
 20
158.046402811200096
 30
0.0
 11
4419.6215389378912732
 21
158.0310451708000983
 31
0.0
  0
LINE
  5
B50D
  8
0
 10
4419.6281516737453785
 20
158.0257822875925058
 30
0.0
 11
4419.6428846430862905
 21
158.035341592900096
 31
0.0
  0
LINE
  5
B50E
  8
0
 10
4419.6243802286544451
 20
158.0246387216870119
 30
0.0
 11
4419.6238542500896074
 21
158.024376952800111
 31
0.0
  0
LINE
  5
B50F
  8
0
 10
4419.6238542500896074
 20
158.024376952800111
 30
0.0
 11
4419.6233120913539096
 21
158.0242803746000959
 31
0.0
  0
ARC
  5
B510
  8
0
 10
4419.6244107144675581
 20
158.0092065814573914
 30
0.0
 40
0.0066903659307109
 50
269.7389209635633165
 51
303.9974601877163991
  0
ARC
  5
B511
  8
0
 10
4419.6300145634022556
 20
158.0088484269315927
 30
0.0
 40
0.0084759512537552
 50
179.4976916528318043
 51
228.3373383381106123
  0
LINE
  5
B512
  8
0
 10
4419.6215389378912732
 20
158.0242803745001083
 30
0.0
 11
4419.6215389378912732
 21
158.0089227341001106
 31
0.0
  0
LINE
  5
B513
  8
0
 10
4419.6281516737453785
 20
158.0036598508924897
 30
0.0
 11
4419.6428846430862905
 21
158.0132191562001083
 31
0.0
  0
LINE
  5
B514
  8
0
 10
4419.6243802286544451
 20
158.0025162849869957
 30
0.0
 11
4419.6238542500896074
 21
158.0022545161000949
 31
0.0
  0
LINE
  5
B515
  8
0
 10
4419.6238542500896074
 20
158.0022545161000949
 30
0.0
 11
4419.6233120913539096
 21
158.0021579379001082
 31
0.0
  0
LINE
  5
B516
  8
0
 10
4419.6237035924232259
 20
158.1570149943001127
 30
0.0
 11
4419.6242420743001276
 21
158.1571117258000925
 31
0.0
  0
LINE
  5
B517
  8
0
 10
4419.6242420743001276
 20
158.1571117258000925
 30
0.0
 11
4419.6247687617005795
 21
158.1573733415000902
 31
0.0
  0
LINE
  5
B518
  8
0
 10
4419.628115445889307
 20
158.1582413063825925
 30
0.0
 11
4419.6432731761960895
 21
158.1680762126001127
 31
0.0
  0
ARC
  5
B519
  8
0
 10
4419.6242540690900569
 20
158.1662439102767905
 30
0.0
 40
0.008885488160751
 50
273.3207205808353137
 51
295.7580085557659118
  0
ARC
  5
B51A
  8
0
 10
4419.6247992476955915
 20
157.9649617082270083
 30
0.0
 40
0.0066903659307109
 50
269.7389209635633165
 51
303.9974601877163991
  0
LINE
  5
B51B
  8
0
 10
4419.6285402069734118
 20
157.9594149776621066
 30
0.0
 11
4419.6432731763152333
 21
157.9689742829696115
 31
0.0
  0
LINE
  5
B51C
  8
0
 10
4419.6237043954006367
 20
157.957913064700108
 30
0.0
 11
4419.6247687617005795
 21
157.9582714119001139
 31
0.0
  0
LINE
  5
B51D
  8
0
 10
4419.5405981780859292
 20
158.035341592900096
 30
0.0
 11
4419.5721688589537735
 21
158.035341592900096
 31
0.0
  0
ARC
  5
B51E
  8
0
 10
4419.5394995549722807
 20
158.0423902364574076
 30
0.0
 40
0.0066903659307109
 50
236.0025398122836009
 51
270.2610790364366835
  0
LINE
  5
B51F
  8
0
 10
4419.5357585956953699
 20
158.0368435058925058
 30
0.0
 11
4419.5210256263535484
 21
158.046402811200096
 31
0.0
  0
LINE
  5
B520
  8
0
 10
4419.5395300407853938
 20
158.0356999399870119
 30
0.0
 11
4419.5400560193502315
 21
158.035438171100111
 31
0.0
  0
LINE
  5
B521
  8
0
 10
4419.5400560193502315
 20
158.035438171100111
 30
0.0
 11
4419.5405981780859292
 21
158.035341592900096
 31
0.0
  0
ARC
  5
B522
  8
0
 10
4419.5732674820173997
 20
158.0423902364574076
 30
0.0
 40
0.0066903659307109
 50
269.7389209635633165
 51
303.9974601877163991
  0
LINE
  5
B523
  8
0
 10
4419.5770084412952201
 20
158.0368435058925058
 30
0.0
 11
4419.5917414106361321
 21
158.046402811200096
 31
0.0
  0
LINE
  5
B524
  8
0
 10
4419.5732369962042867
 20
158.0356999399870119
 30
0.0
 11
4419.5727110176403585
 21
158.035438171100111
 31
0.0
  0
LINE
  5
B525
  8
0
 10
4419.5727110176403585
 20
158.035438171100111
 30
0.0
 11
4419.5721688589046607
 21
158.035341592900096
 31
0.0
  0
LINE
  5
B526
  8
0
 10
4419.540598178035907
 20
158.0574640295000961
 30
0.0
 11
4419.5721688589046607
 21
158.0574640295000961
 31
0.0
  0
ARC
  5
B527
  8
0
 10
4419.5394995549222585
 20
158.064512673057493
 30
0.0
 40
0.0066903659307109
 50
236.0025398122836009
 51
270.2610790364366835
  0
LINE
  5
B528
  8
0
 10
4419.5357585956453477
 20
158.058965942492506
 30
0.0
 11
4419.5210256263053452
 21
158.0685252478000962
 31
0.0
  0
LINE
  5
B529
  8
0
 10
4419.5395300407362811
 20
158.0578223765870121
 30
0.0
 11
4419.5400560192992998
 21
158.0575606077001112
 31
0.0
  0
LINE
  5
B52A
  8
0
 10
4419.5400560192992998
 20
158.0575606077001112
 30
0.0
 11
4419.540598178035907
 21
158.0574640295000961
 31
0.0
  0
ARC
  5
B52B
  8
0
 10
4419.5732674819673775
 20
158.064512673057493
 30
0.0
 40
0.0066903659307109
 50
269.7389209635633165
 51
303.9974601877163991
  0
LINE
  5
B52C
  8
0
 10
4419.5770084412451979
 20
158.058965942492506
 30
0.0
 11
4419.5922937015893694
 21
158.0688835950001021
 31
0.0
  0
LINE
  5
B52D
  8
0
 10
4419.5732369961542645
 20
158.0578223765870121
 30
0.0
 11
4419.5727110175903363
 21
158.0575606077001112
 31
0.0
  0
LINE
  5
B52E
  8
0
 10
4419.5727110175903363
 20
158.0575606077001112
 30
0.0
 11
4419.5721688588546385
 21
158.0574640295000961
 31
0.0
  0
LINE
  5
B52F
  8
0
 10
4419.5405981780859292
 20
158.0795864661000962
 30
0.0
 11
4419.5721688589537735
 21
158.0795864661000962
 31
0.0
  0
ARC
  5
B530
  8
0
 10
4419.5394995549722807
 20
158.0866351096574078
 30
0.0
 40
0.0066903659307109
 50
236.0025398122836009
 51
270.2610790364366835
  0
LINE
  5
B531
  8
0
 10
4419.5357585956953699
 20
158.0810883790925061
 30
0.0
 11
4419.5210256263535484
 21
158.0906476844000963
 31
0.0
  0
LINE
  5
B532
  8
0
 10
4419.5395300407853938
 20
158.0799448131870122
 30
0.0
 11
4419.5400560193502315
 21
158.0796830443001113
 31
0.0
  0
LINE
  5
B533
  8
0
 10
4419.5400560193502315
 20
158.0796830443001113
 30
0.0
 11
4419.5405981780859292
 21
158.0795864661000962
 31
0.0
  0
ARC
  5
B534
  8
0
 10
4419.5732674820173997
 20
158.0866351096574078
 30
0.0
 40
0.0066903659307109
 50
269.7389209635633165
 51
303.9974601877163991
  0
LINE
  5
B535
  8
0
 10
4419.5770084412952201
 20
158.0810883790925061
 30
0.0
 11
4419.5917414106361321
 21
158.0906476844000963
 31
0.0
  0
LINE
  5
B536
  8
0
 10
4419.5732369962042867
 20
158.0799448131870122
 30
0.0
 11
4419.5727110176403585
 21
158.0796830443001113
 31
0.0
  0
LINE
  5
B537
  8
0
 10
4419.5727110176403585
 20
158.0796830443001113
 30
0.0
 11
4419.5721688589046607
 21
158.0795864661000962
 31
0.0
  0
LINE
  5
B538
  8
0
 10
4419.5405981780859292
 20
158.1017089027000964
 30
0.0
 11
4419.5721688589537735
 21
158.1017089027000964
 31
0.0
  0
ARC
  5
B539
  8
0
 10
4419.5394995549722807
 20
158.108757546257408
 30
0.0
 40
0.0066903659307109
 50
236.0025398122836009
 51
270.2610790364366835
  0
LINE
  5
B53A
  8
0
 10
4419.5357585956953699
 20
158.1032108156925062
 30
0.0
 11
4419.5210256263535484
 21
158.1127701210000964
 31
0.0
  0
LINE
  5
B53B
  8
0
 10
4419.5395300407853938
 20
158.1020672497870123
 30
0.0
 11
4419.5400560193502315
 21
158.1018054809001114
 31
0.0
  0
LINE
  5
B53C
  8
0
 10
4419.5400560193502315
 20
158.1018054809001114
 30
0.0
 11
4419.5405981780859292
 21
158.1017089027000964
 31
0.0
  0
ARC
  5
B53D
  8
0
 10
4419.5732674820173997
 20
158.108757546257408
 30
0.0
 40
0.0066903659307109
 50
269.7389209635633165
 51
303.9974601877163991
  0
LINE
  5
B53E
  8
0
 10
4419.5770084412952201
 20
158.1032108156925062
 30
0.0
 11
4419.5917414106361321
 21
158.1127701210000964
 31
0.0
  0
LINE
  5
B53F
  8
0
 10
4419.5732369962042867
 20
158.1020672497870123
 30
0.0
 11
4419.5727110176403585
 21
158.1018054809001114
 31
0.0
  0
LINE
  5
B540
  8
0
 10
4419.5727110176403585
 20
158.1018054809001114
 30
0.0
 11
4419.5721688589046607
 21
158.1017089027000964
 31
0.0
  0
LINE
  5
B541
  8
0
 10
4419.5405981780859292
 20
158.1238313393000965
 30
0.0
 11
4419.5721688589537735
 21
158.1238313393000965
 31
0.0
  0
ARC
  5
B542
  8
0
 10
4419.5394995549722807
 20
158.1308799828574081
 30
0.0
 40
0.0066903659307109
 50
236.0025398122836009
 51
270.2610790364366835
  0
LINE
  5
B543
  8
0
 10
4419.5357585956953699
 20
158.1253332522925064
 30
0.0
 11
4419.5210256263535484
 21
158.1348925576000966
 31
0.0
  0
LINE
  5
B544
  8
0
 10
4419.5395300407853938
 20
158.1241896863870124
 30
0.0
 11
4419.5400560193502315
 21
158.1239279175001116
 31
0.0
  0
LINE
  5
B545
  8
0
 10
4419.5400560193502315
 20
158.1239279175001116
 30
0.0
 11
4419.5405981780859292
 21
158.1238313393000965
 31
0.0
  0
ARC
  5
B546
  8
0
 10
4419.5732674820173997
 20
158.1308799828574081
 30
0.0
 40
0.0066903659307109
 50
269.7389209635633165
 51
303.9974601877163991
  0
LINE
  5
B547
  8
0
 10
4419.5770084412952201
 20
158.1253332522925064
 30
0.0
 11
4419.5917414106361321
 21
158.1348925576000966
 31
0.0
  0
LINE
  5
B548
  8
0
 10
4419.5732369962042867
 20
158.1241896863870124
 30
0.0
 11
4419.5727110176403585
 21
158.1239279175001116
 31
0.0
  0
LINE
  5
B549
  8
0
 10
4419.5727110176403585
 20
158.1239279175001116
 30
0.0
 11
4419.5721688589046607
 21
158.1238313393000965
 31
0.0
  0
LINE
  5
B54A
  8
0
 10
4419.5405981781359515
 20
158.1459537760001126
 30
0.0
 11
4419.5721688590037957
 21
158.1459537760001126
 31
0.0
  0
ARC
  5
B54B
  8
0
 10
4419.539499555022303
 20
158.1530024195575095
 30
0.0
 40
0.0066903659307109
 50
236.0025398122836009
 51
270.2610790364366835
  0
LINE
  5
B54C
  8
0
 10
4419.5357585957453921
 20
158.1474556889924941
 30
0.0
 11
4419.5192524728900025
 21
158.158165483071798
 31
0.0
  0
LINE
  5
B54D
  8
0
 10
4419.539530040835416
 20
158.1463121230870001
 30
0.0
 11
4419.5400560194002537
 21
158.1460503542000993
 31
0.0
  0
LINE
  5
B54E
  8
0
 10
4419.5400560194002537
 20
158.1460503542000993
 30
0.0
 11
4419.5405981781359515
 21
158.1459537760001126
 31
0.0
  0
ARC
  5
B54F
  8
0
 10
4419.573267482067422
 20
158.1530024195575095
 30
0.0
 40
0.0066903659307109
 50
269.7389209635633165
 51
303.9974601877163991
  0
LINE
  5
B550
  8
0
 10
4419.5770084413452423
 20
158.1474556889924941
 30
0.0
 11
4419.5917414106870638
 21
158.1570149943001127
 31
0.0
  0
LINE
  5
B551
  8
0
 10
4419.5732369962543089
 20
158.1463121230870001
 30
0.0
 11
4419.5727110176903807
 21
158.1460503542000993
 31
0.0
  0
LINE
  5
B552
  8
0
 10
4419.5727110176903807
 20
158.1460503542000993
 30
0.0
 11
4419.5721688589537735
 21
158.1459537760001126
 31
0.0
  0
LINE
  5
B553
  8
0
 10
4419.5405981781359515
 20
158.0132191562001083
 30
0.0
 11
4419.5721688590037957
 21
158.0132191562001083
 31
0.0
  0
ARC
  5
B554
  8
0
 10
4419.539499555022303
 20
158.0202677997575051
 30
0.0
 40
0.0066903659307109
 50
236.0025398122836009
 51
270.2610790364366835
  0
LINE
  5
B555
  8
0
 10
4419.5357585957453921
 20
158.0147210691924897
 30
0.0
 11
4419.5210256264035706
 21
158.0242803745001083
 31
0.0
  0
LINE
  5
B556
  8
0
 10
4419.539530040835416
 20
158.0135775032869958
 30
0.0
 11
4419.5400560194002537
 21
158.0133157344000949
 31
0.0
  0
LINE
  5
B557
  8
0
 10
4419.5400560194002537
 20
158.0133157344000949
 30
0.0
 11
4419.5405981781359515
 21
158.0132191562001083
 31
0.0
  0
ARC
  5
B558
  8
0
 10
4419.573267482067422
 20
158.0202677997575051
 30
0.0
 40
0.0066903659307109
 50
269.7389209635633165
 51
303.9974601877163991
  0
LINE
  5
B559
  8
0
 10
4419.5770084413452423
 20
158.0147210691924897
 30
0.0
 11
4419.5917414106870638
 21
158.0242803745001083
 31
0.0
  0
LINE
  5
B55A
  8
0
 10
4419.5732369962543089
 20
158.0135775032869958
 30
0.0
 11
4419.5727110176903807
 21
158.0133157344000949
 31
0.0
  0
LINE
  5
B55B
  8
0
 10
4419.5727110176903807
 20
158.0133157344000949
 30
0.0
 11
4419.5721688589537735
 21
158.0132191562001083
 31
0.0
  0
LINE
  5
B55C
  8
0
 10
4419.5405981780859292
 20
157.9910967196001081
 30
0.0
 11
4419.5721688589537735
 21
157.9910967196001081
 31
0.0
  0
ARC
  5
B55D
  8
0
 10
4419.5394995549722807
 20
157.998145363157505
 30
0.0
 40
0.0066903659307109
 50
236.0025398122836009
 51
270.2610790364366835
  0
LINE
  5
B55E
  8
0
 10
4419.5357585956953699
 20
157.9925986325924896
 30
0.0
 11
4419.5210256263535484
 21
158.0021579379001082
 31
0.0
  0
LINE
  5
B55F
  8
0
 10
4419.5395300407853938
 20
157.9914550666869957
 30
0.0
 11
4419.5400560193502315
 21
157.9911932978000948
 31
0.0
  0
LINE
  5
B560
  8
0
 10
4419.5400560193502315
 20
157.9911932978000948
 30
0.0
 11
4419.5405981780859292
 21
157.9910967196001081
 31
0.0
  0
ARC
  5
B561
  8
0
 10
4419.5732674820173997
 20
157.998145363157505
 30
0.0
 40
0.0066903659307109
 50
269.7389209635633165
 51
303.9974601877163991
  0
LINE
  5
B562
  8
0
 10
4419.5770084412952201
 20
157.9925986325924896
 30
0.0
 11
4419.5917414106361321
 21
158.0021579379001082
 31
0.0
  0
LINE
  5
B563
  8
0
 10
4419.5732369962042867
 20
157.9914550666869957
 30
0.0
 11
4419.5727110176403585
 21
157.9911932978000948
 31
0.0
  0
LINE
  5
B564
  8
0
 10
4419.5727110176403585
 20
157.9911932978000948
 30
0.0
 11
4419.5721688589046607
 21
157.9910967196001081
 31
0.0
  0
LINE
  5
B565
  8
0
 10
4419.5405981780859292
 20
157.968974283000108
 30
0.0
 11
4419.5721688589537735
 21
157.968974283000108
 31
0.0
  0
ARC
  5
B566
  8
0
 10
4419.5394995549722807
 20
157.9760229265573912
 30
0.0
 40
0.0066903659307109
 50
236.0025398122836009
 51
270.2610790364366835
  0
LINE
  5
B567
  8
0
 10
4419.5357585956953699
 20
157.9704761959924895
 30
0.0
 11
4419.5210256263535484
 21
157.9800355013001081
 31
0.0
  0
LINE
  5
B568
  8
0
 10
4419.5395300407853938
 20
157.9693326300869956
 30
0.0
 11
4419.5400560193502315
 21
157.9690708612000947
 31
0.0
  0
LINE
  5
B569
  8
0
 10
4419.5400560193502315
 20
157.9690708612000947
 30
0.0
 11
4419.5405981780859292
 21
157.968974283000108
 31
0.0
  0
ARC
  5
B56A
  8
0
 10
4419.5732674820173997
 20
157.9760229265573912
 30
0.0
 40
0.0066903659307109
 50
269.7389209635633165
 51
303.9974601877163991
  0
LINE
  5
B56B
  8
0
 10
4419.5770084412952201
 20
157.9704761959924895
 30
0.0
 11
4419.5917414106361321
 21
157.9800355013001081
 31
0.0
  0
LINE
  5
B56C
  8
0
 10
4419.5732369962042867
 20
157.9693326300869956
 30
0.0
 11
4419.5727110176403585
 21
157.9690708612000947
 31
0.0
  0
LINE
  5
B56D
  8
0
 10
4419.5727110176403585
 20
157.9690708612000947
 30
0.0
 11
4419.5721688589046607
 21
157.968974283000108
 31
0.0
  0
LINE
  5
B56E
  8
0
 10
4419.4894549455348169
 20
158.1348925576000966
 30
0.0
 11
4419.5210256264035706
 21
158.1348925576000966
 31
0.0
  0
ARC
  5
B56F
  8
0
 10
4419.4883563224220779
 20
158.1419412011574082
 30
0.0
 40
0.0066903659307109
 50
236.0025398122836009
 51
270.2610790364366835
  0
LINE
  5
B570
  8
0
 10
4419.4846153631451671
 20
158.1363944705925064
 30
0.0
 11
4419.4687120105327267
 21
158.1467131646394932
 31
0.0
  0
LINE
  5
B571
  8
0
 10
4419.4883868082361005
 20
158.1352509046870125
 30
0.0
 11
4419.4889127868000287
 21
158.1349891358001116
 31
0.0
  0
LINE
  5
B572
  8
0
 10
4419.4889127868000287
 20
158.1349891358001116
 30
0.0
 11
4419.4894549455348169
 21
158.1348925576000966
 31
0.0
  0
ARC
  5
B573
  8
0
 10
4419.5221242494681064
 20
158.1419412011574082
 30
0.0
 40
0.0066903659307109
 50
269.7389209635633165
 51
303.9974601877163991
  0
LINE
  5
B574
  8
0
 10
4419.5258652087450173
 20
158.1363944705925064
 30
0.0
 11
4419.5405981780859292
 21
158.1459537759000966
 31
0.0
  0
LINE
  5
B575
  8
0
 10
4419.5220937636540839
 20
158.1352509046870125
 30
0.0
 11
4419.5215677850901557
 21
158.1349891358001116
 31
0.0
  0
LINE
  5
B576
  8
0
 10
4419.5215677850901557
 20
158.1349891358001116
 30
0.0
 11
4419.5210256263535484
 21
158.1348925576000966
 31
0.0
  0
LINE
  5
B577
  8
0
 10
4419.4894549455348169
 20
158.1127701210000964
 30
0.0
 11
4419.5210256264035706
 21
158.1127701210000964
 31
0.0
  0
ARC
  5
B578
  8
0
 10
4419.4883563224220779
 20
158.1198187645574933
 30
0.0
 40
0.0066903659307109
 50
236.0025398122836009
 51
270.2610790364366835
  0
LINE
  5
B579
  8
0
 10
4419.4846153631451671
 20
158.1142720339925063
 30
0.0
 11
4419.4698823938042551
 21
158.1238313393000965
 31
0.0
  0
LINE
  5
B57A
  8
0
 10
4419.4883868082361005
 20
158.1131284680870124
 30
0.0
 11
4419.4889127868000287
 21
158.1128666992001115
 31
0.0
  0
LINE
  5
B57B
  8
0
 10
4419.4889127868000287
 20
158.1128666992001115
 30
0.0
 11
4419.4894549455348169
 21
158.1127701210000964
 31
0.0
  0
ARC
  5
B57C
  8
0
 10
4419.5221242494681064
 20
158.1198187645574933
 30
0.0
 40
0.0066903659307109
 50
269.7389209635633165
 51
303.9974601877163991
  0
LINE
  5
B57D
  8
0
 10
4419.5258652087450173
 20
158.1142720339925063
 30
0.0
 11
4419.5405981780859292
 21
158.1238313393000965
 31
0.0
  0
LINE
  5
B57E
  8
0
 10
4419.5220937636540839
 20
158.1131284680870124
 30
0.0
 11
4419.5215677850901557
 21
158.1128666992001115
 31
0.0
  0
LINE
  5
B57F
  8
0
 10
4419.5215677850901557
 20
158.1128666992001115
 30
0.0
 11
4419.5210256263535484
 21
158.1127701210000964
 31
0.0
  0
LINE
  5
B580
  8
0
 10
4419.4894549455348169
 20
158.0906476844000963
 30
0.0
 11
4419.5210256264035706
 21
158.0906476844000963
 31
0.0
  0
ARC
  5
B581
  8
0
 10
4419.4883563224220779
 20
158.0976963279574079
 30
0.0
 40
0.0066903659307109
 50
236.0025398122836009
 51
270.2610790364366835
  0
LINE
  5
B582
  8
0
 10
4419.4846153631451671
 20
158.0921495973925062
 30
0.0
 11
4419.4698823938042551
 21
158.1017089027000964
 31
0.0
  0
LINE
  5
B583
  8
0
 10
4419.4883868082361005
 20
158.0910060314870123
 30
0.0
 11
4419.4889127868000287
 21
158.0907442626001114
 31
0.0
  0
LINE
  5
B584
  8
0
 10
4419.4889127868000287
 20
158.0907442626001114
 30
0.0
 11
4419.4894549455348169
 21
158.0906476844000963
 31
0.0
  0
ARC
  5
B585
  8
0
 10
4419.5221242494681064
 20
158.0976963279574079
 30
0.0
 40
0.0066903659307109
 50
269.7389209635633165
 51
303.9974601877163991
  0
LINE
  5
B586
  8
0
 10
4419.5258652087450173
 20
158.0921495973925062
 30
0.0
 11
4419.5405981780859292
 21
158.1017089027000964
 31
0.0
  0
LINE
  5
B587
  8
0
 10
4419.5220937636540839
 20
158.0910060314870123
 30
0.0
 11
4419.5215677850901557
 21
158.0907442626001114
 31
0.0
  0
LINE
  5
B588
  8
0
 10
4419.5215677850901557
 20
158.0907442626001114
 30
0.0
 11
4419.5210256263535484
 21
158.0906476844000963
 31
0.0
  0
LINE
  5
B589
  8
0
 10
4419.4894549455857486
 20
158.0685252478000962
 30
0.0
 11
4419.5210256264535928
 21
158.0685252478000962
 31
0.0
  0
ARC
  5
B58A
  8
0
 10
4419.4883563224721001
 20
158.0755738913574078
 30
0.0
 40
0.0066903659307109
 50
236.0025398122836009
 51
270.2610790364366835
  0
LINE
  5
B58B
  8
0
 10
4419.4846153631942798
 20
158.070027160792506
 30
0.0
 11
4419.4698823939042995
 21
158.0799448133001022
 31
0.0
  0
LINE
  5
B58C
  8
0
 10
4419.4883868082861227
 20
158.0688835948870121
 30
0.0
 11
4419.4889127868491414
 21
158.0686218260001112
 31
0.0
  0
LINE
  5
B58D
  8
0
 10
4419.4889127868491414
 20
158.0686218260001112
 30
0.0
 11
4419.4894549455857486
 21
158.0685252478000962
 31
0.0
  0
ARC
  5
B58E
  8
0
 10
4419.5221242495172191
 20
158.0755738913574078
 30
0.0
 40
0.0066903659307109
 50
269.7389209635633165
 51
303.9974601877163991
  0
LINE
  5
B58F
  8
0
 10
4419.5258652087950395
 20
158.070027160792506
 30
0.0
 11
4419.5405981781359515
 21
158.0795864661000962
 31
0.0
  0
LINE
  5
B590
  8
0
 10
4419.5220937637041061
 20
158.0688835948870121
 30
0.0
 11
4419.5215677851401779
 21
158.0686218260001112
 31
0.0
  0
LINE
  5
B591
  8
0
 10
4419.5215677851401779
 20
158.0686218260001112
 30
0.0
 11
4419.5210256264035706
 21
158.0685252478000962
 31
0.0
  0
LINE
  5
B592
  8
0
 10
4419.4894549456357709
 20
158.046402811200096
 30
0.0
 11
4419.5210256265036151
 21
158.046402811200096
 31
0.0
  0
ARC
  5
B593
  8
0
 10
4419.4883563225221224
 20
158.0534514547574076
 30
0.0
 40
0.0066903659307109
 50
236.0025398122836009
 51
270.2610790364366835
  0
LINE
  5
B594
  8
0
 10
4419.4846153632452115
 20
158.0479047241925059
 30
0.0
 11
4419.4698823939042995
 21
158.0574640295000961
 31
0.0
  0
LINE
  5
B595
  8
0
 10
4419.4883868083352354
 20
158.046761158287012
 30
0.0
 11
4419.4889127869000731
 21
158.0464993894001111
 31
0.0
  0
LINE
  5
B596
  8
0
 10
4419.4889127869000731
 20
158.0464993894001111
 30
0.0
 11
4419.4894549456357709
 21
158.046402811200096
 31
0.0
  0
ARC
  5
B597
  8
0
 10
4419.5221242495681508
 20
158.0534514547574076
 30
0.0
 40
0.0066903659307109
 50
269.7389209635633165
 51
303.9974601877163991
  0
LINE
  5
B598
  8
0
 10
4419.5258652088450617
 20
158.0479047241925059
 30
0.0
 11
4419.5405981781859737
 21
158.0574640295000961
 31
0.0
  0
LINE
  5
B599
  8
0
 10
4419.5220937637541283
 20
158.046761158287012
 30
0.0
 11
4419.5215677851902001
 21
158.0464993894001111
 31
0.0
  0
LINE
  5
B59A
  8
0
 10
4419.5215677851902001
 20
158.0464993894001111
 30
0.0
 11
4419.5210256264535928
 21
158.046402811200096
 31
0.0
  0
LINE
  5
B59B
  8
0
 10
4419.4894549455348169
 20
158.0242803746000959
 30
0.0
 11
4419.5210256264035706
 21
158.0242803746000959
 31
0.0
  0
ARC
  5
B59C
  8
0
 10
4419.4883563224220779
 20
158.0313290181574075
 30
0.0
 40
0.0066903659307109
 50
236.0025398122836009
 51
270.2610790364366835
  0
LINE
  5
B59D
  8
0
 10
4419.4846153631451671
 20
158.0257822875925058
 30
0.0
 11
4419.4698823938042551
 21
158.035341592900096
 31
0.0
  0
LINE
  5
B59E
  8
0
 10
4419.4883868082361005
 20
158.0246387216870119
 30
0.0
 11
4419.4889127868000287
 21
158.024376952800111
 31
0.0
  0
LINE
  5
B59F
  8
0
 10
4419.4889127868000287
 20
158.024376952800111
 30
0.0
 11
4419.4894549455348169
 21
158.0242803746000959
 31
0.0
  0
ARC
  5
B5A0
  8
0
 10
4419.5221242494681064
 20
158.0313290181574075
 30
0.0
 40
0.0066903659307109
 50
269.7389209635633165
 51
303.9974601877163991
  0
LINE
  5
B5A1
  8
0
 10
4419.5258652087450173
 20
158.0257822875925058
 30
0.0
 11
4419.5405981780859292
 21
158.035341592900096
 31
0.0
  0
LINE
  5
B5A2
  8
0
 10
4419.5220937636540839
 20
158.0246387216870119
 30
0.0
 11
4419.5215677850901557
 21
158.024376952800111
 31
0.0
  0
LINE
  5
B5A3
  8
0
 10
4419.5215677850901557
 20
158.024376952800111
 30
0.0
 11
4419.5210256263535484
 21
158.0242803746000959
 31
0.0
  0
LINE
  5
B5A4
  8
0
 10
4419.4894549455348169
 20
158.0021579379001082
 30
0.0
 11
4419.5210256264035706
 21
158.0021579379001082
 31
0.0
  0
ARC
  5
B5A5
  8
0
 10
4419.4883563224220779
 20
158.0092065814573914
 30
0.0
 40
0.0066903659307109
 50
236.0025398122836009
 51
270.2610790364366835
  0
LINE
  5
B5A6
  8
0
 10
4419.4846153631451671
 20
158.0036598508924897
 30
0.0
 11
4419.4698823938042551
 21
158.0132191562001083
 31
0.0
  0
LINE
  5
B5A7
  8
0
 10
4419.4883868082361005
 20
158.0025162849869957
 30
0.0
 11
4419.4889127868000287
 21
158.0022545161000949
 31
0.0
  0
LINE
  5
B5A8
  8
0
 10
4419.4889127868000287
 20
158.0022545161000949
 30
0.0
 11
4419.4894549455348169
 21
158.0021579379001082
 31
0.0
  0
ARC
  5
B5A9
  8
0
 10
4419.5221242494681064
 20
158.0092065814573914
 30
0.0
 40
0.0066903659307109
 50
269.7389209635633165
 51
303.9974601877163991
  0
LINE
  5
B5AA
  8
0
 10
4419.5258652087450173
 20
158.0036598508924897
 30
0.0
 11
4419.5405981780859292
 21
158.0132191562001083
 31
0.0
  0
LINE
  5
B5AB
  8
0
 10
4419.5220937636540839
 20
158.0025162849869957
 30
0.0
 11
4419.5215677850901557
 21
158.0022545161000949
 31
0.0
  0
LINE
  5
B5AC
  8
0
 10
4419.5215677850901557
 20
158.0022545161000949
 30
0.0
 11
4419.5210256263535484
 21
158.0021579379001082
 31
0.0
  0
LINE
  5
B5AD
  8
0
 10
4419.4894549455348169
 20
157.9800355013001081
 30
0.0
 11
4419.5210256264035706
 21
157.9800355013001081
 31
0.0
  0
ARC
  5
B5AE
  8
0
 10
4419.4883563224220779
 20
157.9870841448573913
 30
0.0
 40
0.0066903659307109
 50
236.0025398122836009
 51
270.2610790364366835
  0
LINE
  5
B5AF
  8
0
 10
4419.4846153631451671
 20
157.9815374142924895
 30
0.0
 11
4419.4698823938042551
 21
157.9910967196001081
 31
0.0
  0
LINE
  5
B5B0
  8
0
 10
4419.4883868082361005
 20
157.9803938483869956
 30
0.0
 11
4419.4889127868000287
 21
157.9801320795000947
 31
0.0
  0
LINE
  5
B5B1
  8
0
 10
4419.4889127868000287
 20
157.9801320795000947
 30
0.0
 11
4419.4894549455348169
 21
157.9800355013001081
 31
0.0
  0
ARC
  5
B5B2
  8
0
 10
4419.5221242494681064
 20
157.9870841448573913
 30
0.0
 40
0.0066903659307109
 50
269.7389209635633165
 51
303.9974601877163991
  0
LINE
  5
B5B3
  8
0
 10
4419.5258652087450173
 20
157.9815374142924895
 30
0.0
 11
4419.5405981780859292
 21
157.9910967196001081
 31
0.0
  0
LINE
  5
B5B4
  8
0
 10
4419.5220937636540839
 20
157.9803938483869956
 30
0.0
 11
4419.5215677850901557
 21
157.9801320795000947
 31
0.0
  0
LINE
  5
B5B5
  8
0
 10
4419.5215677850901557
 20
157.9801320795000947
 30
0.0
 11
4419.5210256263535484
 21
157.9800355013001081
 31
0.0
  0
LINE
  5
B5B6
  8
0
 10
4419.4383117130355458
 20
158.1238313393000965
 30
0.0
 11
4419.4698823939042995
 21
158.1238313393000965
 31
0.0
  0
ARC
  5
B5B7
  8
0
 10
4419.4372130899228068
 20
158.1308799828574081
 30
0.0
 40
0.0066903659307109
 50
236.0025398122836009
 51
270.2610790364366835
  0
LINE
  5
B5B8
  8
0
 10
4419.4334721306449865
 20
158.1253332522925064
 30
0.0
 11
4419.4233499386346011
 21
158.1319009116402015
 31
0.0
  0
LINE
  5
B5B9
  8
0
 10
4419.4372435757350104
 20
158.1241896863870124
 30
0.0
 11
4419.4377695542989386
 21
158.1239279175001116
 31
0.0
  0
LINE
  5
B5BA
  8
0
 10
4419.4377695542989386
 20
158.1239279175001116
 30
0.0
 11
4419.4383117130355458
 21
158.1238313393000965
 31
0.0
  0
ARC
  5
B5BB
  8
0
 10
4419.4709810169670163
 20
158.1308799828574081
 30
0.0
 40
0.0066903659306896
 50
272.9520100213605929
 51
303.99746018777779
  0
LINE
  5
B5BC
  8
0
 10
4419.4747219762448367
 20
158.1253332522925064
 30
0.0
 11
4419.4894549455857486
 21
158.1348925576000966
 31
0.0
  0
LINE
  5
B5BD
  8
0
 10
4419.4713255674832908
 20
158.1241984949103028
 30
0.0
 11
4419.4704245525890656
 21
158.1239279175001116
 31
0.0
  0
LINE
  5
B5BE
  8
0
 10
4419.4704245525890656
 20
158.1239279175001116
 30
0.0
 11
4419.4698823938542773
 21
158.1238313393000965
 31
0.0
  0
LINE
  5
B5BF
  8
0
 10
4419.4383117130846585
 20
158.1017089027000964
 30
0.0
 11
4419.4698823939543217
 21
158.1017089027000964
 31
0.0
  0
ARC
  5
B5C0
  8
0
 10
4419.437213089972829
 20
158.108757546257408
 30
0.0
 40
0.0066903659307109
 50
236.0025398122836009
 51
270.2610790364366835
  0
LINE
  5
B5C1
  8
0
 10
4419.4334721306950087
 20
158.1032108156925062
 30
0.0
 11
4419.4189353135043348
 21
158.1127701210000964
 31
0.0
  0
LINE
  5
B5C2
  8
0
 10
4419.4372435757859421
 20
158.1020672497870123
 30
0.0
 11
4419.4377695543498703
 21
158.1018054809001114
 31
0.0
  0
LINE
  5
B5C3
  8
0
 10
4419.4377695543498703
 20
158.1018054809001114
 30
0.0
 11
4419.4383117130846585
 21
158.1017089027000964
 31
0.0
  0
ARC
  5
B5C4
  8
0
 10
4419.470981017017948
 20
158.108757546257408
 30
0.0
 40
0.0066903659307109
 50
269.7389209635633165
 51
303.9974601877163991
  0
LINE
  5
B5C5
  8
0
 10
4419.4747219762948589
 20
158.1032108156925062
 30
0.0
 11
4419.4894549456357709
 21
158.1127701210000964
 31
0.0
  0
LINE
  5
B5C6
  8
0
 10
4419.470950531204835
 20
158.1020672497870123
 30
0.0
 11
4419.4704245526399973
 21
158.1018054809001114
 31
0.0
  0
LINE
  5
B5C7
  8
0
 10
4419.4704245526399973
 20
158.1018054809001114
 30
0.0
 11
4419.4698823939042995
 21
158.1017089027000964
 31
0.0
  0
LINE
  5
B5C8
  8
0
 10
4419.4383117130355458
 20
158.0799448133001022
 30
0.0
 11
4419.4698823939042995
 21
158.0799448133001022
 31
0.0
  0
ARC
  5
B5C9
  8
0
 10
4419.4372130899228068
 20
158.086993456857499
 30
0.0
 40
0.0066903659307109
 50
236.0025398122836009
 51
270.2610790364366835
  0
LINE
  5
B5CA
  8
0
 10
4419.4334721306449865
 20
158.081446726292512
 30
0.0
 11
4419.4187391613040745
 21
158.0906476844000963
 31
0.0
  0
LINE
  5
B5CB
  8
0
 10
4419.4372435757350104
 20
158.0803031603869897
 30
0.0
 11
4419.4377695542989386
 21
158.0800413915000888
 31
0.0
  0
LINE
  5
B5CC
  8
0
 10
4419.4377695542989386
 20
158.0800413915000888
 30
0.0
 11
4419.4383117130355458
 21
158.0799448133001022
 31
0.0
  0
ARC
  5
B5CD
  8
0
 10
4419.4709810169670163
 20
158.086993456857499
 30
0.0
 40
0.0066903659307109
 50
269.7389209635633165
 51
303.9974601877163991
  0
LINE
  5
B5CE
  8
0
 10
4419.4747219762448367
 20
158.081446726292512
 30
0.0
 11
4419.4894549455857486
 21
158.0910060316001022
 31
0.0
  0
LINE
  5
B5CF
  8
0
 10
4419.4709505311548128
 20
158.0803031603869897
 30
0.0
 11
4419.4704245525890656
 21
158.0800413915000888
 31
0.0
  0
LINE
  5
B5D0
  8
0
 10
4419.4704245525890656
 20
158.0800413915000888
 30
0.0
 11
4419.4698823938542773
 21
158.0799448133001022
 31
0.0
  0
LINE
  5
B5D1
  8
0
 10
4419.4383117130355458
 20
158.0574640295000961
 30
0.0
 11
4419.4698823939042995
 21
158.0574640295000961
 31
0.0
  0
ARC
  5
B5D2
  8
0
 10
4419.4372130899228068
 20
158.064512673057493
 30
0.0
 40
0.0066903659307109
 50
236.0025398122836009
 51
270.2610790364366835
  0
LINE
  5
B5D3
  8
0
 10
4419.4334721306449865
 20
158.058965942492506
 30
0.0
 11
4419.4187391613040745
 21
158.0685252478000962
 31
0.0
  0
LINE
  5
B5D4
  8
0
 10
4419.4372435757350104
 20
158.0578223765870121
 30
0.0
 11
4419.4377695542989386
 21
158.0575606077001112
 31
0.0
  0
LINE
  5
B5D5
  8
0
 10
4419.4377695542989386
 20
158.0575606077001112
 30
0.0
 11
4419.4383117130355458
 21
158.0574640295000961
 31
0.0
  0
ARC
  5
B5D6
  8
0
 10
4419.4709810169670163
 20
158.064512673057493
 30
0.0
 40
0.0066903659307109
 50
269.7389209635633165
 51
303.9974601877163991
  0
LINE
  5
B5D7
  8
0
 10
4419.4747219762448367
 20
158.058965942492506
 30
0.0
 11
4419.4894549455857486
 21
158.0685252478000962
 31
0.0
  0
LINE
  5
B5D8
  8
0
 10
4419.4709505311548128
 20
158.0578223765870121
 30
0.0
 11
4419.4704245525890656
 21
158.0575606077001112
 31
0.0
  0
LINE
  5
B5D9
  8
0
 10
4419.4704245525890656
 20
158.0575606077001112
 30
0.0
 11
4419.4698823938542773
 21
158.0574640295000961
 31
0.0
  0
LINE
  5
B5DA
  8
0
 10
4419.4383117130846585
 20
158.035341592900096
 30
0.0
 11
4419.4698823939543217
 21
158.035341592900096
 31
0.0
  0
ARC
  5
B5DB
  8
0
 10
4419.437213089972829
 20
158.0423902364574076
 30
0.0
 40
0.0066903659307109
 50
236.0025398122836009
 51
270.2610790364366835
  0
LINE
  5
B5DC
  8
0
 10
4419.4334721306950087
 20
158.0368435058925058
 30
0.0
 11
4419.4187391613531872
 21
158.046402811200096
 31
0.0
  0
LINE
  5
B5DD
  8
0
 10
4419.4372435757859421
 20
158.0356999399870119
 30
0.0
 11
4419.4377695543498703
 21
158.035438171100111
 31
0.0
  0
LINE
  5
B5DE
  8
0
 10
4419.4377695543498703
 20
158.035438171100111
 30
0.0
 11
4419.4383117130846585
 21
158.035341592900096
 31
0.0
  0
ARC
  5
B5DF
  8
0
 10
4419.470981017017948
 20
158.0423902364574076
 30
0.0
 40
0.0066903659307109
 50
269.7389209635633165
 51
303.9974601877163991
  0
LINE
  5
B5E0
  8
0
 10
4419.4747219762948589
 20
158.0368435058925058
 30
0.0
 11
4419.4894549456357709
 21
158.046402811200096
 31
0.0
  0
LINE
  5
B5E1
  8
0
 10
4419.470950531204835
 20
158.0356999399870119
 30
0.0
 11
4419.4704245526399973
 21
158.035438171100111
 31
0.0
  0
LINE
  5
B5E2
  8
0
 10
4419.4704245526399973
 20
158.035438171100111
 30
0.0
 11
4419.4698823939042995
 21
158.035341592900096
 31
0.0
  0
LINE
  5
B5E3
  8
0
 10
4419.4383117130846585
 20
158.0132191562001083
 30
0.0
 11
4419.4698823939543217
 21
158.0132191562001083
 31
0.0
  0
ARC
  5
B5E4
  8
0
 10
4419.437213089972829
 20
158.0202677997575051
 30
0.0
 40
0.0066903659307109
 50
236.0025398122836009
 51
270.2610790364366835
  0
LINE
  5
B5E5
  8
0
 10
4419.4334721306950087
 20
158.0147210691924897
 30
0.0
 11
4419.4187391613531872
 21
158.0242803745001083
 31
0.0
  0
LINE
  5
B5E6
  8
0
 10
4419.4372435757859421
 20
158.0135775032869958
 30
0.0
 11
4419.4377695543498703
 21
158.0133157344000949
 31
0.0
  0
LINE
  5
B5E7
  8
0
 10
4419.4377695543498703
 20
158.0133157344000949
 30
0.0
 11
4419.4383117130846585
 21
158.0132191562001083
 31
0.0
  0
ARC
  5
B5E8
  8
0
 10
4419.470981017017948
 20
158.0202677997575051
 30
0.0
 40
0.0066903659307109
 50
269.7389209635633165
 51
303.9974601877163991
  0
LINE
  5
B5E9
  8
0
 10
4419.4747219762948589
 20
158.0147210691924897
 30
0.0
 11
4419.4894549456357709
 21
158.0242803745001083
 31
0.0
  0
LINE
  5
B5EA
  8
0
 10
4419.470950531204835
 20
158.0135775032869958
 30
0.0
 11
4419.4704245526399973
 21
158.0133157344000949
 31
0.0
  0
LINE
  5
B5EB
  8
0
 10
4419.4704245526399973
 20
158.0133157344000949
 30
0.0
 11
4419.4698823939042995
 21
158.0132191562001083
 31
0.0
  0
LINE
  5
B5EC
  8
0
 10
4419.4383117129846141
 20
157.9910967196001081
 30
0.0
 11
4419.4698823938542773
 21
157.9910967196001081
 31
0.0
  0
ARC
  5
B5ED
  8
0
 10
4419.4372130898727846
 20
157.998145363157505
 30
0.0
 40
0.0066903659307109
 50
236.0025398122836009
 51
270.2610790364366835
  0
LINE
  5
B5EE
  8
0
 10
4419.4334721305940548
 20
157.9925986325924896
 30
0.0
 11
4419.4187391612540523
 21
158.0021579379001082
 31
0.0
  0
LINE
  5
B5EF
  8
0
 10
4419.4372435756858977
 20
157.9914550666869957
 30
0.0
 11
4419.4377695542489164
 21
157.9911932978000948
 31
0.0
  0
LINE
  5
B5F0
  8
0
 10
4419.4377695542489164
 20
157.9911932978000948
 30
0.0
 11
4419.4383117129846141
 21
157.9910967196001081
 31
0.0
  0
ARC
  5
B5F1
  8
0
 10
4419.4709810169169941
 20
157.998145363157505
 30
0.0
 40
0.0066903659307109
 50
269.7389209635633165
 51
303.9974601877163991
  0
LINE
  5
B5F2
  8
0
 10
4419.4747219761948145
 20
157.9925986325924896
 30
0.0
 11
4419.4894549455348169
 21
158.0021579379001082
 31
0.0
  0
LINE
  5
B5F3
  8
0
 10
4419.4709505311038811
 20
157.9914550666869957
 30
0.0
 11
4419.4704245525399529
 21
157.9911932978000948
 31
0.0
  0
LINE
  5
B5F4
  8
0
 10
4419.4704245525399529
 20
157.9911932978000948
 30
0.0
 11
4419.4698823938042551
 21
157.9910967196001081
 31
0.0
  0
LINE
  5
B5F5
  8
0
 10
4419.3875724132385585
 20
158.1127701210000964
 30
0.0
 11
4419.418935313554357
 21
158.1127701210000964
 31
0.0
  0
ARC
  5
B5F6
  8
0
 10
4419.4200339366179833
 20
158.1198187645574933
 30
0.0
 40
0.0066903659307109
 50
269.7389209635633165
 51
303.9974601877163991
  0
LINE
  5
B5F7
  8
0
 10
4419.4237748958948941
 20
158.1142720339925063
 30
0.0
 11
4419.4385078652358061
 21
158.1238313393000965
 31
0.0
  0
LINE
  5
B5F8
  8
0
 10
4419.4200034508048702
 20
158.1131284680870124
 30
0.0
 11
4419.419477472239123
 21
158.1128666992001115
 31
0.0
  0
LINE
  5
B5F9
  8
0
 10
4419.419477472239123
 20
158.1128666992001115
 30
0.0
 11
4419.4189353135043348
 21
158.1127701210000964
 31
0.0
  0
LINE
  5
B5FA
  8
0
 10
4419.3871684805362747
 20
158.0906476844000963
 30
0.0
 11
4419.4187391614041189
 21
158.0906476844000963
 31
0.0
  0
ARC
  5
B5FB
  8
0
 10
4419.3860698574226262
 20
158.0976963279574079
 30
0.0
 40
0.0066903659307109
 50
236.0025398122836009
 51
270.2610790364366835
  0
LINE
  5
B5FC
  8
0
 10
4419.3823288981438964
 20
158.0921495973925062
 30
0.0
 11
4419.3705285391597499
 21
158.0998061146682971
 31
0.0
  0
LINE
  5
B5FD
  8
0
 10
4419.3861003432357393
 20
158.0910060314870123
 30
0.0
 11
4419.3866263217996675
 21
158.0907442626001114
 31
0.0
  0
LINE
  5
B5FE
  8
0
 10
4419.3866263217996675
 20
158.0907442626001114
 30
0.0
 11
4419.3871684805362747
 21
158.0906476844000963
 31
0.0
  0
ARC
  5
B5FF
  8
0
 10
4419.4198377844677452
 20
158.0976963279574079
 30
0.0
 40
0.0066903659307109
 50
269.7389209635633165
 51
303.9974601877163991
  0
LINE
  5
B600
  8
0
 10
4419.4235787437446561
 20
158.0921495973925062
 30
0.0
 11
4419.4383117130846585
 21
158.1017089027000964
 31
0.0
  0
LINE
  5
B601
  8
0
 10
4419.4198072986546322
 20
158.0910060314870123
 30
0.0
 11
4419.4192813200897945
 21
158.0907442626001114
 31
0.0
  0
LINE
  5
B602
  8
0
 10
4419.4192813200897945
 20
158.0907442626001114
 30
0.0
 11
4419.4187391613531872
 21
158.0906476844000963
 31
0.0
  0
LINE
  5
B603
  8
0
 10
4419.3871684805362747
 20
158.0685252478000962
 30
0.0
 11
4419.4187391614041189
 21
158.0685252478000962
 31
0.0
  0
ARC
  5
B604
  8
0
 10
4419.3860698574226262
 20
158.0755738913574078
 30
0.0
 40
0.0066903659307109
 50
236.0025398122836009
 51
270.2610790364366835
  0
LINE
  5
B605
  8
0
 10
4419.3823288981438964
 20
158.070027160792506
 30
0.0
 11
4419.3675959288029844
 21
158.0795864661000962
 31
0.0
  0
LINE
  5
B606
  8
0
 10
4419.3861003432357393
 20
158.0688835948870121
 30
0.0
 11
4419.3866263217996675
 21
158.0686218260001112
 31
0.0
  0
LINE
  5
B607
  8
0
 10
4419.3866263217996675
 20
158.0686218260001112
 30
0.0
 11
4419.3871684805362747
 21
158.0685252478000962
 31
0.0
  0
ARC
  5
B608
  8
0
 10
4419.4198377844677452
 20
158.0755738913574078
 30
0.0
 40
0.0066903659307109
 50
269.7389209635633165
 51
303.9974601877163991
  0
LINE
  5
B609
  8
0
 10
4419.4235787437446561
 20
158.070027160792506
 30
0.0
 11
4419.4388640040888276
 21
158.0799448133001022
 31
0.0
  0
LINE
  5
B60A
  8
0
 10
4419.4198072986546322
 20
158.0688835948870121
 30
0.0
 11
4419.4192813200897945
 21
158.0686218260001112
 31
0.0
  0
LINE
  5
B60B
  8
0
 10
4419.4192813200897945
 20
158.0686218260001112
 30
0.0
 11
4419.4187391613531872
 21
158.0685252478000962
 31
0.0
  0
LINE
  5
B60C
  8
0
 10
4419.3871684805362747
 20
158.046402811200096
 30
0.0
 11
4419.4187391614041189
 21
158.046402811200096
 31
0.0
  0
ARC
  5
B60D
  8
0
 10
4419.3860698574226262
 20
158.0534514547574076
 30
0.0
 40
0.0066903659307109
 50
236.0025398122836009
 51
270.2610790364366835
  0
LINE
  5
B60E
  8
0
 10
4419.3823288981438964
 20
158.0479047241925059
 30
0.0
 11
4419.3675959288029844
 21
158.0574640295000961
 31
0.0
  0
LINE
  5
B60F
  8
0
 10
4419.3861003432357393
 20
158.046761158287012
 30
0.0
 11
4419.3866263217996675
 21
158.0464993894001111
 31
0.0
  0
LINE
  5
B610
  8
0
 10
4419.3866263217996675
 20
158.0464993894001111
 30
0.0
 11
4419.3871684805362747
 21
158.046402811200096
 31
0.0
  0
ARC
  5
B611
  8
0
 10
4419.4198377844677452
 20
158.0534514547574076
 30
0.0
 40
0.0066903659307109
 50
269.7389209635633165
 51
303.9974601877163991
  0
LINE
  5
B612
  8
0
 10
4419.4235787437446561
 20
158.0479047241925059
 30
0.0
 11
4419.4383117130846585
 21
158.0574640295000961
 31
0.0
  0
LINE
  5
B613
  8
0
 10
4419.4198072986546322
 20
158.046761158287012
 30
0.0
 11
4419.4192813200897945
 21
158.0464993894001111
 31
0.0
  0
LINE
  5
B614
  8
0
 10
4419.4192813200897945
 20
158.0464993894001111
 30
0.0
 11
4419.4187391613531872
 21
158.046402811200096
 31
0.0
  0
LINE
  5
B615
  8
0
 10
4419.387168480485343
 20
158.0242803746000959
 30
0.0
 11
4419.4187391613531872
 21
158.0242803746000959
 31
0.0
  0
ARC
  5
B616
  8
0
 10
4419.386069857372604
 20
158.0313290181574075
 30
0.0
 40
0.0066903659307109
 50
236.0025398122836009
 51
270.2610790364366835
  0
LINE
  5
B617
  8
0
 10
4419.3823288980947837
 20
158.0257822875925058
 30
0.0
 11
4419.3675959287538717
 21
158.035341592900096
 31
0.0
  0
LINE
  5
B618
  8
0
 10
4419.3861003431848076
 20
158.0246387216870119
 30
0.0
 11
4419.3866263217505548
 21
158.024376952800111
 31
0.0
  0
LINE
  5
B619
  8
0
 10
4419.3866263217505548
 20
158.024376952800111
 30
0.0
 11
4419.387168480485343
 21
158.0242803746000959
 31
0.0
  0
ARC
  5
B61A
  8
0
 10
4419.419837784417723
 20
158.0313290181574075
 30
0.0
 40
0.0066903659307109
 50
269.7389209635633165
 51
303.9974601877163991
  0
LINE
  5
B61B
  8
0
 10
4419.4235787436937244
 20
158.0257822875925058
 30
0.0
 11
4419.4383117130355458
 21
158.035341592900096
 31
0.0
  0
LINE
  5
B61C
  8
0
 10
4419.41980729860461
 20
158.0246387216870119
 30
0.0
 11
4419.4192813200388628
 21
158.024376952800111
 31
0.0
  0
LINE
  5
B61D
  8
0
 10
4419.4192813200388628
 20
158.024376952800111
 30
0.0
 11
4419.4187391613040745
 21
158.0242803746000959
 31
0.0
  0
ARC
  5
B61E
  8
0
 10
4419.6300145634522778
 20
158.1415830467315971
 30
0.0
 40
0.0084759512537552
 50
179.4976916528318043
 51
228.3373383381106123
  0
LINE
  5
B61F
  8
0
 10
4419.6215389379403859
 20
158.1570149943001127
 30
0.0
 11
4419.6215389379403859
 21
158.1416573539000865
 31
0.0
  0
ARC
  5
B620
  8
0
 10
4419.5338957059875611
 20
158.1083993917316093
 30
0.0
 40
0.0084759512537552
 50
311.6626616618895014
 51
0.5023083471682253
  0
LINE
  5
B621
  8
0
 10
4419.5423713315003624
 20
158.1238313393000965
 30
0.0
 11
4419.5423713315003624
 21
158.1084736989000987
 31
0.0
  0
ARC
  5
B622
  8
0
 10
4419.578871330902075
 20
158.1083993917316093
 30
0.0
 40
0.0084759512537552
 50
179.4976916528318043
 51
228.3373383381106123
  0
LINE
  5
B623
  8
0
 10
4419.5703957053901831
 20
158.1238313393000965
 30
0.0
 11
4419.5703957053901831
 21
158.1084736989000987
 31
0.0
  0
ARC
  5
B624
  8
0
 10
4419.5338957059875611
 20
158.0862769551316092
 30
0.0
 40
0.0084759512537552
 50
311.6626616618895014
 51
0.5023083471682253
  0
LINE
  5
B625
  8
0
 10
4419.5423713315003624
 20
158.1017089027000964
 30
0.0
 11
4419.5423713315003624
 21
158.0863512623000986
 31
0.0
  0
ARC
  5
B626
  8
0
 10
4419.578871330902075
 20
158.0862769551316092
 30
0.0
 40
0.0084759512537552
 50
179.4976916528318043
 51
228.3373383381106123
  0
LINE
  5
B627
  8
0
 10
4419.5703957053901831
 20
158.1017089027000964
 30
0.0
 11
4419.5703957053901831
 21
158.0863512623000986
 31
0.0
  0
ARC
  5
B628
  8
0
 10
4419.5338957059875611
 20
158.064154518531609
 30
0.0
 40
0.0084759512537552
 50
311.6626616618895014
 51
0.5023083471682253
  0
LINE
  5
B629
  8
0
 10
4419.5423713315003624
 20
158.0795864661000962
 30
0.0
 11
4419.5423713315003624
 21
158.0642288257000985
 31
0.0
  0
ARC
  5
B62A
  8
0
 10
4419.578871330902075
 20
158.064154518531609
 30
0.0
 40
0.0084759512537552
 50
179.4976916528318043
 51
228.3373383381106123
  0
LINE
  5
B62B
  8
0
 10
4419.5703957053901831
 20
158.0795864661000962
 30
0.0
 11
4419.5703957053901831
 21
158.0642288257000985
 31
0.0
  0
ARC
  5
B62C
  8
0
 10
4419.5338957059875611
 20
158.0420320819316089
 30
0.0
 40
0.0084759512537552
 50
311.6626616618895014
 51
0.5023083471682253
  0
LINE
  5
B62D
  8
0
 10
4419.5423713315003624
 20
158.0574640295000961
 30
0.0
 11
4419.5423713315003624
 21
158.0421063891000983
 31
0.0
  0
ARC
  5
B62E
  8
0
 10
4419.578871330902075
 20
158.0420320819316089
 30
0.0
 40
0.0084759512537552
 50
179.4976916528318043
 51
228.3373383381106123
  0
LINE
  5
B62F
  8
0
 10
4419.5703957053901831
 20
158.0574640295000961
 30
0.0
 11
4419.5703957053901831
 21
158.0421063891000983
 31
0.0
  0
ARC
  5
B630
  8
0
 10
4419.5338957059875611
 20
158.0199096453316088
 30
0.0
 40
0.0084759512537552
 50
311.6626616618895014
 51
0.5023083471682253
  0
LINE
  5
B631
  8
0
 10
4419.5423713315003624
 20
158.035341592900096
 30
0.0
 11
4419.5423713315003624
 21
158.0199839525000982
 31
0.0
  0
ARC
  5
B632
  8
0
 10
4419.578871330902075
 20
158.0199096453316088
 30
0.0
 40
0.0084759512537552
 50
179.4976916528318043
 51
228.3373383381106123
  0
LINE
  5
B633
  8
0
 10
4419.5703957053901831
 20
158.035341592900096
 30
0.0
 11
4419.5703957053901831
 21
158.0199839525000982
 31
0.0
  0
ARC
  5
B634
  8
0
 10
4419.5338957059875611
 20
157.9977872087316086
 30
0.0
 40
0.0084759512537552
 50
311.6626616618895014
 51
0.5023083471682253
  0
LINE
  5
B635
  8
0
 10
4419.5423713315003624
 20
158.0132191563000958
 30
0.0
 11
4419.5423713315003624
 21
157.9978615159000981
 31
0.0
  0
ARC
  5
B636
  8
0
 10
4419.578871330902075
 20
157.9977872087316086
 30
0.0
 40
0.0084759512537552
 50
179.4976916528318043
 51
228.3373383381106123
  0
LINE
  5
B637
  8
0
 10
4419.5703957053901831
 20
158.0132191563000958
 30
0.0
 11
4419.5703957053901831
 21
157.9978615159000981
 31
0.0
  0
ARC
  5
B638
  8
0
 10
4419.5338957059875611
 20
157.9756647720315925
 30
0.0
 40
0.0084759512537552
 50
311.6626616618895014
 51
0.5023083471682253
  0
LINE
  5
B639
  8
0
 10
4419.5423713315003624
 20
157.9910967196001081
 30
0.0
 11
4419.5423713315003624
 21
157.9757390792001104
 31
0.0
  0
ARC
  5
B63A
  8
0
 10
4419.578871330902075
 20
157.9756647720315925
 30
0.0
 40
0.0084759512537552
 50
179.4976916528318043
 51
228.3373383381106123
  0
LINE
  5
B63B
  8
0
 10
4419.5703957053901831
 20
157.9910967196001081
 30
0.0
 11
4419.5703957053901831
 21
157.9757390792001104
 31
0.0
  0
ARC
  5
B63C
  8
0
 10
4419.48275247348829
 20
157.9867259903315926
 30
0.0
 40
0.0084759512537552
 50
311.6626616618895014
 51
0.5023083471682253
  0
LINE
  5
B63D
  8
0
 10
4419.4912280990001818
 20
158.0021579379001082
 30
0.0
 11
4419.4912280990001818
 21
157.9868002975001104
 31
0.0
  0
ARC
  5
B63E
  8
0
 10
4419.5277280984018944
 20
157.9867259903315926
 30
0.0
 40
0.0084759512537552
 50
179.4976916528318043
 51
228.3373383381106123
  0
LINE
  5
B63F
  8
0
 10
4419.5192524728900025
 20
158.0021579379001082
 30
0.0
 11
4419.5192524728900025
 21
157.9868002975001104
 31
0.0
  0
ARC
  5
B640
  8
0
 10
4419.48275247348829
 20
158.0088484270316087
 30
0.0
 40
0.0084759512537552
 50
311.6626616618895014
 51
0.5023083471682253
  0
LINE
  5
B641
  8
0
 10
4419.4912280990001818
 20
158.0242803746000959
 30
0.0
 11
4419.4912280990001818
 21
158.0089227342000981
 31
0.0
  0
ARC
  5
B642
  8
0
 10
4419.5277280984018944
 20
158.0088484270316087
 30
0.0
 40
0.0084759512537552
 50
179.4976916528318043
 51
228.3373383381106123
  0
LINE
  5
B643
  8
0
 10
4419.5192524728900025
 20
158.0242803746000959
 30
0.0
 11
4419.5192524728900025
 21
158.0089227342000981
 31
0.0
  0
ARC
  5
B644
  8
0
 10
4419.48275247348829
 20
158.0309708636316088
 30
0.0
 40
0.0084759512537552
 50
311.6626616618895014
 51
0.5023083471682253
  0
LINE
  5
B645
  8
0
 10
4419.4912280990001818
 20
158.046402811200096
 30
0.0
 11
4419.4912280990001818
 21
158.0310451708000983
 31
0.0
  0
ARC
  5
B646
  8
0
 10
4419.5277280984018944
 20
158.0309708636316088
 30
0.0
 40
0.0084759512537552
 50
179.4976916528318043
 51
228.3373383381106123
  0
LINE
  5
B647
  8
0
 10
4419.5192524728900025
 20
158.046402811200096
 30
0.0
 11
4419.5192524728900025
 21
158.0310451708000983
 31
0.0
  0
ARC
  5
B648
  8
0
 10
4419.48275247348829
 20
158.053093300231609
 30
0.0
 40
0.0084759512537552
 50
311.6626616618895014
 51
0.5023083471682253
  0
LINE
  5
B649
  8
0
 10
4419.4912280990001818
 20
158.0685252478000962
 30
0.0
 11
4419.4912280990001818
 21
158.0531676074000984
 31
0.0
  0
ARC
  5
B64A
  8
0
 10
4419.5277280984018944
 20
158.053093300231609
 30
0.0
 40
0.0084759512537552
 50
179.4976916528318043
 51
228.3373383381106123
  0
LINE
  5
B64B
  8
0
 10
4419.5192524728900025
 20
158.0685252478000962
 30
0.0
 11
4419.5192524728900025
 21
158.0531676074000984
 31
0.0
  0
ARC
  5
B64C
  8
0
 10
4419.48275247348829
 20
158.0752157368316091
 30
0.0
 40
0.0084759512537552
 50
311.6626616618895014
 51
0.5023083471682253
  0
LINE
  5
B64D
  8
0
 10
4419.4912280990001818
 20
158.0906476844000963
 30
0.0
 11
4419.4912280990001818
 21
158.0752900440000985
 31
0.0
  0
ARC
  5
B64E
  8
0
 10
4419.5277280984018944
 20
158.0752157368316091
 30
0.0
 40
0.0084759512537552
 50
179.4976916528318043
 51
228.3373383381106123
  0
LINE
  5
B64F
  8
0
 10
4419.5192524728900025
 20
158.0906476844000963
 30
0.0
 11
4419.5192524728900025
 21
158.0752900440000985
 31
0.0
  0
ARC
  5
B650
  8
0
 10
4419.48275247348829
 20
158.0973381734316092
 30
0.0
 40
0.0084759512537552
 50
311.6626616618895014
 51
0.5023083471682253
  0
LINE
  5
B651
  8
0
 10
4419.4912280990001818
 20
158.1127701210000964
 30
0.0
 11
4419.4912280990001818
 21
158.0974124806000987
 31
0.0
  0
ARC
  5
B652
  8
0
 10
4419.5277280984018944
 20
158.0973381734316092
 30
0.0
 40
0.0084759512537552
 50
179.4976916528318043
 51
228.3373383381106123
  0
LINE
  5
B653
  8
0
 10
4419.5192524728900025
 20
158.1127701210000964
 30
0.0
 11
4419.5192524728900025
 21
158.0974124806000987
 31
0.0
  0
ARC
  5
B654
  8
0
 10
4419.48275247348829
 20
158.1194606101315969
 30
0.0
 40
0.0084759512537552
 50
311.6626616618895014
 51
0.5023083471682253
  0
LINE
  5
B655
  8
0
 10
4419.4912280990001818
 20
158.1348925577001125
 30
0.0
 11
4419.4912280990001818
 21
158.1195349173000864
 31
0.0
  0
ARC
  5
B656
  8
0
 10
4419.5277280984018944
 20
158.1194606101315969
 30
0.0
 40
0.0084759512537552
 50
179.4976916528318043
 51
228.3373383381106123
  0
LINE
  5
B657
  8
0
 10
4419.5192524728900025
 20
158.1348925577001125
 30
0.0
 11
4419.5192524728900025
 21
158.1195349173000864
 31
0.0
  0
ARC
  5
B658
  8
0
 10
4419.48275247348829
 20
158.1415830467315971
 30
0.0
 40
0.0084759512537552
 50
311.6626616618895014
 51
0.5023083471682253
  0
LINE
  5
B659
  8
0
 10
4419.4912280990001818
 20
158.152612478830406
 30
0.0
 11
4419.4912280990001818
 21
158.1416573539000865
 31
0.0
  0
ARC
  5
B65A
  8
0
 10
4419.5277280984018944
 20
158.1415830467315971
 30
0.0
 40
0.0084759512537552
 50
179.4976916528318043
 51
228.3373383381106123
  0
LINE
  5
B65B
  8
0
 10
4419.5192524728900025
 20
158.1586772504317935
 30
0.0
 11
4419.5192524728900025
 21
158.1416573539000865
 31
0.0
  0
ARC
  5
B65C
  8
0
 10
4419.4329977583456639
 20
158.0859892148421011
 30
0.0
 40
0.0070963498059328
 50
306.748959347513221
 51
2.9244331112215849
  0
LINE
  5
B65D
  8
0
 10
4419.4400848665000012
 20
158.1017089027000964
 30
0.0
 11
4419.4400848665000012
 21
158.0863512623000986
 31
0.0
  0
ARC
  5
B65E
  8
0
 10
4419.4751934160904057
 20
158.0859878372272078
 30
0.0
 40
0.0070934916197748
 50
177.0632456264370944
 51
233.2633619448901072
  0
LINE
  5
B65F
  8
0
 10
4419.4681092403898219
 20
158.1017089027000964
 30
0.0
 11
4419.4681092403898219
 21
158.0863512623000986
 31
0.0
  0
ARC
  5
B660
  8
0
 10
4419.4316092409881094
 20
158.0420320819316089
 30
0.0
 40
0.0084759512537552
 50
311.6626616618895014
 51
0.5023083471682253
  0
LINE
  5
B661
  8
0
 10
4419.4400848665000012
 20
158.0574640295000961
 30
0.0
 11
4419.4400848665000012
 21
158.0421063891000983
 31
0.0
  0
ARC
  5
B662
  8
0
 10
4419.4765848659017138
 20
158.0420320819316089
 30
0.0
 40
0.0084759512537552
 50
179.4976916528318043
 51
228.3373383381106123
  0
LINE
  5
B663
  8
0
 10
4419.4681092403898219
 20
158.0574640295000961
 30
0.0
 11
4419.4681092403898219
 21
158.0421063891000983
 31
0.0
  0
ARC
  5
B664
  8
0
 10
4419.4316092409881094
 20
158.0199096453316088
 30
0.0
 40
0.0084759512537552
 50
311.6626616618895014
 51
0.5023083471682253
  0
LINE
  5
B665
  8
0
 10
4419.4400848665000012
 20
158.035341592900096
 30
0.0
 11
4419.4400848665000012
 21
158.0199839525000982
 31
0.0
  0
ARC
  5
B666
  8
0
 10
4419.4765848659017138
 20
158.0199096453316088
 30
0.0
 40
0.0084759512537552
 50
179.4976916528318043
 51
228.3373383381106123
  0
LINE
  5
B667
  8
0
 10
4419.4681092403898219
 20
158.035341592900096
 30
0.0
 11
4419.4681092403898219
 21
158.0199839525000982
 31
0.0
  0
ARC
  5
B668
  8
0
 10
4419.4316092409881094
 20
157.9977872087316086
 30
0.0
 40
0.0084759512537552
 50
311.6626616618895014
 51
0.5023083471682253
  0
LINE
  5
B669
  8
0
 10
4419.4400848665000012
 20
158.0132191563000958
 30
0.0
 11
4419.4400848665000012
 21
157.9978615159000981
 31
0.0
  0
ARC
  5
B66A
  8
0
 10
4419.4765848659017138
 20
157.9977872087316086
 30
0.0
 40
0.0084759512537552
 50
179.4976916528318043
 51
228.3373383381106123
  0
LINE
  5
B66B
  8
0
 10
4419.4681092403898219
 20
158.0132191563000958
 30
0.0
 11
4419.4681092403898219
 21
157.9978615159000981
 31
0.0
  0
ARC
  5
B66C
  8
0
 10
4419.3804660084879288
 20
158.0309708636316088
 30
0.0
 40
0.0084759512537552
 50
311.6626616618895014
 51
0.5023083471682253
  0
LINE
  5
B66D
  8
0
 10
4419.3889416339989111
 20
158.046402811200096
 30
0.0
 11
4419.3889416339989111
 21
158.0310451708000983
 31
0.0
  0
ARC
  5
B66E
  8
0
 10
4419.4254416334033522
 20
158.0309708636316088
 30
0.0
 40
0.0084759512537552
 50
179.4976916528318043
 51
228.3373383381106123
  0
LINE
  5
B66F
  8
0
 10
4419.4169660078887318
 20
158.046402811200096
 30
0.0
 11
4419.4169660078887318
 21
158.0310451708000983
 31
0.0
  0
ARC
  5
B670
  8
0
 10
4419.3804660084879288
 20
158.053093300231609
 30
0.0
 40
0.0084759512537552
 50
311.6626616618895014
 51
0.5023083471682253
  0
LINE
  5
B671
  8
0
 10
4419.3889416339989111
 20
158.0685252478000962
 30
0.0
 11
4419.3889416339989111
 21
158.0531676074000984
 31
0.0
  0
ARC
  5
B672
  8
0
 10
4419.4254416334033522
 20
158.053093300231609
 30
0.0
 40
0.0084759512537552
 50
179.4976916528318043
 51
228.3373383381106123
  0
LINE
  5
B673
  8
0
 10
4419.4169660078887318
 20
158.0685252478000962
 30
0.0
 11
4419.4169660078887318
 21
158.0531676074000984
 31
0.0
  0
ARC
  5
B674
  8
0
 10
4419.3804660084879288
 20
158.0752157368316091
 30
0.0
 40
0.0084759512537552
 50
311.6626616618895014
 51
0.5023083471682253
  0
LINE
  5
B675
  8
0
 10
4419.3889416339989111
 20
158.0906476844000963
 30
0.0
 11
4419.3889416339989111
 21
158.0752900440000985
 31
0.0
  0
ARC
  5
B676
  8
0
 10
4419.4254416334033522
 20
158.0752157368316091
 30
0.0
 40
0.0084759512537552
 50
179.4976916528318043
 51
228.3373383381106123
  0
LINE
  5
B677
  8
0
 10
4419.4169660078887318
 20
158.0906476844000963
 30
0.0
 11
4419.4169660078887318
 21
158.0752900440000985
 31
0.0
  0
ARC
  5
B678
  8
0
 10
4419.3804660084379066
 20
158.0973381734316092
 30
0.0
 40
0.0084759512537552
 50
311.6626616618895014
 51
0.5023083471682253
  0
LINE
  5
B679
  8
0
 10
4419.3889416339497984
 20
158.1127701210000964
 30
0.0
 11
4419.3889416339497984
 21
158.0974124806000987
 31
0.0
  0
ARC
  5
B67A
  8
0
 10
4419.42544163335333
 20
158.0973381734316092
 30
0.0
 40
0.0084759512537552
 50
179.4976916528318043
 51
228.3373383381106123
  0
LINE
  5
B67B
  8
0
 10
4419.4169660078387096
 20
158.1127701210000964
 30
0.0
 11
4419.4169660078387096
 21
158.0974124806000987
 31
0.0
  0
LINE
  5
B67C
  8
0
 10
4419.6456373285000154
 20
157.9533086878001029
 30
0.0
 11
4419.6720929058847105
 21
157.9531049711166872
 31
0.0
  0
LINE
  5
B67D
  8
0
 10
4419.6456373285000154
 20
157.968974283000108
 30
0.0
 11
4419.6456355808004446
 21
157.9529822194000985
 31
0.0
  0
ARC
  5
B67E
  8
0
 10
4419.6395338807287771
 20
157.9550706835539131
 30
0.0
 40
0.0064492191327622
 50
234.9804972370023961
 51
341.1051665491982021
  0
LINE
  5
B67F
  8
0
 10
4419.6233120913020684
 20
157.957913064700108
 30
0.0
 11
4419.6358329625863917
 21
157.9497890519562873
 31
0.0
  0
LINE
  5
B680
  8
0
 10
4419.5759237656502592
 20
157.9569638638647859
 30
0.0
 11
4419.5759237656502592
 21
157.9665379580399929
 31
0.0
  0
LINE
  5
B681
  8
0
 10
4419.5842347917623556
 20
157.9527902225225944
 30
0.0
 11
4419.592129662230036
 21
157.957913064700108
 31
0.0
  0
ARC
  5
B682
  8
0
 10
4419.5815256592622973
 20
157.9577572395454013
 30
0.0
 40
0.0056577961263567
 50
188.0609809773766017
 51
298.6091304507892232
  0
LINE
  5
B683
  8
0
 10
4419.5195311017187123
 20
157.9645954942797061
 30
0.0
 11
4419.5195311017187123
 21
157.9800355013001081
 31
0.0
  0
LINE
  5
B684
  8
0
 10
4419.5278421278308087
 20
157.9604218529374862
 30
0.0
 11
4419.541022375279681
 21
157.968974283000108
 31
0.0
  0
ARC
  5
B685
  8
0
 10
4419.5251329953307504
 20
157.9653888699604067
 30
0.0
 40
0.0056577961263567
 50
188.0609809773766017
 51
298.6091304507892232
  0
LINE
  5
B686
  8
0
 10
4419.4688688819560412
 20
157.9755906433780979
 30
0.0
 11
4419.4688688819560412
 21
157.9910967196001081
 31
0.0
  0
LINE
  5
B687
  8
0
 10
4419.4768590156545542
 20
157.9716106928231056
 30
0.0
 11
4419.4909012357666143
 21
157.9800355013001081
 31
0.0
  0
ARC
  5
B688
  8
0
 10
4419.4741274998732479
 20
157.9761373684513046
 30
0.0
 40
0.0052869623319876
 50
185.9355708324789873
 51
301.1078918842018766
  0
LINE
  5
B689
  8
0
 10
4419.4239031529750719
 20
157.9910503503182895
 30
0.0
 11
4419.4239031512006477
 21
157.9988073468286984
 31
0.0
  0
LINE
  5
B68A
  8
0
 10
4419.429913459499403
 20
157.9853955215874919
 30
0.0
 11
4419.4387002460971416
 21
157.9910967196001081
 31
0.0
  0
ARC
  5
B68B
  8
0
 10
4419.4294735464891346
 20
157.9909494341299023
 30
0.0
 40
0.0055713075647094
 50
178.9621131520661095
 51
274.5288154696626179
  0
LINE
  5
B68C
  8
0
 10
4419.3869826567497512
 20
158.010144479614496
 30
0.0
 11
4419.3869826567497512
 21
158.0239077100873999
 31
0.0
  0
LINE
  5
B68D
  8
0
 10
4419.4173545410003499
 20
158.0089227342000981
 30
0.0
 11
4419.4173545410003499
 21
158.0242803746000959
 31
0.0
  0
LINE
  5
B68E
  8
0
 10
4419.3921390174973567
 20
158.0021579379001082
 30
0.0
 11
4419.4191301879000093
 21
158.0021595156001126
 31
0.0
  0
ARC
  5
B68F
  8
0
 10
4419.3948362453165828
 20
158.0095571770359868
 30
0.0
 40
0.007875517613973
 50
175.7233000011027002
 51
249.9717996210750925
  0
LINE
  5
B690
  8
0
 10
4419.3684773948498332
 20
158.0217830520217035
 30
0.0
 11
4419.3684773948498332
 21
158.034769664503699
 31
0.0
  0
LINE
  5
B691
  8
0
 10
4419.3730228812992209
 20
158.0148500821997004
 30
0.0
 11
4419.387557013854348
 21
158.0242803746000959
 31
0.0
  0
ARC
  5
B692
  8
0
 10
4419.3788091248734418
 20
158.0225312587259907
 30
0.0
 40
0.0103587865375362
 50
184.1420343065481973
 51
225.2428699808091039
  0
ARC
  5
B693
  8
0
 10
4419.3725145642611096
 20
158.0161494620614064
 30
0.0
 40
0.0013952685176882
 50
224.2700339484215135
 51
291.3654234299236236
  0
LINE
  5
B694
  8
0
 10
4419.4191301879000093
 20
158.0021595156001126
 30
0.0
 11
4419.4196691443003147
 21
158.002254669400088
 31
0.0
  0
LINE
  5
B695
  8
0
 10
4419.4196691443003147
 20
158.002254669400088
 30
0.0
 11
4419.4201972716109594
 21
158.0025162852475944
 31
0.0
  0
ARC
  5
B696
  8
0
 10
4419.4204662537085824
 20
158.0086521833958955
 30
0.0
 40
0.0061417910647593
 50
267.4899060187353825
 51
304.7689942993911245
  0
LINE
  5
B697
  8
0
 10
4419.4239687274821335
 20
158.003606960413407
 30
0.0
 11
4419.438701696822136
 21
158.013166265720912
 31
0.0
  0
ARC
  5
B698
  8
0
 10
4419.4270189259314066
 20
158.0093771809839041
 30
0.0
 40
0.0096750637194205
 50
182.6922268862211922
 51
225.1643232678194977
  0
LINE
  5
B699
  8
0
 10
4419.3432066062414378
 20
158.0574640295000961
 30
0.0
 11
4419.3679844619136929
 21
158.0574640295000961
 31
0.0
  0
ARC
  5
B69A
  8
0
 10
4419.3690830849782287
 20
158.064512673057493
 30
0.0
 40
0.0066903659307109
 50
269.7389209635633165
 51
303.9974601877163991
  0
LINE
  5
B69B
  8
0
 10
4419.3728240442551396
 20
158.058965942492506
 30
0.0
 11
4419.3875570135951421
 21
158.0685252478000962
 31
0.0
  0
LINE
  5
B69C
  8
0
 10
4419.3690525991642062
 20
158.0578223765870121
 30
0.0
 11
4419.368526620600278
 21
158.0575606077001112
 31
0.0
  0
LINE
  5
B69D
  8
0
 10
4419.368526620600278
 20
158.0575606077001112
 30
0.0
 11
4419.3679844618645802
 21
158.0574640295000961
 31
0.0
  0
ARC
  5
B69E
  8
0
 10
4419.3746869339120167
 20
158.064154518531609
 30
0.0
 40
0.0084759512537552
 50
179.4976916528318043
 51
228.3373383381106123
  0
LINE
  5
B69F
  8
0
 10
4419.3662113084001248
 20
158.0795864661000962
 30
0.0
 11
4419.3662113084001248
 21
158.0642288257000985
 31
0.0
  0
LINE
  5
B6A0
  8
0
 10
4419.349562785127091
 20
158.035341592900096
 30
0.0
 11
4419.3679844619136929
 21
158.035341592900096
 31
0.0
  0
ARC
  5
B6A1
  8
0
 10
4419.3690830849782287
 20
158.0423902364574076
 30
0.0
 40
0.0066903659307109
 50
269.7389209635633165
 51
303.9974601877163991
  0
LINE
  5
B6A2
  8
0
 10
4419.3728240442551396
 20
158.0368435058925058
 30
0.0
 11
4419.3875570135951421
 21
158.046402811200096
 31
0.0
  0
LINE
  5
B6A3
  8
0
 10
4419.3690525991642062
 20
158.0356999399870119
 30
0.0
 11
4419.368526620600278
 21
158.035438171100111
 31
0.0
  0
LINE
  5
B6A4
  8
0
 10
4419.368526620600278
 20
158.035438171100111
 30
0.0
 11
4419.3679844618645802
 21
158.035341592900096
 31
0.0
  0
ARC
  5
B6A5
  8
0
 10
4419.3746869339120167
 20
158.0420320819316089
 30
0.0
 40
0.0084759512537552
 50
179.4976916528318043
 51
228.3373383381106123
  0
LINE
  5
B6A6
  8
0
 10
4419.3662113084001248
 20
158.0574640295000961
 30
0.0
 11
4419.3662113084001248
 21
158.0421063891000983
 31
0.0
  0
ARC
  5
B6A7
  8
0
 10
4419.3690868560133822
 20
158.0866351096574078
 30
0.0
 40
0.0066903659307109
 50
269.7389209635633165
 51
303.9974601877163991
  0
LINE
  5
B6A8
  8
0
 10
4419.3728278152912026
 20
158.0810883790925061
 30
0.0
 11
4419.3875607846321145
 21
158.0906476844000963
 31
0.0
  0
LINE
  5
B6A9
  8
0
 10
4419.3690563702002692
 20
158.0799448131870122
 30
0.0
 11
4419.3685303916354314
 21
158.0796830443001113
 31
0.0
  0
LINE
  5
B6AA
  8
0
 10
4419.3685303916354314
 20
158.0796830443001113
 30
0.0
 11
4419.3679882329006432
 21
158.0795864661000962
 31
0.0
  0
ARC
  5
B6AB
  8
0
 10
4419.3765916964857752
 20
158.0871261630425124
 30
0.0
 40
0.0104092712504235
 50
184.2692376488911918
 51
223.622145032924891
  0
LINE
  5
B6AC
  8
0
 10
4419.3662113084001248
 20
158.0960198985924023
 30
0.0
 11
4419.3662113084001248
 21
158.0863512623000986
 31
0.0
  0
LINE
  5
B6AD
  8
0
 10
4419.3512589491729159
 20
158.0795864661000962
 30
0.0
 11
4419.3679844619136929
 21
158.0795864661000962
 31
0.0
  0
LINE
  5
B6AE
  8
0
 10
4419.5855605328433739
 20
158.1594582020852897
 30
0.0
 11
4419.5744038786342571
 21
158.1666214604670131
 31
0.0
  0
ARC
  5
B6AF
  8
0
 10
4419.4316693106020466
 20
158.1083727505273089
 30
0.0
 40
0.0084161613533226
 50
311.4777151837033102
 51
0.6872555726979498
  0
LINE
  5
B6B0
  8
0
 10
4419.4400848665000012
 20
158.1238313393000965
 30
0.0
 11
4419.4400848665000012
 21
158.1084736989000987
 31
0.0
  0
ARC
  5
B6B1
  8
0
 10
4419.4765249014535584
 20
158.1083727972558961
 30
0.0
 40
0.0084162659511682
 50
179.3130711078086108
 51
228.5219596003576896
  0
LINE
  5
B6B2
  8
0
 10
4419.4681092403898219
 20
158.1238313393000965
 30
0.0
 11
4419.4681092403898219
 21
158.1084736989000987
 31
0.0
  0
ARC
  5
B6B3
  8
0
 10
4419.5338957059875611
 20
158.130521828431597
 30
0.0
 40
0.0084759512537552
 50
311.6626616618895014
 51
0.5023083471682253
  0
LINE
  5
B6B4
  8
0
 10
4419.5423713315003624
 20
158.1459537760001126
 30
0.0
 11
4419.5423713315003624
 21
158.1305961356000864
 31
0.0
  0
ARC
  5
B6B5
  8
0
 10
4419.578871330902075
 20
158.130521828431597
 30
0.0
 40
0.0084759512537552
 50
179.4976916528318043
 51
228.3373383381106123
  0
LINE
  5
B6B6
  8
0
 10
4419.5703957053901831
 20
158.1459537760001126
 30
0.0
 11
4419.5703957053901831
 21
158.1305961356000864
 31
0.0
  0
ARC
  5
B6B7
  8
0
 10
4419.5338957059557288
 20
158.1526442650477122
 30
0.0
 40
0.0084759512537552
 50
311.6626616618895014
 51
0.5023083471682253
  0
LINE
  5
B6B8
  8
0
 10
4419.5423713314667111
 20
158.1626422802040963
 30
0.0
 11
4419.5423713314667111
 21
158.152718572216088
 31
0.0
  0
ARC
  5
B6B9
  8
0
 10
4419.5788713308702427
 20
158.1526442650477122
 30
0.0
 40
0.0084759512537552
 50
179.4976916528318043
 51
228.3373383381106123
  0
LINE
  5
B6BA
  8
0
 10
4419.5703957053574413
 20
158.1662187379031934
 30
0.0
 11
4419.5703957053574413
 21
158.152718572216088
 31
0.0
  0
ARC
  5
B6BB
  8
0
 10
4419.4754748779769216
 20
158.1302918072647117
 30
0.0
 40
0.0073719219410708
 50
177.634039068189395
 51
235.7466478325910941
  0
LINE
  5
B6BC
  8
0
 10
4419.4681092403798175
 20
158.1465423878235015
 30
0.0
 11
4419.4681092403798175
 21
158.1305961355000989
 31
0.0
  0
ARC
  5
B6BD
  8
0
 10
4419.4316693102073259
 20
158.1304951868343096
 30
0.0
 40
0.0084161613533226
 50
311.4777151837033102
 51
0.6872555726979498
  0
LINE
  5
B6BE
  8
0
 10
4419.4400848661052805
 20
158.1378438981030001
 30
0.0
 11
4419.4400848661052805
 21
158.1305961352070995
 31
0.0
  0
ARC
  5
B6BF
  8
0
 10
4419.5850990077424285
 20
158.1636788417941943
 30
0.0
 40
0.0084161613533226
 50
311.4777151837033102
 51
0.6872555726979498
  0
LINE
  5
B6C0
  8
0
 10
4419.5935145636412926
 20
158.1682478799966134
 30
0.0
 11
4419.5935145636412926
 21
158.1637797901670126
 31
0.0
  0
ARC
  5
B6C1
  8
0
 10
4419.6304030961900935
 20
158.1637054834029925
 30
0.0
 40
0.0084759512537552
 50
179.4976916528318043
 51
228.3373383381106123
  0
LINE
  5
B6C2
  8
0
 10
4419.6219274706782016
 20
158.1700015531014003
 30
0.0
 11
4419.6219274706782016
 21
158.1637797905715104
 31
0.0
  0
ARC
  5
B6C3
  8
0
 10
4419.4275387770858288
 20
158.1203098179454969
 30
0.0
 40
0.0104092712504235
 50
184.2692376488911918
 51
223.622145032924891
  0
LINE
  5
B6C4
  8
0
 10
4419.4171583890010879
 20
158.1292035534953868
 30
0.0
 11
4419.4171583890010879
 21
158.1195349172031115
 31
0.0
  0
ARC
  5
B6C5
  8
0
 10
4419.630403096612099
 20
157.9646035537315925
 30
0.0
 40
0.0084759512537552
 50
179.4976916528318043
 51
228.3373383381106123
  0
LINE
  5
B6C6
  8
0
 10
4419.6219274711011167
 20
157.9800355013001081
 30
0.0
 11
4419.6219274711011167
 21
157.9646778609001103
 31
0.0
  0
ARC
  5
B6C7
  8
0
 10
4419.356553077512217
 20
158.0420320819316089
 30
0.0
 40
0.0084759512537552
 50
179.4976916528318043
 51
232.1247753901884039
  0
LINE
  5
B6C8
  8
0
 10
4419.3480774520003251
 20
158.0574640295000961
 30
0.0
 11
4419.3480774520003251
 21
158.0421063891000983
 31
0.0
  0
LINE
  5
B6C9
  8
0
 10
4419.2907540138003242
 20
158.0619430927748965
 30
0.0
 11
4419.2907540138003242
 21
158.1407955764098006
 31
0.0
  0
ARC
  5
B6CA
  8
0
 10
4419.6556434634931065
 20
157.2986260786809964
 30
0.0
 40
0.9008490273874326
 50
89.7951511696886513
 51
100.5753939241069048
  0
ARC
  5
B6CB
  8
0
 10
4419.5637832383808927
 20
157.7402991846261955
 30
0.0
 40
0.4499139249901331
 50
99.398613166220855
 51
119.5697930355563017
  0
ARC
  5
B6CC
  8
0
 10
4419.3997640592961034
 20
158.0294437515736945
 30
0.0
 40
0.1174881920775835
 50
119.5851567074049058
 51
152.7036925357465975
  0
ARC
  5
B6CD
  8
0
 10
4419.3459792346693575
 20
158.0612350815306968
 30
0.0
 40
0.0552297591873855
 50
156.4264115167335945
 51
179.2654835382894873
  0
ARC
  5
B6CE
  8
0
 10
4419.6582421590901504
 20
157.2906051260117977
 30
0.0
 40
0.8854241530164348
 50
89.9597445028267941
 51
97.7828939056283843
  0
ARC
  5
B6CF
  8
0
 10
4419.6240722876764266
 20
157.5406063560542123
 30
0.0
 40
0.6330985793323168
 50
97.7828939056283843
 51
109.0487157586065052
  0
ARC
  5
B6D0
  8
0
 10
4419.4748072047295864
 20
157.9500256551667121
 30
0.0
 40
0.1975238086422725
 50
106.881792762677307
 51
139.3505118860531127
  0
ARC
  5
B6D1
  8
0
 10
4419.3708691369647568
 20
158.0457792985475862
 30
0.0
 40
0.0565047202604425
 50
144.3668803747260085
 51
178.7825616334270933
  0
ARC
  5
B6D2
  8
0
 10
4419.3777635448795991
 20
158.0500520860040012
 30
0.0
 40
0.0634607830711944
 50
182.7748740724643142
 51
225.8921406135395102
  0
ARC
  5
B6D3
  8
0
 10
4419.4715808240125625
 20
158.1464978512269965
 30
0.0
 40
0.1980098432285291
 50
225.8237488187994018
 51
248.4637172401824898
  0
ARC
  5
B6D4
  8
0
 10
4419.6076530084901606
 20
158.479682649748014
 30
0.0
 40
0.557900518247646
 50
248.0258640828270984
 51
262.7567304219110724
  0
ARC
  5
B6D5
  8
0
 10
4419.6575293444811905
 20
158.7929507293883944
 30
0.0
 40
0.875014099306599
 50
262.1031811586113918
 51
270.0874094312943043
  0
ARC
  5
B6D6
  8
0
 10
4419.6588349256398942
 20
157.1604537409249929
 30
0.0
 40
1.070940135596061
 50
89.9984311308938629
 51
91.9290450728893376
  0
ARC
  5
B6D7
  8
0
 10
4419.657513862954147
 20
157.1996766265851875
 30
0.0
 40
1.0316950089414869
 50
91.9290450728893376
 51
97.1155107431528393
  0
ARC
  5
B6D8
  8
0
 10
4419.6279920277293058
 20
157.4361700880967874
 30
0.0
 40
0.7933660428194149
 50
97.1155107431528393
 51
106.6204972340144934
  0
ARC
  5
B6D9
  8
0
 10
4419.4868588303215802
 20
157.8886267299573944
 30
0.0
 40
0.3194974168583061
 50
105.5767355585608982
 51
127.491810757302801
  0
ARC
  5
B6DA
  8
0
 10
4419.3466718647659945
 20
158.0735537263597905
 30
0.0
 40
0.0874544021463863
 50
128.3602182688057098
 51
160.6503877607665061
  0
ARC
  5
B6DB
  8
0
 10
4419.3227202228717942
 20
158.0883225409046986
 30
0.0
 40
0.0602616165130219
 50
166.3632749513018041
 51
217.7405912486854049
  0
ARC
  5
B6DC
  8
0
 10
4419.367357640742739
 20
158.1168550112780053
 30
0.0
 40
0.113124949276963
 50
215.3296283317760924
 51
234.9477752098727876
  0
ARC
  5
B6DD
  8
0
 10
4419.2679049776606917
 20
158.0883284762628023
 30
0.0
 40
0.0814904090229314
 50
180.8389886006189045
 51
208.7565230887749124
  0
ARC
  5
B6DE
  8
0
 10
4419.3686040097936711
 20
158.1639627226008997
 30
0.0
 40
0.2069294975935802
 50
213.708211876041986
 51
247.9005683240293934
  0
ARC
  5
B6DF
  8
0
 10
4419.6599345643162451
 20
158.9559019202708896
 30
0.0
 40
1.05066323052157
 50
249.4283417762241015
 51
269.9416325812030095
  0
ARC
  5
B6E0
  8
0
 10
4419.3575849534090594
 20
158.0617822627606017
 30
0.0
 40
0.0668311331280808
 50
179.8621168084447959
 51
193.5943404290999013
  0
ARC
  5
B6E1
  8
0
 10
4419.3988878097388806
 20
158.0805010178401915
 30
0.0
 40
0.1116994624932776
 50
197.9515306689291094
 51
239.0306876514225962
  0
ARC
  5
B6E2
  8
0
 10
4419.5080822198824535
 20
158.2412910991747026
 30
0.0
 40
0.3059507649746056
 50
236.991097327062306
 51
249.7825371572261872
  0
ARC
  5
B6E3
  8
0
 10
4419.6608657811048033
 20
158.7573155010823882
 30
0.0
 40
0.843705927006267
 50
252.1573162447471077
 51
269.8640765899021972
  0
ARC
  5
B6E4
  8
0
 10
4420.0480987484943398
 20
158.0841712563027954
 30
0.0
 40
0.0832592215487412
 50
2.0401339936747891
 51
43.6623356027785618
  0
ARC
  5
B6E5
  8
0
 10
4419.9387008466019324
 20
157.9824985560825894
 30
0.0
 40
0.2326039234801894
 50
43.1753741044807526
 51
65.6011683521079618
  0
ARC
  5
B6E6
  8
0
 10
4419.6820473094730914
 20
157.3415943659722984
 30
0.0
 40
0.9228116233312001
 50
67.5272680135228995
 51
91.4395475566522151
  0
ARC
  5
B6E7
  8
0
 10
4419.6759424800766283
 20
158.1530024195575095
 30
0.0
 40
0.0066903659307109
 50
269.7389209635633165
 51
303.9974601877163991
  0
ARC
  5
B6E8
  8
0
 10
4419.6815463290122352
 20
158.1526442650315971
 30
0.0
 40
0.0084759512537552
 50
179.4976916528318043
 51
228.3373383381106123
  0
LINE
  5
B6E9
  8
0
 10
4419.6730707035003434
 20
158.1680762126001127
 30
0.0
 11
4419.6730707035003434
 21
158.1527185722000866
 31
0.0
  0
LINE
  5
B6EA
  8
0
 10
4419.6796834393553581
 20
158.1474556889924941
 30
0.0
 11
4419.6944164086962701
 21
158.1570149943001127
 31
0.0
  0
LINE
  5
B6EB
  8
0
 10
4419.6759119942644247
 20
158.1463121230870001
 30
0.0
 11
4419.675386015699587
 21
158.1460503542000993
 31
0.0
  0
LINE
  5
B6EC
  8
0
 10
4419.675386015699587
 20
158.1460503542000993
 30
0.0
 11
4419.6748438569647988
 21
158.1459537760001126
 31
0.0
  0
ARC
  5
B6ED
  8
0
 10
4419.6757742603767838
 20
158.1760837890626874
 30
0.0
 40
0.0076504691977244
 50
271.0315705682046996
 51
313.3939315123678853
  0
LINE
  5
B6EE
  8
0
 10
4419.675911994301714
 20
158.1684345598006018
 30
0.0
 11
4419.674842109421661
 21
158.1680762126001127
 31
0.0
  0
ARC
  5
B6EF
  8
0
 10
4419.6759424800766283
 20
158.1308799828574081
 30
0.0
 40
0.0066903659307109
 50
269.7389209635633165
 51
303.9974601877163991
  0
ARC
  5
B6F0
  8
0
 10
4419.6815463290122352
 20
158.1305218283316094
 30
0.0
 40
0.0084759512537552
 50
179.4976916528318043
 51
228.3373383381106123
  0
LINE
  5
B6F1
  8
0
 10
4419.6730707035003434
 20
158.1459537759000966
 30
0.0
 11
4419.6730707035003434
 21
158.1305961355000989
 31
0.0
  0
LINE
  5
B6F2
  8
0
 10
4419.6796834393553581
 20
158.1253332522925064
 30
0.0
 11
4419.6944164086962701
 21
158.1348925576000966
 31
0.0
  0
LINE
  5
B6F3
  8
0
 10
4419.6759119942644247
 20
158.1241896863870124
 30
0.0
 11
4419.675386015699587
 21
158.1239279175001116
 31
0.0
  0
LINE
  5
B6F4
  8
0
 10
4419.675386015699587
 20
158.1239279175001116
 30
0.0
 11
4419.6748438569647988
 21
158.1238313393000965
 31
0.0
  0
ARC
  5
B6F5
  8
0
 10
4419.6759424800766283
 20
158.108757546257408
 30
0.0
 40
0.0066903659307109
 50
269.7389209635633165
 51
303.9974601877163991
  0
ARC
  5
B6F6
  8
0
 10
4419.6815463290122352
 20
158.1083993917316093
 30
0.0
 40
0.0084759512537552
 50
179.4976916528318043
 51
228.3373383381106123
  0
LINE
  5
B6F7
  8
0
 10
4419.6730707035003434
 20
158.1238313393000965
 30
0.0
 11
4419.6730707035003434
 21
158.1084736989000987
 31
0.0
  0
LINE
  5
B6F8
  8
0
 10
4419.6796834393553581
 20
158.1032108156925062
 30
0.0
 11
4419.6944164086962701
 21
158.1127701210000964
 31
0.0
  0
LINE
  5
B6F9
  8
0
 10
4419.6759119942644247
 20
158.1020672497870123
 30
0.0
 11
4419.675386015699587
 21
158.1018054809001114
 31
0.0
  0
LINE
  5
B6FA
  8
0
 10
4419.675386015699587
 20
158.1018054809001114
 30
0.0
 11
4419.6748438569647988
 21
158.1017089027000964
 31
0.0
  0
ARC
  5
B6FB
  8
0
 10
4419.6759424800766283
 20
158.086993456857499
 30
0.0
 40
0.0066903659307109
 50
269.7389209635633165
 51
303.9974601877163991
  0
ARC
  5
B6FC
  8
0
 10
4419.6815463290122352
 20
158.0866353023315867
 30
0.0
 40
0.0084759512537552
 50
179.4976916528318043
 51
228.3373383381106123
  0
LINE
  5
B6FD
  8
0
 10
4419.6730707035003434
 20
158.1017089027000964
 30
0.0
 11
4419.6730707035003434
 21
158.0867096095001045
 31
0.0
  0
LINE
  5
B6FE
  8
0
 10
4419.6796834393553581
 20
158.081446726292512
 30
0.0
 11
4419.6944164087462923
 21
158.0906476844000963
 31
0.0
  0
LINE
  5
B6FF
  8
0
 10
4419.6759119942644247
 20
158.0803031603869897
 30
0.0
 11
4419.675386015699587
 21
158.0800413915000888
 31
0.0
  0
LINE
  5
B700
  8
0
 10
4419.675386015699587
 20
158.0800413915000888
 30
0.0
 11
4419.6748438569647988
 21
158.0799448133001022
 31
0.0
  0
ARC
  5
B701
  8
0
 10
4419.6759424800766283
 20
158.064512673057493
 30
0.0
 40
0.0066903659307109
 50
269.7389209635633165
 51
303.9974601877163991
  0
LINE
  5
B702
  8
0
 10
4419.6796834393553581
 20
158.058965942492506
 30
0.0
 11
4419.6944164087462923
 21
158.0688835950001021
 31
0.0
  0
LINE
  5
B703
  8
0
 10
4419.6759119942644247
 20
158.0578223765870121
 30
0.0
 11
4419.675386015699587
 21
158.0575606077001112
 31
0.0
  0
LINE
  5
B704
  8
0
 10
4419.675386015699587
 20
158.0575606077001112
 30
0.0
 11
4419.6748438569647988
 21
158.0574640295000961
 31
0.0
  0
ARC
  5
B705
  8
0
 10
4419.6759424800766283
 20
158.0423902364574076
 30
0.0
 40
0.0066903659307109
 50
269.7389209635633165
 51
303.9974601877163991
  0
ARC
  5
B706
  8
0
 10
4419.6815463290122352
 20
158.0420320819316089
 30
0.0
 40
0.0084759512537552
 50
179.4976916528318043
 51
228.3373383381106123
  0
LINE
  5
B707
  8
0
 10
4419.6730707035003434
 20
158.0574640295000961
 30
0.0
 11
4419.6730707035003434
 21
158.0421063891000983
 31
0.0
  0
LINE
  5
B708
  8
0
 10
4419.6796834393553581
 20
158.0368435058925058
 30
0.0
 11
4419.6944164086962701
 21
158.046402811200096
 31
0.0
  0
LINE
  5
B709
  8
0
 10
4419.6759119942644247
 20
158.0356999399870119
 30
0.0
 11
4419.675386015699587
 21
158.035438171100111
 31
0.0
  0
LINE
  5
B70A
  8
0
 10
4419.675386015699587
 20
158.035438171100111
 30
0.0
 11
4419.6748438569647988
 21
158.035341592900096
 31
0.0
  0
ARC
  5
B70B
  8
0
 10
4419.6759424800766283
 20
158.0202677997575051
 30
0.0
 40
0.0066903659307109
 50
269.7389209635633165
 51
303.9974601877163991
  0
ARC
  5
B70C
  8
0
 10
4419.6815463290122352
 20
158.0199096452315928
 30
0.0
 40
0.0084759512537552
 50
179.4976916528318043
 51
228.3373383381106123
  0
LINE
  5
B70D
  8
0
 10
4419.6730707035003434
 20
158.0353415928001084
 30
0.0
 11
4419.6730707035003434
 21
158.0199839524001106
 31
0.0
  0
LINE
  5
B70E
  8
0
 10
4419.6796834393553581
 20
158.0147210691924897
 30
0.0
 11
4419.6944164086962701
 21
158.0242803745001083
 31
0.0
  0
LINE
  5
B70F
  8
0
 10
4419.6759119942644247
 20
158.0135775032869958
 30
0.0
 11
4419.675386015699587
 21
158.0133157344000949
 31
0.0
  0
LINE
  5
B710
  8
0
 10
4419.675386015699587
 20
158.0133157344000949
 30
0.0
 11
4419.6748438569647988
 21
158.0132191562001083
 31
0.0
  0
ARC
  5
B711
  8
0
 10
4419.67594248012756
 20
157.998145363157505
 30
0.0
 40
0.0066903659307109
 50
269.7389209635633165
 51
303.9974601877163991
  0
ARC
  5
B712
  8
0
 10
4419.6815463290622574
 20
157.9977872086315926
 30
0.0
 40
0.0084759512537552
 50
179.4976916528318043
 51
228.3373383381106123
  0
LINE
  5
B713
  8
0
 10
4419.6730707035503656
 20
158.0132191562001083
 30
0.0
 11
4419.6730707035503656
 21
157.9978615158001105
 31
0.0
  0
LINE
  5
B714
  8
0
 10
4419.6796834394053803
 20
157.9925986325924896
 30
0.0
 11
4419.6944164087462923
 21
158.0021579379001082
 31
0.0
  0
LINE
  5
B715
  8
0
 10
4419.6759119943144469
 20
157.9914550666869957
 30
0.0
 11
4419.6753860157496092
 21
157.9911932978000948
 31
0.0
  0
LINE
  5
B716
  8
0
 10
4419.6753860157496092
 20
157.9911932978000948
 30
0.0
 11
4419.674843857014821
 21
157.9910967196001081
 31
0.0
  0
ARC
  5
B717
  8
0
 10
4419.6759424800766283
 20
157.9760229265573912
 30
0.0
 40
0.0066903659307109
 50
269.7389209635633165
 51
303.9974601877163991
  0
ARC
  5
B718
  8
0
 10
4419.6815463290122352
 20
157.9756647720315925
 30
0.0
 40
0.0084759512537552
 50
179.4976916528318043
 51
228.3373383381106123
  0
LINE
  5
B719
  8
0
 10
4419.6730707035003434
 20
157.9910967196001081
 30
0.0
 11
4419.6730707035003434
 21
157.9757390792001104
 31
0.0
  0
LINE
  5
B71A
  8
0
 10
4419.6796834393553581
 20
157.9704761959924895
 30
0.0
 11
4419.6944164086962701
 21
157.9800355013001081
 31
0.0
  0
LINE
  5
B71B
  8
0
 10
4419.6759119942644247
 20
157.9693326300869956
 30
0.0
 11
4419.675386015699587
 21
157.9690708612000947
 31
0.0
  0
LINE
  5
B71C
  8
0
 10
4419.675386015699587
 20
157.9690708612000947
 30
0.0
 11
4419.6748438569647988
 21
157.968974283000108
 31
0.0
  0
LINE
  5
B71D
  8
0
 10
4419.7259870895641143
 20
158.1348925577001125
 30
0.0
 11
4419.6944164086962701
 21
158.1348925576000966
 31
0.0
  0
ARC
  5
B71E
  8
0
 10
4419.7270857126777628
 20
158.1419412012575094
 30
0.0
 40
0.0066903659307109
 50
269.7389209635633165
 51
303.9974601877163991
  0
ARC
  5
B71F
  8
0
 10
4419.7326895616115507
 20
158.1415830467315971
 30
0.0
 40
0.0084759512537552
 50
179.4976916528318043
 51
228.3373383381106123
  0
LINE
  5
B720
  8
0
 10
4419.7242139361005684
 20
158.1570149943001127
 30
0.0
 11
4419.7242139361005684
 21
158.1416573539000865
 31
0.0
  0
LINE
  5
B721
  8
0
 10
4419.7308266719555832
 20
158.136394470692494
 30
0.0
 11
4419.7455596412955856
 21
158.1459537760001126
 31
0.0
  0
LINE
  5
B722
  8
0
 10
4419.7270552268637402
 20
158.1352509047870001
 30
0.0
 11
4419.726529248299812
 21
158.1349891359000992
 31
0.0
  0
LINE
  5
B723
  8
0
 10
4419.726529248299812
 20
158.1349891359000992
 30
0.0
 11
4419.7259870895641143
 21
158.1348925577001125
 31
0.0
  0
LINE
  5
B724
  8
0
 10
4419.7259853420209765
 20
158.1570149943001127
 30
0.0
 11
4419.6940249076778855
 21
158.1570149943001127
 31
0.0
  0
ARC
  5
B725
  8
0
 10
4419.7254346473491751
 20
158.168658979226592
 30
0.0
 40
0.0114013989041761
 50
278.1716201749745778
 51
306.1974411411611072
  0
LINE
  5
B726
  8
0
 10
4419.727055226901939
 20
158.1573733415006018
 30
0.0
 11
4419.7259853420209765
 21
158.1570149943001127
 31
0.0
  0
LINE
  5
B727
  8
0
 10
4419.7259870895641143
 20
158.1127701210000964
 30
0.0
 11
4419.6944164086962701
 21
158.1127701210000964
 31
0.0
  0
ARC
  5
B728
  8
0
 10
4419.7270857126777628
 20
158.1198187645574933
 30
0.0
 40
0.0066903659307109
 50
269.7389209635633165
 51
303.9974601877163991
  0
ARC
  5
B729
  8
0
 10
4419.7326895616115507
 20
158.1194606100316093
 30
0.0
 40
0.0084759512537552
 50
179.4976916528318043
 51
228.3373383381106123
  0
LINE
  5
B72A
  8
0
 10
4419.7242139361005684
 20
158.1348925576000966
 30
0.0
 11
4419.7242139361005684
 21
158.1195349172000988
 31
0.0
  0
LINE
  5
B72B
  8
0
 10
4419.7308266719555832
 20
158.1142720339925063
 30
0.0
 11
4419.7455596412955856
 21
158.1238313393000965
 31
0.0
  0
LINE
  5
B72C
  8
0
 10
4419.7270552268637402
 20
158.1131284680870124
 30
0.0
 11
4419.726529248299812
 21
158.1128666992001115
 31
0.0
  0
LINE
  5
B72D
  8
0
 10
4419.726529248299812
 20
158.1128666992001115
 30
0.0
 11
4419.7259870895641143
 21
158.1127701210000964
 31
0.0
  0
LINE
  5
B72E
  8
0
 10
4419.7259870895641143
 20
158.0906476844000963
 30
0.0
 11
4419.6944164087462923
 21
158.0906476844000963
 31
0.0
  0
ARC
  5
B72F
  8
0
 10
4419.7270857126777628
 20
158.0976963279574079
 30
0.0
 40
0.0066903659307109
 50
269.7389209635633165
 51
303.9974601877163991
  0
ARC
  5
B730
  8
0
 10
4419.7326895616115507
 20
158.0973381734316092
 30
0.0
 40
0.0084759512537552
 50
179.4976916528318043
 51
228.3373383381106123
  0
LINE
  5
B731
  8
0
 10
4419.7242139361005684
 20
158.1127701210000964
 30
0.0
 11
4419.7242139361005684
 21
158.0974124806000987
 31
0.0
  0
LINE
  5
B732
  8
0
 10
4419.7308266719555832
 20
158.0921495973925062
 30
0.0
 11
4419.7455596412955856
 21
158.1017089027000964
 31
0.0
  0
LINE
  5
B733
  8
0
 10
4419.7270552268637402
 20
158.0910060314870123
 30
0.0
 11
4419.726529248299812
 21
158.0907442626001114
 31
0.0
  0
LINE
  5
B734
  8
0
 10
4419.726529248299812
 20
158.0907442626001114
 30
0.0
 11
4419.7259870895641143
 21
158.0906476844000963
 31
0.0
  0
LINE
  5
B735
  8
0
 10
4419.7259870895641143
 20
158.0688835950001021
 30
0.0
 11
4419.6944164087462923
 21
158.0688835950001021
 31
0.0
  0
ARC
  5
B736
  8
0
 10
4419.7270857126777628
 20
158.0759322385574137
 30
0.0
 40
0.0066903659307109
 50
269.7389209635633165
 51
303.9974601877163991
  0
ARC
  5
B737
  8
0
 10
4419.7326895616115507
 20
158.0755740840315866
 30
0.0
 40
0.0084759512537552
 50
179.4976916528318043
 51
228.3373383381106123
  0
LINE
  5
B738
  8
0
 10
4419.7242139361005684
 20
158.0906476844000963
 30
0.0
 11
4419.7242139361005684
 21
158.0756483912001045
 31
0.0
  0
LINE
  5
B739
  8
0
 10
4419.7308266719555832
 20
158.070385507992512
 30
0.0
 11
4419.7451263178818408
 21
158.0796636567511086
 31
0.0
  0
LINE
  5
B73A
  8
0
 10
4419.7270552268637402
 20
158.0692419420869896
 30
0.0
 11
4419.726529248299812
 21
158.0689801732000888
 31
0.0
  0
LINE
  5
B73B
  8
0
 10
4419.726529248299812
 20
158.0689801732000888
 30
0.0
 11
4419.7259870895641143
 21
158.0688835950001021
 31
0.0
  0
LINE
  5
B73C
  8
0
 10
4419.7259870895641143
 20
158.046402811200096
 30
0.0
 11
4419.6944164086962701
 21
158.046402811200096
 31
0.0
  0
ARC
  5
B73D
  8
0
 10
4419.7270857126777628
 20
158.0534514547574076
 30
0.0
 40
0.0066903659307109
 50
269.7389209635633165
 51
303.9974601877163991
  0
ARC
  5
B73E
  8
0
 10
4419.7326895616115507
 20
158.053093300231609
 30
0.0
 40
0.0084759512537552
 50
179.4976916528318043
 51
228.3373383381106123
  0
LINE
  5
B73F
  8
0
 10
4419.7242139361005684
 20
158.0688835950001021
 30
0.0
 11
4419.7242139361005684
 21
158.0531676074000984
 31
0.0
  0
LINE
  5
B740
  8
0
 10
4419.7308266719555832
 20
158.0479047241925059
 30
0.0
 11
4419.7455596412955856
 21
158.0574640295000961
 31
0.0
  0
LINE
  5
B741
  8
0
 10
4419.7270552268637402
 20
158.046761158287012
 30
0.0
 11
4419.726529248299812
 21
158.0464993894001111
 31
0.0
  0
LINE
  5
B742
  8
0
 10
4419.726529248299812
 20
158.0464993894001111
 30
0.0
 11
4419.7259870895641143
 21
158.046402811200096
 31
0.0
  0
LINE
  5
B743
  8
0
 10
4419.7259870895641143
 20
158.0242803746000959
 30
0.0
 11
4419.6944164088499747
 21
158.0242803746000959
 31
0.0
  0
ARC
  5
B744
  8
0
 10
4419.7270857126777628
 20
158.0313290181574075
 30
0.0
 40
0.0066903659307109
 50
269.7389209635633165
 51
303.9974601877163991
  0
ARC
  5
B745
  8
0
 10
4419.7326895616115507
 20
158.0309708636316088
 30
0.0
 40
0.0084759512537552
 50
179.4976916528318043
 51
228.3373383381106123
  0
LINE
  5
B746
  8
0
 10
4419.7242139361005684
 20
158.046402811200096
 30
0.0
 11
4419.7242139361005684
 21
158.0310451708000983
 31
0.0
  0
LINE
  5
B747
  8
0
 10
4419.7308266719555832
 20
158.0257822875925058
 30
0.0
 11
4419.7455596412955856
 21
158.035341592900096
 31
0.0
  0
LINE
  5
B748
  8
0
 10
4419.7270552268637402
 20
158.0246387216870119
 30
0.0
 11
4419.726529248299812
 21
158.024376952800111
 31
0.0
  0
LINE
  5
B749
  8
0
 10
4419.726529248299812
 20
158.024376952800111
 30
0.0
 11
4419.7259870895641143
 21
158.0242803746000959
 31
0.0
  0
LINE
  5
B74A
  8
0
 10
4419.7259870895641143
 20
158.0021579379001082
 30
0.0
 11
4419.6944164087462923
 21
158.0021579379001082
 31
0.0
  0
ARC
  5
B74B
  8
0
 10
4419.7270857126777628
 20
158.0092065814573914
 30
0.0
 40
0.0066903659307109
 50
269.7389209635633165
 51
303.9974601877163991
  0
ARC
  5
B74C
  8
0
 10
4419.7326895616115507
 20
158.0088484269315927
 30
0.0
 40
0.0084759512537552
 50
179.4976916528318043
 51
228.3373383381106123
  0
LINE
  5
B74D
  8
0
 10
4419.7242139361005684
 20
158.0242803745001083
 30
0.0
 11
4419.7242139361005684
 21
158.0089227341001106
 31
0.0
  0
LINE
  5
B74E
  8
0
 10
4419.7308266719555832
 20
158.0036598508924897
 30
0.0
 11
4419.7455596412955856
 21
158.0132191562001083
 31
0.0
  0
LINE
  5
B74F
  8
0
 10
4419.7270552268637402
 20
158.0025162849869957
 30
0.0
 11
4419.726529248299812
 21
158.0022545161000949
 31
0.0
  0
LINE
  5
B750
  8
0
 10
4419.726529248299812
 20
158.0022545161000949
 30
0.0
 11
4419.7259870895641143
 21
158.0021579379001082
 31
0.0
  0
LINE
  5
B751
  8
0
 10
4419.7259870896141365
 20
157.9800355013001081
 30
0.0
 11
4419.6940278755846521
 21
157.9800355013001081
 31
0.0
  0
ARC
  5
B752
  8
0
 10
4419.727085712727785
 20
157.9870841448573913
 30
0.0
 40
0.0066903659307109
 50
269.7389209635633165
 51
303.9974601877163991
  0
ARC
  5
B753
  8
0
 10
4419.732689561661573
 20
157.9867259903315926
 30
0.0
 40
0.0084759512537552
 50
179.4976916528318043
 51
228.3373383381106123
  0
LINE
  5
B754
  8
0
 10
4419.7242139361505906
 20
158.0021579379001082
 30
0.0
 11
4419.7242139361505906
 21
157.9868002975001104
 31
0.0
  0
LINE
  5
B755
  8
0
 10
4419.7308266720046959
 20
157.9815374142924895
 30
0.0
 11
4419.7455596413474268
 21
157.9910967196001081
 31
0.0
  0
LINE
  5
B756
  8
0
 10
4419.7270552269137625
 20
157.9803938483869956
 30
0.0
 11
4419.7265292483489247
 21
157.9801320795000947
 31
0.0
  0
LINE
  5
B757
  8
0
 10
4419.7265292483489247
 20
157.9801320795000947
 30
0.0
 11
4419.7259870896141365
 21
157.9800355013001081
 31
0.0
  0
LINE
  5
B758
  8
0
 10
4419.7259870895641143
 20
157.957913064700108
 30
0.0
 11
4419.6940241046995652
 21
157.957913064700108
 31
0.0
  0
ARC
  5
B759
  8
0
 10
4419.7270857126777628
 20
157.9649617082575048
 30
0.0
 40
0.0066903659307109
 50
269.7389209635633165
 51
303.9974601877163991
  0
ARC
  5
B75A
  8
0
 10
4419.7326895616115507
 20
157.9646035537315925
 30
0.0
 40
0.0084759512537552
 50
179.4976916528318043
 51
228.3373383381106123
  0
LINE
  5
B75B
  8
0
 10
4419.7242139361005684
 20
157.9800355013001081
 30
0.0
 11
4419.7242139361005684
 21
157.9646778609001103
 31
0.0
  0
LINE
  5
B75C
  8
0
 10
4419.7308266719555832
 20
157.9594149776924894
 30
0.0
 11
4419.7455596412955856
 21
157.968974283000108
 31
0.0
  0
LINE
  5
B75D
  8
0
 10
4419.7270552268637402
 20
157.9582714117869955
 30
0.0
 11
4419.726529248299812
 21
157.9580096429000946
 31
0.0
  0
LINE
  5
B75E
  8
0
 10
4419.726529248299812
 20
157.9580096429000946
 30
0.0
 11
4419.7259870895641143
 21
157.957913064700108
 31
0.0
  0
ARC
  5
B75F
  8
0
 10
4419.6592612178310446
 20
157.3469367562624939
 30
0.0
 40
0.823875486725104
 50
85.0520679827040738
 51
90.0276068164218657
  0
ARC
  5
B760
  8
0
 10
4419.6851039777129699
 20
157.5670219610194067
 30
0.0
 40
0.6024194577673572
 50
71.3580223353444723
 51
85.6954034942541796
  0
ARC
  5
B761
  8
0
 10
4419.8208638870528375
 20
157.9513970091842054
 30
0.0
 40
0.1949001440628462
 50
43.8225887355820873
 51
73.0546015737522794
  0
ARC
  5
B762
  8
0
 10
4419.9188995660197179
 20
158.049734213494105
 30
0.0
 40
0.05616102251275
 50
7.9361177673344621
 51
40.6926471691191693
  0
ARC
  5
B763
  8
0
 10
4419.927248990168664
 20
158.0590720543044085
 30
0.0
 40
0.0473002448962113
 50
313.2731082549890971
 51
358.081212170777178
  0
ARC
  5
B764
  8
0
 10
4419.8123830283921052
 20
158.1858817648692934
 30
0.0
 40
0.2183924563451183
 50
286.7137955164661207
 51
312.4094590086040171
  0
ARC
  5
B765
  8
0
 10
4419.6679120513035741
 20
158.6384127694155097
 30
0.0
 40
0.6934028483162136
 50
269.2523602424336104
 51
287.3933302639464955
  0
ARC
  5
B766
  8
0
 10
4419.6929292524719131
 20
157.9870841448573913
 30
0.0
 40
0.0066903659307109
 50
236.0025398122836009
 51
270.2610790364366835
  0
ARC
  5
B767
  8
0
 10
4419.6873254035381251
 20
157.9867259903315926
 30
0.0
 40
0.0084759512537552
 50
311.6626616618895014
 51
0.5023083471682253
  0
LINE
  5
B768
  8
0
 10
4419.6891882931950022
 20
157.9815374142924895
 30
0.0
 11
4419.6744553238531807
 21
157.9910967196001081
 31
0.0
  0
LINE
  5
B769
  8
0
 10
4419.6929597382859356
 20
157.9803938483869956
 30
0.0
 11
4419.6934857168498638
 21
157.9801320795000947
 31
0.0
  0
LINE
  5
B76A
  8
0
 10
4419.6934857168498638
 20
157.9801320795000947
 30
0.0
 11
4419.6940278755846521
 21
157.9800355013001081
 31
0.0
  0
LINE
  5
B76B
  8
0
 10
4419.695801028949063
 20
158.0021579379001082
 30
0.0
 11
4419.695801028949063
 21
157.9868002975001104
 31
0.0
  0
ARC
  5
B76C
  8
0
 10
4419.6933177856326438
 20
158.1419412012575094
 30
0.0
 40
0.0066903659307109
 50
236.0025398122836009
 51
270.2610790364366835
  0
LINE
  5
B76D
  8
0
 10
4419.6895768263557329
 20
158.136394470692494
 30
0.0
 11
4419.674843857014821
 21
158.1459537760001126
 31
0.0
  0
LINE
  5
B76E
  8
0
 10
4419.6933482714448473
 20
158.1352509047870001
 30
0.0
 11
4419.6938742500096851
 21
158.1349891359000992
 31
0.0
  0
LINE
  5
B76F
  8
0
 10
4419.6938742500096851
 20
158.1349891359000992
 30
0.0
 11
4419.6944164087462923
 21
158.1348925577001125
 31
0.0
  0
ARC
  5
B770
  8
0
 10
4419.6933177856326438
 20
158.1198187645574933
 30
0.0
 40
0.0066903659307109
 50
236.0025398122836009
 51
270.2610790364366835
  0
ARC
  5
B771
  8
0
 10
4419.6877139366979463
 20
158.1194606100316093
 30
0.0
 40
0.0084759512537552
 50
311.6626616618895014
 51
0.5023083471682253
  0
LINE
  5
B772
  8
0
 10
4419.6961895622107477
 20
158.1348925576000966
 30
0.0
 11
4419.6961895622107477
 21
158.1195349172000988
 31
0.0
  0
LINE
  5
B773
  8
0
 10
4419.6895768263557329
 20
158.1142720339925063
 30
0.0
 11
4419.674843857014821
 21
158.1238313393000965
 31
0.0
  0
LINE
  5
B774
  8
0
 10
4419.6933482714448473
 20
158.1131284680870124
 30
0.0
 11
4419.6938742500096851
 21
158.1128666992001115
 31
0.0
  0
LINE
  5
B775
  8
0
 10
4419.6938742500096851
 20
158.1128666992001115
 30
0.0
 11
4419.6944164087462923
 21
158.1127701210000964
 31
0.0
  0
ARC
  5
B776
  8
0
 10
4419.6933177856326438
 20
158.0976963279574079
 30
0.0
 40
0.0066903659307109
 50
236.0025398122836009
 51
270.2610790364366835
  0
ARC
  5
B777
  8
0
 10
4419.6877139366979463
 20
158.0973381734316092
 30
0.0
 40
0.0084759512537552
 50
311.6626616618895014
 51
0.5023083471682253
  0
LINE
  5
B778
  8
0
 10
4419.6961895622107477
 20
158.1127701210000964
 30
0.0
 11
4419.6961895622107477
 21
158.0974124806000987
 31
0.0
  0
LINE
  5
B779
  8
0
 10
4419.6895768263557329
 20
158.0921495973925062
 30
0.0
 11
4419.674843857014821
 21
158.1017089027000964
 31
0.0
  0
LINE
  5
B77A
  8
0
 10
4419.6933482714448473
 20
158.0910060314870123
 30
0.0
 11
4419.6938742500096851
 21
158.0907442626001114
 31
0.0
  0
LINE
  5
B77B
  8
0
 10
4419.6938742500096851
 20
158.0907442626001114
 30
0.0
 11
4419.6944164087462923
 21
158.0906476844000963
 31
0.0
  0
ARC
  5
B77C
  8
0
 10
4419.6933177856326438
 20
158.0759322385574137
 30
0.0
 40
0.0066903659307109
 50
236.0025398122836009
 51
270.2610790364366835
  0
ARC
  5
B77D
  8
0
 10
4419.6877139366979463
 20
158.0755740840315866
 30
0.0
 40
0.0084759512537552
 50
311.6626616618895014
 51
0.5023083471682253
  0
LINE
  5
B77E
  8
0
 10
4419.6961895622107477
 20
158.0906476844000963
 30
0.0
 11
4419.6961895622107477
 21
158.0756483912001045
 31
0.0
  0
LINE
  5
B77F
  8
0
 10
4419.6895768263557329
 20
158.070385507992512
 30
0.0
 11
4419.674843857014821
 21
158.0799448133001022
 31
0.0
  0
LINE
  5
B780
  8
0
 10
4419.6933482714448473
 20
158.0692419420869896
 30
0.0
 11
4419.6938742500096851
 21
158.0689801732000888
 31
0.0
  0
LINE
  5
B781
  8
0
 10
4419.6938742500096851
 20
158.0689801732000888
 30
0.0
 11
4419.6944164087462923
 21
158.0688835950001021
 31
0.0
  0
ARC
  5
B782
  8
0
 10
4419.6933177856326438
 20
158.0534514547574076
 30
0.0
 40
0.0066903659307109
 50
236.0025398122836009
 51
270.2610790364366835
  0
ARC
  5
B783
  8
0
 10
4419.6877139366979463
 20
158.053093300231609
 30
0.0
 40
0.0084759512537552
 50
311.6626616618895014
 51
0.5023083471682253
  0
LINE
  5
B784
  8
0
 10
4419.6961895622107477
 20
158.0688835950001021
 30
0.0
 11
4419.6961895622107477
 21
158.0531676074000984
 31
0.0
  0
LINE
  5
B785
  8
0
 10
4419.6895768263557329
 20
158.0479047241925059
 30
0.0
 11
4419.674843857014821
 21
158.0574640295000961
 31
0.0
  0
LINE
  5
B786
  8
0
 10
4419.6933482714448473
 20
158.046761158287012
 30
0.0
 11
4419.6938742500096851
 21
158.0464993894001111
 31
0.0
  0
LINE
  5
B787
  8
0
 10
4419.6938742500096851
 20
158.0464993894001111
 30
0.0
 11
4419.6944164087462923
 21
158.046402811200096
 31
0.0
  0
ARC
  5
B788
  8
0
 10
4419.6933177856326438
 20
158.0313290181574075
 30
0.0
 40
0.0066903659307109
 50
236.0025398122836009
 51
270.2610790364366835
  0
ARC
  5
B789
  8
0
 10
4419.6877139366979463
 20
158.0309708636316088
 30
0.0
 40
0.0084759512537552
 50
311.6626616618895014
 51
0.5023083471682253
  0
LINE
  5
B78A
  8
0
 10
4419.6961895622107477
 20
158.046402811200096
 30
0.0
 11
4419.6961895622107477
 21
158.0310451708000983
 31
0.0
  0
LINE
  5
B78B
  8
0
 10
4419.6895768263557329
 20
158.0257822875925058
 30
0.0
 11
4419.674843857014821
 21
158.035341592900096
 31
0.0
  0
LINE
  5
B78C
  8
0
 10
4419.6933482714448473
 20
158.0246387216870119
 30
0.0
 11
4419.6938742500096851
 21
158.024376952800111
 31
0.0
  0
LINE
  5
B78D
  8
0
 10
4419.6938742500096851
 20
158.024376952800111
 30
0.0
 11
4419.6944164087462923
 21
158.0242803746000959
 31
0.0
  0
ARC
  5
B78E
  8
0
 10
4419.6933177856326438
 20
158.0092065814573914
 30
0.0
 40
0.0066903659307109
 50
236.0025398122836009
 51
270.2610790364366835
  0
ARC
  5
B78F
  8
0
 10
4419.6877139366979463
 20
158.0088484269315927
 30
0.0
 40
0.0084759512537552
 50
311.6626616618895014
 51
0.5023083471682253
  0
LINE
  5
B790
  8
0
 10
4419.6961895622107477
 20
158.0242803745001083
 30
0.0
 11
4419.6961895622107477
 21
158.0089227341001106
 31
0.0
  0
LINE
  5
B791
  8
0
 10
4419.6895768263557329
 20
158.0036598508924897
 30
0.0
 11
4419.674843857014821
 21
158.0132191562001083
 31
0.0
  0
LINE
  5
B792
  8
0
 10
4419.6933482714448473
 20
158.0025162849869957
 30
0.0
 11
4419.6938742500096851
 21
158.0022545161000949
 31
0.0
  0
LINE
  5
B793
  8
0
 10
4419.6938742500096851
 20
158.0022545161000949
 30
0.0
 11
4419.6944164087462923
 21
158.0021579379001082
 31
0.0
  0
LINE
  5
B794
  8
0
 10
4419.6940249076778855
 20
158.1570149943001127
 30
0.0
 11
4419.6934864258000744
 21
158.1571117258000925
 31
0.0
  0
LINE
  5
B795
  8
0
 10
4419.6934864258000744
 20
158.1571117258000925
 30
0.0
 11
4419.6929597384014414
 21
158.1573733415000902
 31
0.0
  0
LINE
  5
B796
  8
0
 10
4419.6896130542099854
 20
158.1582413063825925
 30
0.0
 11
4419.6744553239041124
 21
158.1680762126001127
 31
0.0
  0
ARC
  5
B797
  8
0
 10
4419.6934744310092356
 20
158.1662439102767905
 30
0.0
 40
0.008885488160751
 50
244.2419914442340882
 51
266.6792794191645726
  0
ARC
  5
B798
  8
0
 10
4419.692929252403701
 20
157.9649617082270083
 30
0.0
 40
0.0066903659307109
 50
236.0025398122836009
 51
270.2610790364366835
  0
LINE
  5
B799
  8
0
 10
4419.6891882931258806
 20
157.9594149776621066
 30
0.0
 11
4419.6744553237849686
 21
157.9689742829696115
 31
0.0
  0
LINE
  5
B79A
  8
0
 10
4419.6940241046995652
 20
157.957913064700108
 30
0.0
 11
4419.6929597384014414
 21
157.9582714119001139
 31
0.0
  0
LINE
  5
B79B
  8
0
 10
4419.7771303220142727
 20
158.035341592900096
 30
0.0
 11
4419.7455596411464285
 21
158.035341592900096
 31
0.0
  0
ARC
  5
B79C
  8
0
 10
4419.7782289451279212
 20
158.0423902364574076
 30
0.0
 40
0.0066903659307109
 50
269.7389209635633165
 51
303.9974601877163991
  0
LINE
  5
B79D
  8
0
 10
4419.7819699044048321
 20
158.0368435058925058
 30
0.0
 11
4419.7967028737448345
 21
158.046402811200096
 31
0.0
  0
LINE
  5
B79E
  8
0
 10
4419.7781984593138986
 20
158.0356999399870119
 30
0.0
 11
4419.7776724807499704
 21
158.035438171100111
 31
0.0
  0
LINE
  5
B79F
  8
0
 10
4419.7776724807499704
 20
158.035438171100111
 30
0.0
 11
4419.7771303220142727
 21
158.035341592900096
 31
0.0
  0
ARC
  5
B7A0
  8
0
 10
4419.7444610180818927
 20
158.0423902364574076
 30
0.0
 40
0.0066903659307109
 50
236.0025398122836009
 51
270.2610790364366835
  0
LINE
  5
B7A1
  8
0
 10
4419.7407200588049818
 20
158.0368435058925058
 30
0.0
 11
4419.7259870894640699
 21
158.046402811200096
 31
0.0
  0
LINE
  5
B7A2
  8
0
 10
4419.7444915038950057
 20
158.0356999399870119
 30
0.0
 11
4419.7450174824607529
 21
158.035438171100111
 31
0.0
  0
LINE
  5
B7A3
  8
0
 10
4419.7450174824607529
 20
158.035438171100111
 30
0.0
 11
4419.7455596411964507
 21
158.035341592900096
 31
0.0
  0
LINE
  5
B7A4
  8
0
 10
4419.7771303220642949
 20
158.0574640295000961
 30
0.0
 11
4419.7455596411964507
 21
158.0574640295000961
 31
0.0
  0
ARC
  5
B7A5
  8
0
 10
4419.7782289451779434
 20
158.064512673057493
 30
0.0
 40
0.0066903659307109
 50
269.7389209635633165
 51
303.9974601877163991
  0
LINE
  5
B7A6
  8
0
 10
4419.7819699044539448
 20
158.058965942492506
 30
0.0
 11
4419.7967028737948567
 21
158.0685252478000962
 31
0.0
  0
LINE
  5
B7A7
  8
0
 10
4419.7781984593639208
 20
158.0578223765870121
 30
0.0
 11
4419.7776724807999926
 21
158.0575606077001112
 31
0.0
  0
LINE
  5
B7A8
  8
0
 10
4419.7776724807999926
 20
158.0575606077001112
 30
0.0
 11
4419.7771303220642949
 21
158.0574640295000961
 31
0.0
  0
ARC
  5
B7A9
  8
0
 10
4419.7444610181319149
 20
158.064512673057493
 30
0.0
 40
0.0066903659307109
 50
236.0025398122836009
 51
270.2610790364366835
  0
LINE
  5
B7AA
  8
0
 10
4419.740720058855004
 20
158.058965942492506
 30
0.0
 11
4419.7254347985108325
 21
158.0688835950001021
 31
0.0
  0
LINE
  5
B7AB
  8
0
 10
4419.7444915039459374
 20
158.0578223765870121
 30
0.0
 11
4419.7450174825107752
 21
158.0575606077001112
 31
0.0
  0
LINE
  5
B7AC
  8
0
 10
4419.7450174825107752
 20
158.0575606077001112
 30
0.0
 11
4419.7455596412455634
 21
158.0574640295000961
 31
0.0
  0
LINE
  5
B7AD
  8
0
 10
4419.7771303220142727
 20
158.0795864661000962
 30
0.0
 11
4419.7455596411464285
 21
158.0795864661000962
 31
0.0
  0
ARC
  5
B7AE
  8
0
 10
4419.7782289451279212
 20
158.0866351096574078
 30
0.0
 40
0.0066903659307109
 50
269.7389209635633165
 51
303.9974601877163991
  0
LINE
  5
B7AF
  8
0
 10
4419.7819699044048321
 20
158.0810883790925061
 30
0.0
 11
4419.7967028737448345
 21
158.0906476844000963
 31
0.0
  0
LINE
  5
B7B0
  8
0
 10
4419.7781984593138986
 20
158.0799448131870122
 30
0.0
 11
4419.7776724807499704
 21
158.0796830443001113
 31
0.0
  0
LINE
  5
B7B1
  8
0
 10
4419.7776724807499704
 20
158.0796830443001113
 30
0.0
 11
4419.7771303220142727
 21
158.0795864661000962
 31
0.0
  0
ARC
  5
B7B2
  8
0
 10
4419.7444610180818927
 20
158.0866351096574078
 30
0.0
 40
0.0066903659307109
 50
236.0025398122836009
 51
270.2610790364366835
  0
LINE
  5
B7B3
  8
0
 10
4419.7407200588049818
 20
158.0810883790925061
 30
0.0
 11
4419.7259870894640699
 21
158.0906476844000963
 31
0.0
  0
LINE
  5
B7B4
  8
0
 10
4419.7444915038950057
 20
158.0799448131870122
 30
0.0
 11
4419.7450174824607529
 21
158.0796830443001113
 31
0.0
  0
LINE
  5
B7B5
  8
0
 10
4419.7450174824607529
 20
158.0796830443001113
 30
0.0
 11
4419.7455596411964507
 21
158.0795864661000962
 31
0.0
  0
LINE
  5
B7B6
  8
0
 10
4419.7771303220142727
 20
158.1017089027000964
 30
0.0
 11
4419.7455596411464285
 21
158.1017089027000964
 31
0.0
  0
ARC
  5
B7B7
  8
0
 10
4419.7782289451279212
 20
158.108757546257408
 30
0.0
 40
0.0066903659307109
 50
269.7389209635633165
 51
303.9974601877163991
  0
LINE
  5
B7B8
  8
0
 10
4419.7819699044048321
 20
158.1032108156925062
 30
0.0
 11
4419.7967028737448345
 21
158.1127701210000964
 31
0.0
  0
LINE
  5
B7B9
  8
0
 10
4419.7781984593138986
 20
158.1020672497870123
 30
0.0
 11
4419.7776724807499704
 21
158.1018054809001114
 31
0.0
  0
LINE
  5
B7BA
  8
0
 10
4419.7776724807499704
 20
158.1018054809001114
 30
0.0
 11
4419.7771303220142727
 21
158.1017089027000964
 31
0.0
  0
ARC
  5
B7BB
  8
0
 10
4419.7444610180818927
 20
158.108757546257408
 30
0.0
 40
0.0066903659307109
 50
236.0025398122836009
 51
270.2610790364366835
  0
LINE
  5
B7BC
  8
0
 10
4419.7407200588049818
 20
158.1032108156925062
 30
0.0
 11
4419.7259870894640699
 21
158.1127701210000964
 31
0.0
  0
LINE
  5
B7BD
  8
0
 10
4419.7444915038950057
 20
158.1020672497870123
 30
0.0
 11
4419.7450174824607529
 21
158.1018054809001114
 31
0.0
  0
LINE
  5
B7BE
  8
0
 10
4419.7450174824607529
 20
158.1018054809001114
 30
0.0
 11
4419.7455596411964507
 21
158.1017089027000964
 31
0.0
  0
LINE
  5
B7BF
  8
0
 10
4419.7771303220142727
 20
158.1238313393000965
 30
0.0
 11
4419.7455596411464285
 21
158.1238313393000965
 31
0.0
  0
ARC
  5
B7C0
  8
0
 10
4419.7782289451279212
 20
158.1308799828574081
 30
0.0
 40
0.0066903659307109
 50
269.7389209635633165
 51
303.9974601877163991
  0
LINE
  5
B7C1
  8
0
 10
4419.7819699044048321
 20
158.1253332522925064
 30
0.0
 11
4419.7967028737448345
 21
158.1348925576000966
 31
0.0
  0
LINE
  5
B7C2
  8
0
 10
4419.7781984593138986
 20
158.1241896863870124
 30
0.0
 11
4419.7776724807499704
 21
158.1239279175001116
 31
0.0
  0
LINE
  5
B7C3
  8
0
 10
4419.7776724807499704
 20
158.1239279175001116
 30
0.0
 11
4419.7771303220142727
 21
158.1238313393000965
 31
0.0
  0
ARC
  5
B7C4
  8
0
 10
4419.7444610180818927
 20
158.1308799828574081
 30
0.0
 40
0.0066903659307109
 50
236.0025398122836009
 51
270.2610790364366835
  0
LINE
  5
B7C5
  8
0
 10
4419.7407200588049818
 20
158.1253332522925064
 30
0.0
 11
4419.7259870894640699
 21
158.1348925576000966
 31
0.0
  0
LINE
  5
B7C6
  8
0
 10
4419.7444915038950057
 20
158.1241896863870124
 30
0.0
 11
4419.7450174824607529
 21
158.1239279175001116
 31
0.0
  0
LINE
  5
B7C7
  8
0
 10
4419.7450174824607529
 20
158.1239279175001116
 30
0.0
 11
4419.7455596411964507
 21
158.1238313393000965
 31
0.0
  0
LINE
  5
B7C8
  8
0
 10
4419.7771303219642505
 20
158.1459537760001126
 30
0.0
 11
4419.7455596410964063
 21
158.1459537760001126
 31
0.0
  0
ARC
  5
B7C9
  8
0
 10
4419.7782289450769895
 20
158.1530024195575095
 30
0.0
 40
0.0066903659307109
 50
269.7389209635633165
 51
303.9974601877163991
  0
LINE
  5
B7CA
  8
0
 10
4419.7819699043548098
 20
158.1474556889924941
 30
0.0
 11
4419.7984760272092899
 21
158.158165483071798
 31
0.0
  0
LINE
  5
B7CB
  8
0
 10
4419.7781984592647859
 20
158.1463121230870001
 30
0.0
 11
4419.7776724806999482
 21
158.1460503542000993
 31
0.0
  0
LINE
  5
B7CC
  8
0
 10
4419.7776724806999482
 20
158.1460503542000993
 30
0.0
 11
4419.7771303219642505
 21
158.1459537760001126
 31
0.0
  0
ARC
  5
B7CD
  8
0
 10
4419.74446101803278
 20
158.1530024195575095
 30
0.0
 40
0.0066903659307109
 50
236.0025398122836009
 51
270.2610790364366835
  0
LINE
  5
B7CE
  8
0
 10
4419.7407200587540501
 20
158.1474556889924941
 30
0.0
 11
4419.7259870894140477
 21
158.1570149943001127
 31
0.0
  0
LINE
  5
B7CF
  8
0
 10
4419.744491503845893
 20
158.1463121230870001
 30
0.0
 11
4419.7450174824098212
 21
158.1460503542000993
 31
0.0
  0
LINE
  5
B7D0
  8
0
 10
4419.7450174824098212
 20
158.1460503542000993
 30
0.0
 11
4419.7455596411464285
 21
158.1459537760001126
 31
0.0
  0
LINE
  5
B7D1
  8
0
 10
4419.7771303219642505
 20
158.0132191562001083
 30
0.0
 11
4419.7455596410964063
 21
158.0132191562001083
 31
0.0
  0
ARC
  5
B7D2
  8
0
 10
4419.7782289450769895
 20
158.0202677997575051
 30
0.0
 40
0.0066903659307109
 50
269.7389209635633165
 51
303.9974601877163991
  0
LINE
  5
B7D3
  8
0
 10
4419.7819699043548098
 20
158.0147210691924897
 30
0.0
 11
4419.7967028736948123
 21
158.0242803745001083
 31
0.0
  0
LINE
  5
B7D4
  8
0
 10
4419.7781984592647859
 20
158.0135775032869958
 30
0.0
 11
4419.7776724806999482
 21
158.0133157344000949
 31
0.0
  0
LINE
  5
B7D5
  8
0
 10
4419.7776724806999482
 20
158.0133157344000949
 30
0.0
 11
4419.7771303219642505
 21
158.0132191562001083
 31
0.0
  0
ARC
  5
B7D6
  8
0
 10
4419.74446101803278
 20
158.0202677997575051
 30
0.0
 40
0.0066903659307109
 50
236.0025398122836009
 51
270.2610790364366835
  0
LINE
  5
B7D7
  8
0
 10
4419.7407200587540501
 20
158.0147210691924897
 30
0.0
 11
4419.7259870894140477
 21
158.0242803745001083
 31
0.0
  0
LINE
  5
B7D8
  8
0
 10
4419.744491503845893
 20
158.0135775032869958
 30
0.0
 11
4419.7450174824098212
 21
158.0133157344000949
 31
0.0
  0
LINE
  5
B7D9
  8
0
 10
4419.7450174824098212
 20
158.0133157344000949
 30
0.0
 11
4419.7455596411464285
 21
158.0132191562001083
 31
0.0
  0
LINE
  5
B7DA
  8
0
 10
4419.7771303220142727
 20
157.9910967196001081
 30
0.0
 11
4419.7455596411464285
 21
157.9910967196001081
 31
0.0
  0
ARC
  5
B7DB
  8
0
 10
4419.7782289451279212
 20
157.998145363157505
 30
0.0
 40
0.0066903659307109
 50
269.7389209635633165
 51
303.9974601877163991
  0
LINE
  5
B7DC
  8
0
 10
4419.7819699044048321
 20
157.9925986325924896
 30
0.0
 11
4419.7967028737448345
 21
158.0021579379001082
 31
0.0
  0
LINE
  5
B7DD
  8
0
 10
4419.7781984593138986
 20
157.9914550666869957
 30
0.0
 11
4419.7776724807499704
 21
157.9911932978000948
 31
0.0
  0
LINE
  5
B7DE
  8
0
 10
4419.7776724807499704
 20
157.9911932978000948
 30
0.0
 11
4419.7771303220142727
 21
157.9910967196001081
 31
0.0
  0
ARC
  5
B7DF
  8
0
 10
4419.7444610180818927
 20
157.998145363157505
 30
0.0
 40
0.0066903659307109
 50
236.0025398122836009
 51
270.2610790364366835
  0
LINE
  5
B7E0
  8
0
 10
4419.7407200588049818
 20
157.9925986325924896
 30
0.0
 11
4419.7259870894640699
 21
158.0021579379001082
 31
0.0
  0
LINE
  5
B7E1
  8
0
 10
4419.7444915038950057
 20
157.9914550666869957
 30
0.0
 11
4419.7450174824607529
 21
157.9911932978000948
 31
0.0
  0
LINE
  5
B7E2
  8
0
 10
4419.7450174824607529
 20
157.9911932978000948
 30
0.0
 11
4419.7455596411964507
 21
157.9910967196001081
 31
0.0
  0
LINE
  5
B7E3
  8
0
 10
4419.7771303220142727
 20
157.968974283000108
 30
0.0
 11
4419.7455596411464285
 21
157.968974283000108
 31
0.0
  0
ARC
  5
B7E4
  8
0
 10
4419.7782289451279212
 20
157.9760229265573912
 30
0.0
 40
0.0066903659307109
 50
269.7389209635633165
 51
303.9974601877163991
  0
LINE
  5
B7E5
  8
0
 10
4419.7819699044048321
 20
157.9704761959924895
 30
0.0
 11
4419.7967028737448345
 21
157.9800355013001081
 31
0.0
  0
LINE
  5
B7E6
  8
0
 10
4419.7781984593138986
 20
157.9693326300869956
 30
0.0
 11
4419.7776724807499704
 21
157.9690708612000947
 31
0.0
  0
LINE
  5
B7E7
  8
0
 10
4419.7776724807499704
 20
157.9690708612000947
 30
0.0
 11
4419.7771303220142727
 21
157.968974283000108
 31
0.0
  0
ARC
  5
B7E8
  8
0
 10
4419.7444610180818927
 20
157.9760229265573912
 30
0.0
 40
0.0066903659307109
 50
236.0025398122836009
 51
270.2610790364366835
  0
LINE
  5
B7E9
  8
0
 10
4419.7407200588049818
 20
157.9704761959924895
 30
0.0
 11
4419.7259870894640699
 21
157.9800355013001081
 31
0.0
  0
LINE
  5
B7EA
  8
0
 10
4419.7444915038950057
 20
157.9693326300869956
 30
0.0
 11
4419.7450174824607529
 21
157.9690708612000947
 31
0.0
  0
LINE
  5
B7EB
  8
0
 10
4419.7450174824607529
 20
157.9690708612000947
 30
0.0
 11
4419.7455596411964507
 21
157.968974283000108
 31
0.0
  0
LINE
  5
B7EC
  8
0
 10
4419.828273554563566
 20
158.1348925576000966
 30
0.0
 11
4419.7967028736948123
 21
158.1348925576000966
 31
0.0
  0
ARC
  5
B7ED
  8
0
 10
4419.829372177678124
 20
158.1419412011574082
 30
0.0
 40
0.0066903659307109
 50
269.7389209635633165
 51
303.9974601877163991
  0
LINE
  5
B7EE
  8
0
 10
4419.8331131369550349
 20
158.1363944705925064
 30
0.0
 11
4419.8490164895665657
 21
158.1467131646394932
 31
0.0
  0
LINE
  5
B7EF
  8
0
 10
4419.8293416918650109
 20
158.1352509046870125
 30
0.0
 11
4419.8288157133001732
 21
158.1349891358001116
 31
0.0
  0
LINE
  5
B7F0
  8
0
 10
4419.8288157133001732
 20
158.1349891358001116
 30
0.0
 11
4419.828273554563566
 21
158.1348925576000966
 31
0.0
  0
ARC
  5
B7F1
  8
0
 10
4419.795604250633005
 20
158.1419412011574082
 30
0.0
 40
0.0066903659307109
 50
236.0025398122836009
 51
270.2610790364366835
  0
LINE
  5
B7F2
  8
0
 10
4419.7918632913551846
 20
158.1363944705925064
 30
0.0
 11
4419.7771303220142727
 21
158.1459537759000966
 31
0.0
  0
LINE
  5
B7F3
  8
0
 10
4419.795634736446118
 20
158.1352509046870125
 30
0.0
 11
4419.7961607150100463
 21
158.1349891358001116
 31
0.0
  0
LINE
  5
B7F4
  8
0
 10
4419.7961607150100463
 20
158.1349891358001116
 30
0.0
 11
4419.7967028737448345
 21
158.1348925576000966
 31
0.0
  0
LINE
  5
B7F5
  8
0
 10
4419.828273554563566
 20
158.1127701210000964
 30
0.0
 11
4419.7967028736948123
 21
158.1127701210000964
 31
0.0
  0
ARC
  5
B7F6
  8
0
 10
4419.829372177678124
 20
158.1198187645574933
 30
0.0
 40
0.0066903659307109
 50
269.7389209635633165
 51
303.9974601877163991
  0
LINE
  5
B7F7
  8
0
 10
4419.8331131369550349
 20
158.1142720339925063
 30
0.0
 11
4419.8478461062950373
 21
158.1238313393000965
 31
0.0
  0
LINE
  5
B7F8
  8
0
 10
4419.8293416918650109
 20
158.1131284680870124
 30
0.0
 11
4419.8288157133001732
 21
158.1128666992001115
 31
0.0
  0
LINE
  5
B7F9
  8
0
 10
4419.8288157133001732
 20
158.1128666992001115
 30
0.0
 11
4419.828273554563566
 21
158.1127701210000964
 31
0.0
  0
ARC
  5
B7FA
  8
0
 10
4419.795604250633005
 20
158.1198187645574933
 30
0.0
 40
0.0066903659307109
 50
236.0025398122836009
 51
270.2610790364366835
  0
LINE
  5
B7FB
  8
0
 10
4419.7918632913551846
 20
158.1142720339925063
 30
0.0
 11
4419.7771303220142727
 21
158.1238313393000965
 31
0.0
  0
LINE
  5
B7FC
  8
0
 10
4419.795634736446118
 20
158.1131284680870124
 30
0.0
 11
4419.7961607150100463
 21
158.1128666992001115
 31
0.0
  0
LINE
  5
B7FD
  8
0
 10
4419.7961607150100463
 20
158.1128666992001115
 30
0.0
 11
4419.7967028737448345
 21
158.1127701210000964
 31
0.0
  0
LINE
  5
B7FE
  8
0
 10
4419.828273554563566
 20
158.0906476844000963
 30
0.0
 11
4419.7967028736948123
 21
158.0906476844000963
 31
0.0
  0
ARC
  5
B7FF
  8
0
 10
4419.829372177678124
 20
158.0976963279574079
 30
0.0
 40
0.0066903659307109
 50
269.7389209635633165
 51
303.9974601877163991
  0
LINE
  5
B800
  8
0
 10
4419.8331131369550349
 20
158.0921495973925062
 30
0.0
 11
4419.8478461062950373
 21
158.1017089027000964
 31
0.0
  0
LINE
  5
B801
  8
0
 10
4419.8293416918650109
 20
158.0910060314870123
 30
0.0
 11
4419.8288157133001732
 21
158.0907442626001114
 31
0.0
  0
LINE
  5
B802
  8
0
 10
4419.8288157133001732
 20
158.0907442626001114
 30
0.0
 11
4419.828273554563566
 21
158.0906476844000963
 31
0.0
  0
ARC
  5
B803
  8
0
 10
4419.795604250633005
 20
158.0976963279574079
 30
0.0
 40
0.0066903659307109
 50
236.0025398122836009
 51
270.2610790364366835
  0
LINE
  5
B804
  8
0
 10
4419.7918632913551846
 20
158.0921495973925062
 30
0.0
 11
4419.7771303220142727
 21
158.1017089027000964
 31
0.0
  0
LINE
  5
B805
  8
0
 10
4419.795634736446118
 20
158.0910060314870123
 30
0.0
 11
4419.7961607150100463
 21
158.0907442626001114
 31
0.0
  0
LINE
  5
B806
  8
0
 10
4419.7961607150100463
 20
158.0907442626001114
 30
0.0
 11
4419.7967028737448345
 21
158.0906476844000963
 31
0.0
  0
LINE
  5
B807
  8
0
 10
4419.8282735545144533
 20
158.0685252478000962
 30
0.0
 11
4419.7967028736456996
 21
158.0685252478000962
 31
0.0
  0
ARC
  5
B808
  8
0
 10
4419.8293721776281018
 20
158.0755738913574078
 30
0.0
 40
0.0066903659307109
 50
269.7389209635633165
 51
303.9974601877163991
  0
LINE
  5
B809
  8
0
 10
4419.8331131369050127
 20
158.070027160792506
 30
0.0
 11
4419.8478461061959024
 21
158.0799448133001022
 31
0.0
  0
LINE
  5
B80A
  8
0
 10
4419.8293416918149887
 20
158.0688835948870121
 30
0.0
 11
4419.828815713250151
 21
158.0686218260001112
 31
0.0
  0
LINE
  5
B80B
  8
0
 10
4419.828815713250151
 20
158.0686218260001112
 30
0.0
 11
4419.8282735545144533
 21
158.0685252478000962
 31
0.0
  0
ARC
  5
B80C
  8
0
 10
4419.7956042505829828
 20
158.0755738913574078
 30
0.0
 40
0.0066903659307109
 50
236.0025398122836009
 51
270.2610790364366835
  0
LINE
  5
B80D
  8
0
 10
4419.7918632913051624
 20
158.070027160792506
 30
0.0
 11
4419.7771303219642505
 21
158.0795864661000962
 31
0.0
  0
LINE
  5
B80E
  8
0
 10
4419.7956347363960958
 20
158.0688835948870121
 30
0.0
 11
4419.7961607149600241
 21
158.0686218260001112
 31
0.0
  0
LINE
  5
B80F
  8
0
 10
4419.7961607149600241
 20
158.0686218260001112
 30
0.0
 11
4419.7967028736948123
 21
158.0685252478000962
 31
0.0
  0
LINE
  5
B810
  8
0
 10
4419.8282735544644311
 20
158.046402811200096
 30
0.0
 11
4419.7967028735956774
 21
158.046402811200096
 31
0.0
  0
ARC
  5
B811
  8
0
 10
4419.8293721775780796
 20
158.0534514547574076
 30
0.0
 40
0.0066903659307109
 50
269.7389209635633165
 51
303.9974601877163991
  0
LINE
  5
B812
  8
0
 10
4419.8331131368549904
 20
158.0479047241925059
 30
0.0
 11
4419.8478461061959024
 21
158.0574640295000961
 31
0.0
  0
LINE
  5
B813
  8
0
 10
4419.8293416917649665
 20
158.046761158287012
 30
0.0
 11
4419.8288157132001288
 21
158.0464993894001111
 31
0.0
  0
LINE
  5
B814
  8
0
 10
4419.8288157132001288
 20
158.0464993894001111
 30
0.0
 11
4419.8282735544644311
 21
158.046402811200096
 31
0.0
  0
ARC
  5
B815
  8
0
 10
4419.7956042505329606
 20
158.0534514547574076
 30
0.0
 40
0.0066903659307109
 50
236.0025398122836009
 51
270.2610790364366835
  0
LINE
  5
B816
  8
0
 10
4419.7918632912551402
 20
158.0479047241925059
 30
0.0
 11
4419.7771303219133188
 21
158.0574640295000961
 31
0.0
  0
LINE
  5
B817
  8
0
 10
4419.7956347363451641
 20
158.046761158287012
 30
0.0
 11
4419.7961607149100018
 21
158.0464993894001111
 31
0.0
  0
LINE
  5
B818
  8
0
 10
4419.7961607149100018
 20
158.0464993894001111
 30
0.0
 11
4419.7967028736456996
 21
158.046402811200096
 31
0.0
  0
LINE
  5
B819
  8
0
 10
4419.828273554563566
 20
158.0242803746000959
 30
0.0
 11
4419.7967028736948123
 21
158.0242803746000959
 31
0.0
  0
ARC
  5
B81A
  8
0
 10
4419.829372177678124
 20
158.0313290181574075
 30
0.0
 40
0.0066903659307109
 50
269.7389209635633165
 51
303.9974601877163991
  0
LINE
  5
B81B
  8
0
 10
4419.8331131369550349
 20
158.0257822875925058
 30
0.0
 11
4419.8478461062950373
 21
158.035341592900096
 31
0.0
  0
LINE
  5
B81C
  8
0
 10
4419.8293416918650109
 20
158.0246387216870119
 30
0.0
 11
4419.8288157133001732
 21
158.024376952800111
 31
0.0
  0
LINE
  5
B81D
  8
0
 10
4419.8288157133001732
 20
158.024376952800111
 30
0.0
 11
4419.828273554563566
 21
158.0242803746000959
 31
0.0
  0
ARC
  5
B81E
  8
0
 10
4419.795604250633005
 20
158.0313290181574075
 30
0.0
 40
0.0066903659307109
 50
236.0025398122836009
 51
270.2610790364366835
  0
LINE
  5
B81F
  8
0
 10
4419.7918632913551846
 20
158.0257822875925058
 30
0.0
 11
4419.7771303220142727
 21
158.035341592900096
 31
0.0
  0
LINE
  5
B820
  8
0
 10
4419.795634736446118
 20
158.0246387216870119
 30
0.0
 11
4419.7961607150100463
 21
158.024376952800111
 31
0.0
  0
LINE
  5
B821
  8
0
 10
4419.7961607150100463
 20
158.024376952800111
 30
0.0
 11
4419.7967028737448345
 21
158.0242803746000959
 31
0.0
  0
LINE
  5
B822
  8
0
 10
4419.828273554563566
 20
158.0021579379001082
 30
0.0
 11
4419.7967028736948123
 21
158.0021579379001082
 31
0.0
  0
ARC
  5
B823
  8
0
 10
4419.829372177678124
 20
158.0092065814573914
 30
0.0
 40
0.0066903659307109
 50
269.7389209635633165
 51
303.9974601877163991
  0
LINE
  5
B824
  8
0
 10
4419.8331131369550349
 20
158.0036598508924897
 30
0.0
 11
4419.8478461062950373
 21
158.0132191562001083
 31
0.0
  0
LINE
  5
B825
  8
0
 10
4419.8293416918650109
 20
158.0025162849869957
 30
0.0
 11
4419.8288157133001732
 21
158.0022545161000949
 31
0.0
  0
LINE
  5
B826
  8
0
 10
4419.8288157133001732
 20
158.0022545161000949
 30
0.0
 11
4419.828273554563566
 21
158.0021579379001082
 31
0.0
  0
ARC
  5
B827
  8
0
 10
4419.795604250633005
 20
158.0092065814573914
 30
0.0
 40
0.0066903659307109
 50
236.0025398122836009
 51
270.2610790364366835
  0
LINE
  5
B828
  8
0
 10
4419.7918632913551846
 20
158.0036598508924897
 30
0.0
 11
4419.7771303220142727
 21
158.0132191562001083
 31
0.0
  0
LINE
  5
B829
  8
0
 10
4419.795634736446118
 20
158.0025162849869957
 30
0.0
 11
4419.7961607150100463
 21
158.0022545161000949
 31
0.0
  0
LINE
  5
B82A
  8
0
 10
4419.7961607150100463
 20
158.0022545161000949
 30
0.0
 11
4419.7967028737448345
 21
158.0021579379001082
 31
0.0
  0
LINE
  5
B82B
  8
0
 10
4419.828273554563566
 20
157.9800355013001081
 30
0.0
 11
4419.7967028736948123
 21
157.9800355013001081
 31
0.0
  0
ARC
  5
B82C
  8
0
 10
4419.829372177678124
 20
157.9870841448573913
 30
0.0
 40
0.0066903659307109
 50
269.7389209635633165
 51
303.9974601877163991
  0
LINE
  5
B82D
  8
0
 10
4419.8331131369550349
 20
157.9815374142924895
 30
0.0
 11
4419.8478461062950373
 21
157.9910967196001081
 31
0.0
  0
LINE
  5
B82E
  8
0
 10
4419.8293416918650109
 20
157.9803938483869956
 30
0.0
 11
4419.8288157133001732
 21
157.9801320795000947
 31
0.0
  0
LINE
  5
B82F
  8
0
 10
4419.8288157133001732
 20
157.9801320795000947
 30
0.0
 11
4419.828273554563566
 21
157.9800355013001081
 31
0.0
  0
ARC
  5
B830
  8
0
 10
4419.795604250633005
 20
157.9870841448573913
 30
0.0
 40
0.0066903659307109
 50
236.0025398122836009
 51
270.2610790364366835
  0
LINE
  5
B831
  8
0
 10
4419.7918632913551846
 20
157.9815374142924895
 30
0.0
 11
4419.7771303220142727
 21
157.9910967196001081
 31
0.0
  0
LINE
  5
B832
  8
0
 10
4419.795634736446118
 20
157.9803938483869956
 30
0.0
 11
4419.7961607150100463
 21
157.9801320795000947
 31
0.0
  0
LINE
  5
B833
  8
0
 10
4419.7961607150100463
 20
157.9801320795000947
 30
0.0
 11
4419.7967028737448345
 21
157.9800355013001081
 31
0.0
  0
LINE
  5
B834
  8
0
 10
4419.8794167870637466
 20
158.1238313393000965
 30
0.0
 11
4419.8478461061959024
 21
158.1238313393000965
 31
0.0
  0
ARC
  5
B835
  8
0
 10
4419.8805154101783046
 20
158.1308799828574081
 30
0.0
 40
0.0066903659307109
 50
269.7389209635633165
 51
303.9974601877163991
  0
LINE
  5
B836
  8
0
 10
4419.884256369456125
 20
158.1253332522925064
 30
0.0
 11
4419.8943785614646913
 21
158.1319009116402015
 31
0.0
  0
LINE
  5
B837
  8
0
 10
4419.8804849243642821
 20
158.1241896863870124
 30
0.0
 11
4419.8799589458003538
 21
158.1239279175001116
 31
0.0
  0
LINE
  5
B838
  8
0
 10
4419.8799589458003538
 20
158.1239279175001116
 30
0.0
 11
4419.8794167870637466
 21
158.1238313393000965
 31
0.0
  0
ARC
  5
B839
  8
0
 10
4419.8467474831322761
 20
158.1308799828574081
 30
0.0
 40
0.0066903659306896
 50
236.0025398122222953
 51
267.0479899786394071
  0
LINE
  5
B83A
  8
0
 10
4419.8430065238553652
 20
158.1253332522925064
 30
0.0
 11
4419.8282735545144533
 21
158.1348925576000966
 31
0.0
  0
LINE
  5
B83B
  8
0
 10
4419.8464029326178206
 20
158.1241984949103028
 30
0.0
 11
4419.8473039475102269
 21
158.1239279175001116
 31
0.0
  0
LINE
  5
B83C
  8
0
 10
4419.8473039475102269
 20
158.1239279175001116
 30
0.0
 11
4419.8478461062459246
 21
158.1238313393000965
 31
0.0
  0
LINE
  5
B83D
  8
0
 10
4419.8794167870137244
 20
158.1017089027000964
 30
0.0
 11
4419.8478461061458802
 21
158.1017089027000964
 31
0.0
  0
ARC
  5
B83E
  8
0
 10
4419.8805154101282824
 20
158.108757546257408
 30
0.0
 40
0.0066903659307109
 50
269.7389209635633165
 51
303.9974601877163991
  0
LINE
  5
B83F
  8
0
 10
4419.8842563694051933
 20
158.1032108156925062
 30
0.0
 11
4419.8987931865958672
 21
158.1127701210000964
 31
0.0
  0
LINE
  5
B840
  8
0
 10
4419.8804849243142598
 20
158.1020672497870123
 30
0.0
 11
4419.8799589457503316
 21
158.1018054809001114
 31
0.0
  0
LINE
  5
B841
  8
0
 10
4419.8799589457503316
 20
158.1018054809001114
 30
0.0
 11
4419.8794167870137244
 21
158.1017089027000964
 31
0.0
  0
ARC
  5
B842
  8
0
 10
4419.8467474830822539
 20
158.108757546257408
 30
0.0
 40
0.0066903659307109
 50
236.0025398122836009
 51
270.2610790364366835
  0
LINE
  5
B843
  8
0
 10
4419.843006523805343
 20
158.1032108156925062
 30
0.0
 11
4419.8282735544644311
 21
158.1127701210000964
 31
0.0
  0
LINE
  5
B844
  8
0
 10
4419.8467779688962764
 20
158.1020672497870123
 30
0.0
 11
4419.8473039474592952
 21
158.1018054809001114
 31
0.0
  0
LINE
  5
B845
  8
0
 10
4419.8473039474592952
 20
158.1018054809001114
 30
0.0
 11
4419.8478461061959024
 21
158.1017089027000964
 31
0.0
  0
LINE
  5
B846
  8
0
 10
4419.8794167870637466
 20
158.0799448133001022
 30
0.0
 11
4419.8478461061959024
 21
158.0799448133001022
 31
0.0
  0
ARC
  5
B847
  8
0
 10
4419.8805154101783046
 20
158.086993456857499
 30
0.0
 40
0.0066903659307109
 50
269.7389209635633165
 51
303.9974601877163991
  0
LINE
  5
B848
  8
0
 10
4419.884256369456125
 20
158.081446726292512
 30
0.0
 11
4419.8989893387961274
 21
158.0906476844000963
 31
0.0
  0
LINE
  5
B849
  8
0
 10
4419.8804849243642821
 20
158.0803031603869897
 30
0.0
 11
4419.8799589458003538
 21
158.0800413915000888
 31
0.0
  0
LINE
  5
B84A
  8
0
 10
4419.8799589458003538
 20
158.0800413915000888
 30
0.0
 11
4419.8794167870637466
 21
158.0799448133001022
 31
0.0
  0
ARC
  5
B84B
  8
0
 10
4419.8467474831322761
 20
158.086993456857499
 30
0.0
 40
0.0066903659307109
 50
236.0025398122836009
 51
270.2610790364366835
  0
LINE
  5
B84C
  8
0
 10
4419.8430065238553652
 20
158.081446726292512
 30
0.0
 11
4419.8282735545144533
 21
158.0910060316001022
 31
0.0
  0
LINE
  5
B84D
  8
0
 10
4419.8467779689462986
 20
158.0803031603869897
 30
0.0
 11
4419.8473039475102269
 21
158.0800413915000888
 31
0.0
  0
LINE
  5
B84E
  8
0
 10
4419.8473039475102269
 20
158.0800413915000888
 30
0.0
 11
4419.8478461062459246
 21
158.0799448133001022
 31
0.0
  0
LINE
  5
B84F
  8
0
 10
4419.8794167870637466
 20
158.0574640295000961
 30
0.0
 11
4419.8478461061959024
 21
158.0574640295000961
 31
0.0
  0
ARC
  5
B850
  8
0
 10
4419.8805154101783046
 20
158.064512673057493
 30
0.0
 40
0.0066903659307109
 50
269.7389209635633165
 51
303.9974601877163991
  0
LINE
  5
B851
  8
0
 10
4419.884256369456125
 20
158.058965942492506
 30
0.0
 11
4419.8989893387961274
 21
158.0685252478000962
 31
0.0
  0
LINE
  5
B852
  8
0
 10
4419.8804849243642821
 20
158.0578223765870121
 30
0.0
 11
4419.8799589458003538
 21
158.0575606077001112
 31
0.0
  0
LINE
  5
B853
  8
0
 10
4419.8799589458003538
 20
158.0575606077001112
 30
0.0
 11
4419.8794167870637466
 21
158.0574640295000961
 31
0.0
  0
ARC
  5
B854
  8
0
 10
4419.8467474831322761
 20
158.064512673057493
 30
0.0
 40
0.0066903659307109
 50
236.0025398122836009
 51
270.2610790364366835
  0
LINE
  5
B855
  8
0
 10
4419.8430065238553652
 20
158.058965942492506
 30
0.0
 11
4419.8282735545144533
 21
158.0685252478000962
 31
0.0
  0
LINE
  5
B856
  8
0
 10
4419.8467779689462986
 20
158.0578223765870121
 30
0.0
 11
4419.8473039475102269
 21
158.0575606077001112
 31
0.0
  0
LINE
  5
B857
  8
0
 10
4419.8473039475102269
 20
158.0575606077001112
 30
0.0
 11
4419.8478461062459246
 21
158.0574640295000961
 31
0.0
  0
LINE
  5
B858
  8
0
 10
4419.8794167870137244
 20
158.035341592900096
 30
0.0
 11
4419.8478461061458802
 21
158.035341592900096
 31
0.0
  0
ARC
  5
B859
  8
0
 10
4419.8805154101282824
 20
158.0423902364574076
 30
0.0
 40
0.0066903659307109
 50
269.7389209635633165
 51
303.9974601877163991
  0
LINE
  5
B85A
  8
0
 10
4419.8842563694051933
 20
158.0368435058925058
 30
0.0
 11
4419.8989893387461052
 21
158.046402811200096
 31
0.0
  0
LINE
  5
B85B
  8
0
 10
4419.8804849243142598
 20
158.0356999399870119
 30
0.0
 11
4419.8799589457503316
 21
158.035438171100111
 31
0.0
  0
LINE
  5
B85C
  8
0
 10
4419.8799589457503316
 20
158.035438171100111
 30
0.0
 11
4419.8794167870137244
 21
158.035341592900096
 31
0.0
  0
ARC
  5
B85D
  8
0
 10
4419.8467474830822539
 20
158.0423902364574076
 30
0.0
 40
0.0066903659307109
 50
236.0025398122836009
 51
270.2610790364366835
  0
LINE
  5
B85E
  8
0
 10
4419.843006523805343
 20
158.0368435058925058
 30
0.0
 11
4419.8282735544644311
 21
158.046402811200096
 31
0.0
  0
LINE
  5
B85F
  8
0
 10
4419.8467779688962764
 20
158.0356999399870119
 30
0.0
 11
4419.8473039474592952
 21
158.035438171100111
 31
0.0
  0
LINE
  5
B860
  8
0
 10
4419.8473039474592952
 20
158.035438171100111
 30
0.0
 11
4419.8478461061959024
 21
158.035341592900096
 31
0.0
  0
LINE
  5
B861
  8
0
 10
4419.8794167870137244
 20
158.0132191562001083
 30
0.0
 11
4419.8478461061458802
 21
158.0132191562001083
 31
0.0
  0
ARC
  5
B862
  8
0
 10
4419.8805154101282824
 20
158.0202677997575051
 30
0.0
 40
0.0066903659307109
 50
269.7389209635633165
 51
303.9974601877163991
  0
LINE
  5
B863
  8
0
 10
4419.8842563694051933
 20
158.0147210691924897
 30
0.0
 11
4419.8989893387461052
 21
158.0242803745001083
 31
0.0
  0
LINE
  5
B864
  8
0
 10
4419.8804849243142598
 20
158.0135775032869958
 30
0.0
 11
4419.8799589457503316
 21
158.0133157344000949
 31
0.0
  0
LINE
  5
B865
  8
0
 10
4419.8799589457503316
 20
158.0133157344000949
 30
0.0
 11
4419.8794167870137244
 21
158.0132191562001083
 31
0.0
  0
ARC
  5
B866
  8
0
 10
4419.8467474830822539
 20
158.0202677997575051
 30
0.0
 40
0.0066903659307109
 50
236.0025398122836009
 51
270.2610790364366835
  0
LINE
  5
B867
  8
0
 10
4419.843006523805343
 20
158.0147210691924897
 30
0.0
 11
4419.8282735544644311
 21
158.0242803745001083
 31
0.0
  0
LINE
  5
B868
  8
0
 10
4419.8467779688962764
 20
158.0135775032869958
 30
0.0
 11
4419.8473039474592952
 21
158.0133157344000949
 31
0.0
  0
LINE
  5
B869
  8
0
 10
4419.8473039474592952
 20
158.0133157344000949
 30
0.0
 11
4419.8478461061959024
 21
158.0132191562001083
 31
0.0
  0
LINE
  5
B86A
  8
0
 10
4419.8794167871137688
 20
157.9910967196001081
 30
0.0
 11
4419.8478461062459246
 21
157.9910967196001081
 31
0.0
  0
ARC
  5
B86B
  8
0
 10
4419.8805154102283268
 20
157.998145363157505
 30
0.0
 40
0.0066903659307109
 50
269.7389209635633165
 51
303.9974601877163991
  0
LINE
  5
B86C
  8
0
 10
4419.8842563695052377
 20
157.9925986325924896
 30
0.0
 11
4419.8989893388461496
 21
158.0021579379001082
 31
0.0
  0
LINE
  5
B86D
  8
0
 10
4419.8804849244143043
 20
157.9914550666869957
 30
0.0
 11
4419.879958945850376
 21
157.9911932978000948
 31
0.0
  0
LINE
  5
B86E
  8
0
 10
4419.879958945850376
 20
157.9911932978000948
 30
0.0
 11
4419.8794167871137688
 21
157.9910967196001081
 31
0.0
  0
ARC
  5
B86F
  8
0
 10
4419.8467474831822983
 20
157.998145363157505
 30
0.0
 40
0.0066903659307109
 50
236.0025398122836009
 51
270.2610790364366835
  0
LINE
  5
B870
  8
0
 10
4419.8430065239053874
 20
157.9925986325924896
 30
0.0
 11
4419.828273554563566
 21
158.0021579379001082
 31
0.0
  0
LINE
  5
B871
  8
0
 10
4419.8467779689963209
 20
157.9914550666869957
 30
0.0
 11
4419.8473039475602491
 21
157.9911932978000948
 31
0.0
  0
LINE
  5
B872
  8
0
 10
4419.8473039475602491
 20
157.9911932978000948
 30
0.0
 11
4419.8478461062950373
 21
157.9910967196001081
 31
0.0
  0
LINE
  5
B873
  8
0
 10
4419.9301560868598244
 20
158.1127701210000964
 30
0.0
 11
4419.8987931865458449
 21
158.1127701210000964
 31
0.0
  0
ARC
  5
B874
  8
0
 10
4419.8976945634831281
 20
158.1198187645574933
 30
0.0
 40
0.0066903659307109
 50
236.0025398122836009
 51
270.2610790364366835
  0
LINE
  5
B875
  8
0
 10
4419.8939536042053078
 20
158.1142720339925063
 30
0.0
 11
4419.8792206348643958
 21
158.1238313393000965
 31
0.0
  0
LINE
  5
B876
  8
0
 10
4419.8977250492962412
 20
158.1131284680870124
 30
0.0
 11
4419.8982510278601694
 21
158.1128666992001115
 31
0.0
  0
LINE
  5
B877
  8
0
 10
4419.8982510278601694
 20
158.1128666992001115
 30
0.0
 11
4419.8987931865958672
 21
158.1127701210000964
 31
0.0
  0
LINE
  5
B878
  8
0
 10
4419.9305600195639272
 20
158.0906476844000963
 30
0.0
 11
4419.898989338696083
 21
158.0906476844000963
 31
0.0
  0
ARC
  5
B879
  8
0
 10
4419.9316586426766662
 20
158.0976963279574079
 30
0.0
 40
0.0066903659307109
 50
269.7389209635633165
 51
303.9974601877163991
  0
LINE
  5
B87A
  8
0
 10
4419.9353996019553961
 20
158.0921495973925062
 30
0.0
 11
4419.947199960940452
 21
158.0998061146682971
 31
0.0
  0
LINE
  5
B87B
  8
0
 10
4419.9316281568653721
 20
158.0910060314870123
 30
0.0
 11
4419.9311021782996249
 21
158.0907442626001114
 31
0.0
  0
LINE
  5
B87C
  8
0
 10
4419.9311021782996249
 20
158.0907442626001114
 30
0.0
 11
4419.9305600195639272
 21
158.0906476844000963
 31
0.0
  0
ARC
  5
B87D
  8
0
 10
4419.8978907156315472
 20
158.0976963279574079
 30
0.0
 40
0.0066903659307109
 50
236.0025398122836009
 51
270.2610790364366835
  0
LINE
  5
B87E
  8
0
 10
4419.8941497563546363
 20
158.0921495973925062
 30
0.0
 11
4419.8794167870137244
 21
158.1017089027000964
 31
0.0
  0
LINE
  5
B87F
  8
0
 10
4419.8979212014446603
 20
158.0910060314870123
 30
0.0
 11
4419.8984471800104075
 21
158.0907442626001114
 31
0.0
  0
LINE
  5
B880
  8
0
 10
4419.8984471800104075
 20
158.0907442626001114
 30
0.0
 11
4419.8989893387461052
 21
158.0906476844000963
 31
0.0
  0
LINE
  5
B881
  8
0
 10
4419.9305600195639272
 20
158.0685252478000962
 30
0.0
 11
4419.898989338696083
 21
158.0685252478000962
 31
0.0
  0
ARC
  5
B882
  8
0
 10
4419.9316586426766662
 20
158.0755738913574078
 30
0.0
 40
0.0066903659307109
 50
269.7389209635633165
 51
303.9974601877163991
  0
LINE
  5
B883
  8
0
 10
4419.9353996019553961
 20
158.070027160792506
 30
0.0
 11
4419.9501325712972175
 21
158.0795864661000962
 31
0.0
  0
LINE
  5
B884
  8
0
 10
4419.9316281568653721
 20
158.0688835948870121
 30
0.0
 11
4419.9311021782996249
 21
158.0686218260001112
 31
0.0
  0
LINE
  5
B885
  8
0
 10
4419.9311021782996249
 20
158.0686218260001112
 30
0.0
 11
4419.9305600195639272
 21
158.0685252478000962
 31
0.0
  0
ARC
  5
B886
  8
0
 10
4419.8978907156315472
 20
158.0755738913574078
 30
0.0
 40
0.0066903659307109
 50
236.0025398122836009
 51
270.2610790364366835
  0
LINE
  5
B887
  8
0
 10
4419.8941497563546363
 20
158.070027160792506
 30
0.0
 11
4419.8788644960122838
 21
158.0799448133001022
 31
0.0
  0
LINE
  5
B888
  8
0
 10
4419.8979212014446603
 20
158.0688835948870121
 30
0.0
 11
4419.8984471800104075
 21
158.0686218260001112
 31
0.0
  0
LINE
  5
B889
  8
0
 10
4419.8984471800104075
 20
158.0686218260001112
 30
0.0
 11
4419.8989893387461052
 21
158.0685252478000962
 31
0.0
  0
LINE
  5
B88A
  8
0
 10
4419.9305600195639272
 20
158.046402811200096
 30
0.0
 11
4419.898989338696083
 21
158.046402811200096
 31
0.0
  0
ARC
  5
B88B
  8
0
 10
4419.9316586426766662
 20
158.0534514547574076
 30
0.0
 40
0.0066903659307109
 50
269.7389209635633165
 51
303.9974601877163991
  0
LINE
  5
B88C
  8
0
 10
4419.9353996019553961
 20
158.0479047241925059
 30
0.0
 11
4419.9501325712972175
 21
158.0574640295000961
 31
0.0
  0
LINE
  5
B88D
  8
0
 10
4419.9316281568653721
 20
158.046761158287012
 30
0.0
 11
4419.9311021782996249
 21
158.0464993894001111
 31
0.0
  0
LINE
  5
B88E
  8
0
 10
4419.9311021782996249
 20
158.0464993894001111
 30
0.0
 11
4419.9305600195639272
 21
158.046402811200096
 31
0.0
  0
ARC
  5
B88F
  8
0
 10
4419.8978907156315472
 20
158.0534514547574076
 30
0.0
 40
0.0066903659307109
 50
236.0025398122836009
 51
270.2610790364366835
  0
LINE
  5
B890
  8
0
 10
4419.8941497563546363
 20
158.0479047241925059
 30
0.0
 11
4419.8794167870137244
 21
158.0574640295000961
 31
0.0
  0
LINE
  5
B891
  8
0
 10
4419.8979212014446603
 20
158.046761158287012
 30
0.0
 11
4419.8984471800104075
 21
158.0464993894001111
 31
0.0
  0
LINE
  5
B892
  8
0
 10
4419.8984471800104075
 20
158.0464993894001111
 30
0.0
 11
4419.8989893387461052
 21
158.046402811200096
 31
0.0
  0
LINE
  5
B893
  8
0
 10
4419.9305600196139494
 20
158.0242803746000959
 30
0.0
 11
4419.8989893387461052
 21
158.0242803746000959
 31
0.0
  0
ARC
  5
B894
  8
0
 10
4419.9316586427266884
 20
158.0313290181574075
 30
0.0
 40
0.0066903659307109
 50
269.7389209635633165
 51
303.9974601877163991
  0
LINE
  5
B895
  8
0
 10
4419.9353996020063278
 20
158.0257822875925058
 30
0.0
 11
4419.9501325713463302
 21
158.035341592900096
 31
0.0
  0
LINE
  5
B896
  8
0
 10
4419.9316281569135754
 20
158.0246387216870119
 30
0.0
 11
4419.9311021783505566
 21
158.024376952800111
 31
0.0
  0
LINE
  5
B897
  8
0
 10
4419.9311021783505566
 20
158.024376952800111
 30
0.0
 11
4419.9305600196139494
 21
158.0242803746000959
 31
0.0
  0
ARC
  5
B898
  8
0
 10
4419.8978907156833884
 20
158.0313290181574075
 30
0.0
 40
0.0066903659307109
 50
236.0025398122836009
 51
270.2610790364366835
  0
LINE
  5
B899
  8
0
 10
4419.8941497564046585
 20
158.0257822875925058
 30
0.0
 11
4419.8794167870637466
 21
158.035341592900096
 31
0.0
  0
LINE
  5
B89A
  8
0
 10
4419.8979212014946825
 20
158.0246387216870119
 30
0.0
 11
4419.8984471800604297
 21
158.024376952800111
 31
0.0
  0
LINE
  5
B89B
  8
0
 10
4419.8984471800604297
 20
158.024376952800111
 30
0.0
 11
4419.8989893387961274
 21
158.0242803746000959
 31
0.0
  0
ARC
  5
B89C
  8
0
 10
4419.6877139366479241
 20
158.1415830467315971
 30
0.0
 40
0.0084759512537552
 50
311.6626616618895014
 51
0.5023083471682253
  0
LINE
  5
B89D
  8
0
 10
4419.696189562159816
 20
158.1570149943001127
 30
0.0
 11
4419.696189562159816
 21
158.1416573539000865
 31
0.0
  0
ARC
  5
B89E
  8
0
 10
4419.7838327941117313
 20
158.1083993917316093
 30
0.0
 40
0.0084759512537552
 50
179.4976916528318043
 51
228.3373383381106123
  0
LINE
  5
B89F
  8
0
 10
4419.7753571685998395
 20
158.1238313393000965
 30
0.0
 11
4419.7753571685998395
 21
158.1084736989000987
 31
0.0
  0
ARC
  5
B8A0
  8
0
 10
4419.7388571691981269
 20
158.1083993917316093
 30
0.0
 40
0.0084759512537552
 50
311.6626616618895014
 51
0.5023083471682253
  0
LINE
  5
B8A1
  8
0
 10
4419.7473327947100188
 20
158.1238313393000965
 30
0.0
 11
4419.7473327947100188
 21
158.1084736989000987
 31
0.0
  0
ARC
  5
B8A2
  8
0
 10
4419.7838327941117313
 20
158.0862769551316092
 30
0.0
 40
0.0084759512537552
 50
179.4976916528318043
 51
228.3373383381106123
  0
LINE
  5
B8A3
  8
0
 10
4419.7753571685998395
 20
158.1017089027000964
 30
0.0
 11
4419.7753571685998395
 21
158.0863512623000986
 31
0.0
  0
ARC
  5
B8A4
  8
0
 10
4419.7388571691981269
 20
158.0862769551316092
 30
0.0
 40
0.0084759512537552
 50
311.6626616618895014
 51
0.5023083471682253
  0
LINE
  5
B8A5
  8
0
 10
4419.7473327947100188
 20
158.1017089027000964
 30
0.0
 11
4419.7473327947100188
 21
158.0863512623000986
 31
0.0
  0
ARC
  5
B8A6
  8
0
 10
4419.7838327941117313
 20
158.064154518531609
 30
0.0
 40
0.0084759512537552
 50
179.4976916528318043
 51
228.3373383381106123
  0
LINE
  5
B8A7
  8
0
 10
4419.7753571685998395
 20
158.0795864661000962
 30
0.0
 11
4419.7753571685998395
 21
158.0642288257000985
 31
0.0
  0
ARC
  5
B8A8
  8
0
 10
4419.7388571691981269
 20
158.064154518531609
 30
0.0
 40
0.0084759512537552
 50
311.6626616618895014
 51
0.5023083471682253
  0
LINE
  5
B8A9
  8
0
 10
4419.7473327947100188
 20
158.0795864661000962
 30
0.0
 11
4419.7473327947100188
 21
158.0642288257000985
 31
0.0
  0
ARC
  5
B8AA
  8
0
 10
4419.7838327941117313
 20
158.0420320819316089
 30
0.0
 40
0.0084759512537552
 50
179.4976916528318043
 51
228.3373383381106123
  0
LINE
  5
B8AB
  8
0
 10
4419.7753571685998395
 20
158.0574640295000961
 30
0.0
 11
4419.7753571685998395
 21
158.0421063891000983
 31
0.0
  0
ARC
  5
B8AC
  8
0
 10
4419.7388571691981269
 20
158.0420320819316089
 30
0.0
 40
0.0084759512537552
 50
311.6626616618895014
 51
0.5023083471682253
  0
LINE
  5
B8AD
  8
0
 10
4419.7473327947100188
 20
158.0574640295000961
 30
0.0
 11
4419.7473327947100188
 21
158.0421063891000983
 31
0.0
  0
ARC
  5
B8AE
  8
0
 10
4419.7838327941117313
 20
158.0199096453316088
 30
0.0
 40
0.0084759512537552
 50
179.4976916528318043
 51
228.3373383381106123
  0
LINE
  5
B8AF
  8
0
 10
4419.7753571685998395
 20
158.035341592900096
 30
0.0
 11
4419.7753571685998395
 21
158.0199839525000982
 31
0.0
  0
ARC
  5
B8B0
  8
0
 10
4419.7388571691981269
 20
158.0199096453316088
 30
0.0
 40
0.0084759512537552
 50
311.6626616618895014
 51
0.5023083471682253
  0
LINE
  5
B8B1
  8
0
 10
4419.7473327947100188
 20
158.035341592900096
 30
0.0
 11
4419.7473327947100188
 21
158.0199839525000982
 31
0.0
  0
ARC
  5
B8B2
  8
0
 10
4419.7838327941117313
 20
157.9756647720315925
 30
0.0
 40
0.0084759512537552
 50
179.4976916528318043
 51
228.3373383381106123
  0
LINE
  5
B8B3
  8
0
 10
4419.7753571685998395
 20
157.9910967196001081
 30
0.0
 11
4419.7753571685998395
 21
157.9757390792001104
 31
0.0
  0
ARC
  5
B8B4
  8
0
 10
4419.7388571691981269
 20
157.9756647720315925
 30
0.0
 40
0.0084759512537552
 50
311.6626616618895014
 51
0.5023083471682253
  0
LINE
  5
B8B5
  8
0
 10
4419.7473327947100188
 20
157.9910967196001081
 30
0.0
 11
4419.7473327947100188
 21
157.9757390792001104
 31
0.0
  0
ARC
  5
B8B6
  8
0
 10
4419.8349760266119119
 20
157.9867259903315926
 30
0.0
 40
0.0084759512537552
 50
179.4976916528318043
 51
228.3373383381106123
  0
LINE
  5
B8B7
  8
0
 10
4419.8265004010991106
 20
158.0021579379001082
 30
0.0
 11
4419.8265004010991106
 21
157.9868002975001104
 31
0.0
  0
ARC
  5
B8B8
  8
0
 10
4419.790000401699217
 20
157.9867259903315926
 30
0.0
 40
0.0084759512537552
 50
311.6626616618895014
 51
0.5023083471682253
  0
LINE
  5
B8B9
  8
0
 10
4419.7984760272092899
 20
158.0021579379001082
 30
0.0
 11
4419.7984760272092899
 21
157.9868002975001104
 31
0.0
  0
ARC
  5
B8BA
  8
0
 10
4419.8349760266119119
 20
158.0088484270316087
 30
0.0
 40
0.0084759512537552
 50
179.4976916528318043
 51
228.3373383381106123
  0
LINE
  5
B8BB
  8
0
 10
4419.8265004010991106
 20
158.0242803746000959
 30
0.0
 11
4419.8265004010991106
 21
158.0089227342000981
 31
0.0
  0
ARC
  5
B8BC
  8
0
 10
4419.790000401699217
 20
158.0088484270316087
 30
0.0
 40
0.0084759512537552
 50
311.6626616618895014
 51
0.5023083471682253
  0
LINE
  5
B8BD
  8
0
 10
4419.7984760272092899
 20
158.0242803746000959
 30
0.0
 11
4419.7984760272092899
 21
158.0089227342000981
 31
0.0
  0
ARC
  5
B8BE
  8
0
 10
4419.8349760266119119
 20
158.0309708636316088
 30
0.0
 40
0.0084759512537552
 50
179.4976916528318043
 51
228.3373383381106123
  0
LINE
  5
B8BF
  8
0
 10
4419.8265004010991106
 20
158.046402811200096
 30
0.0
 11
4419.8265004010991106
 21
158.0310451708000983
 31
0.0
  0
ARC
  5
B8C0
  8
0
 10
4419.790000401699217
 20
158.0309708636316088
 30
0.0
 40
0.0084759512537552
 50
311.6626616618895014
 51
0.5023083471682253
  0
LINE
  5
B8C1
  8
0
 10
4419.7984760272092899
 20
158.046402811200096
 30
0.0
 11
4419.7984760272092899
 21
158.0310451708000983
 31
0.0
  0
ARC
  5
B8C2
  8
0
 10
4419.8349760266119119
 20
158.053093300231609
 30
0.0
 40
0.0084759512537552
 50
179.4976916528318043
 51
228.3373383381106123
  0
LINE
  5
B8C3
  8
0
 10
4419.8265004010991106
 20
158.0685252478000962
 30
0.0
 11
4419.8265004010991106
 21
158.0531676074000984
 31
0.0
  0
ARC
  5
B8C4
  8
0
 10
4419.790000401699217
 20
158.053093300231609
 30
0.0
 40
0.0084759512537552
 50
311.6626616618895014
 51
0.5023083471682253
  0
LINE
  5
B8C5
  8
0
 10
4419.7984760272092899
 20
158.0685252478000962
 30
0.0
 11
4419.7984760272092899
 21
158.0531676074000984
 31
0.0
  0
ARC
  5
B8C6
  8
0
 10
4419.8349760266119119
 20
158.0752157368316091
 30
0.0
 40
0.0084759512537552
 50
179.4976916528318043
 51
228.3373383381106123
  0
LINE
  5
B8C7
  8
0
 10
4419.8265004010991106
 20
158.0906476844000963
 30
0.0
 11
4419.8265004010991106
 21
158.0752900440000985
 31
0.0
  0
ARC
  5
B8C8
  8
0
 10
4419.790000401699217
 20
158.0752157368316091
 30
0.0
 40
0.0084759512537552
 50
311.6626616618895014
 51
0.5023083471682253
  0
LINE
  5
B8C9
  8
0
 10
4419.7984760272092899
 20
158.0906476844000963
 30
0.0
 11
4419.7984760272092899
 21
158.0752900440000985
 31
0.0
  0
ARC
  5
B8CA
  8
0
 10
4419.8349760266119119
 20
158.0973381734316092
 30
0.0
 40
0.0084759512537552
 50
179.4976916528318043
 51
228.3373383381106123
  0
LINE
  5
B8CB
  8
0
 10
4419.8265004010991106
 20
158.1127701210000964
 30
0.0
 11
4419.8265004010991106
 21
158.0974124806000987
 31
0.0
  0
ARC
  5
B8CC
  8
0
 10
4419.790000401699217
 20
158.0973381734316092
 30
0.0
 40
0.0084759512537552
 50
311.6626616618895014
 51
0.5023083471682253
  0
LINE
  5
B8CD
  8
0
 10
4419.7984760272092899
 20
158.1127701210000964
 30
0.0
 11
4419.7984760272092899
 21
158.0974124806000987
 31
0.0
  0
ARC
  5
B8CE
  8
0
 10
4419.8349760266119119
 20
158.1194606101315969
 30
0.0
 40
0.0084759512537552
 50
179.4976916528318043
 51
228.3373383381106123
  0
LINE
  5
B8CF
  8
0
 10
4419.8265004010991106
 20
158.1348925577001125
 30
0.0
 11
4419.8265004010991106
 21
158.1195349173000864
 31
0.0
  0
ARC
  5
B8D0
  8
0
 10
4419.790000401699217
 20
158.1194606101315969
 30
0.0
 40
0.0084759512537552
 50
311.6626616618895014
 51
0.5023083471682253
  0
LINE
  5
B8D1
  8
0
 10
4419.7984760272092899
 20
158.1348925577001125
 30
0.0
 11
4419.7984760272092899
 21
158.1195349173000864
 31
0.0
  0
ARC
  5
B8D2
  8
0
 10
4419.8349760266119119
 20
158.1415830467315971
 30
0.0
 40
0.0084759512537552
 50
179.4976916528318043
 51
228.3373383381106123
  0
LINE
  5
B8D3
  8
0
 10
4419.8265004010991106
 20
158.152612478830406
 30
0.0
 11
4419.8265004010991106
 21
158.1416573539000865
 31
0.0
  0
ARC
  5
B8D4
  8
0
 10
4419.790000401699217
 20
158.1415830467315971
 30
0.0
 40
0.0084759512537552
 50
311.6626616618895014
 51
0.5023083471682253
  0
LINE
  5
B8D5
  8
0
 10
4419.7984760272092899
 20
158.1586772504317935
 30
0.0
 11
4419.7984760272092899
 21
158.1416573539000865
 31
0.0
  0
ARC
  5
B8D6
  8
0
 10
4419.884730741752719
 20
158.0859892148421011
 30
0.0
 40
0.0070963498059328
 50
177.0755668887784111
 51
233.2510406524868074
  0
LINE
  5
B8D7
  8
0
 10
4419.8776436336002007
 20
158.1017089027000964
 30
0.0
 11
4419.8776436336002007
 21
158.0863512623000986
 31
0.0
  0
ARC
  5
B8D8
  8
0
 10
4419.8425350840097963
 20
158.0859878372272078
 30
0.0
 40
0.0070934916197748
 50
306.7366380551098928
 51
2.9367543735628949
  0
LINE
  5
B8D9
  8
0
 10
4419.84961925971038
 20
158.1017089027000964
 30
0.0
 11
4419.84961925971038
 21
158.0863512623000986
 31
0.0
  0
ARC
  5
B8DA
  8
0
 10
4419.8861192591120925
 20
158.0420320819316089
 30
0.0
 40
0.0084759512537552
 50
179.4976916528318043
 51
228.3373383381106123
  0
LINE
  5
B8DB
  8
0
 10
4419.8776436336002007
 20
158.0574640295000961
 30
0.0
 11
4419.8776436336002007
 21
158.0421063891000983
 31
0.0
  0
ARC
  5
B8DC
  8
0
 10
4419.8411436341975786
 20
158.0420320819316089
 30
0.0
 40
0.0084759512537552
 50
311.6626616618895014
 51
0.5023083471682253
  0
LINE
  5
B8DD
  8
0
 10
4419.84961925971038
 20
158.0574640295000961
 30
0.0
 11
4419.84961925971038
 21
158.0421063891000983
 31
0.0
  0
ARC
  5
B8DE
  8
0
 10
4419.8861192591120925
 20
158.0199096453316088
 30
0.0
 40
0.0084759512537552
 50
179.4976916528318043
 51
228.3373383381106123
  0
LINE
  5
B8DF
  8
0
 10
4419.8776436336002007
 20
158.035341592900096
 30
0.0
 11
4419.8776436336002007
 21
158.0199839525000982
 31
0.0
  0
ARC
  5
B8E0
  8
0
 10
4419.8411436341975786
 20
158.0199096453316088
 30
0.0
 40
0.0084759512537552
 50
311.6626616618895014
 51
0.5023083471682253
  0
LINE
  5
B8E1
  8
0
 10
4419.84961925971038
 20
158.035341592900096
 30
0.0
 11
4419.84961925971038
 21
158.0199839525000982
 31
0.0
  0
ARC
  5
B8E2
  8
0
 10
4419.8861192591120925
 20
157.9977872087316086
 30
0.0
 40
0.0084759512537552
 50
179.4976916528318043
 51
228.3373383381106123
  0
LINE
  5
B8E3
  8
0
 10
4419.8776436336002007
 20
158.0132191563000958
 30
0.0
 11
4419.8776436336002007
 21
157.9978615159000981
 31
0.0
  0
ARC
  5
B8E4
  8
0
 10
4419.8411436341975786
 20
157.9977872087316086
 30
0.0
 40
0.0084759512537552
 50
311.6626616618895014
 51
0.5023083471682253
  0
LINE
  5
B8E5
  8
0
 10
4419.84961925971038
 20
158.0132191563000958
 30
0.0
 11
4419.84961925971038
 21
157.9978615159000981
 31
0.0
  0
ARC
  5
B8E6
  8
0
 10
4419.9372624916122732
 20
158.0309708636316088
 30
0.0
 40
0.0084759512537552
 50
179.4976916528318043
 51
228.3373383381106123
  0
LINE
  5
B8E7
  8
0
 10
4419.9287868661003813
 20
158.046402811200096
 30
0.0
 11
4419.9287868661003813
 21
158.0310451708000983
 31
0.0
  0
ARC
  5
B8E8
  8
0
 10
4419.8922868666986687
 20
158.0309708636316088
 30
0.0
 40
0.0084759512537552
 50
311.6626616618895014
 51
0.5023083471682253
  0
LINE
  5
B8E9
  8
0
 10
4419.9007624922096511
 20
158.046402811200096
 30
0.0
 11
4419.9007624922096511
 21
158.0310451708000983
 31
0.0
  0
ARC
  5
B8EA
  8
0
 10
4419.9372624916122732
 20
158.053093300231609
 30
0.0
 40
0.0084759512537552
 50
179.4976916528318043
 51
228.3373383381106123
  0
LINE
  5
B8EB
  8
0
 10
4419.9287868661003813
 20
158.0685252478000962
 30
0.0
 11
4419.9287868661003813
 21
158.0531676074000984
 31
0.0
  0
ARC
  5
B8EC
  8
0
 10
4419.8922868666986687
 20
158.053093300231609
 30
0.0
 40
0.0084759512537552
 50
311.6626616618895014
 51
0.5023083471682253
  0
LINE
  5
B8ED
  8
0
 10
4419.9007624922096511
 20
158.0685252478000962
 30
0.0
 11
4419.9007624922096511
 21
158.0531676074000984
 31
0.0
  0
ARC
  5
B8EE
  8
0
 10
4419.9372624916122732
 20
158.0752157368316091
 30
0.0
 40
0.0084759512537552
 50
179.4976916528318043
 51
228.3373383381106123
  0
LINE
  5
B8EF
  8
0
 10
4419.9287868661003813
 20
158.0906476844000963
 30
0.0
 11
4419.9287868661003813
 21
158.0752900440000985
 31
0.0
  0
ARC
  5
B8F0
  8
0
 10
4419.8922868666986687
 20
158.0752157368316091
 30
0.0
 40
0.0084759512537552
 50
311.6626616618895014
 51
0.5023083471682253
  0
LINE
  5
B8F1
  8
0
 10
4419.9007624922096511
 20
158.0906476844000963
 30
0.0
 11
4419.9007624922096511
 21
158.0752900440000985
 31
0.0
  0
ARC
  5
B8F2
  8
0
 10
4419.9372624916632049
 20
158.0973381734316092
 30
0.0
 40
0.0084759512537552
 50
179.4976916528318043
 51
228.3373383381106123
  0
LINE
  5
B8F3
  8
0
 10
4419.9287868661504035
 20
158.1127701210000964
 30
0.0
 11
4419.9287868661504035
 21
158.0974124806000987
 31
0.0
  0
ARC
  5
B8F4
  8
0
 10
4419.8922868667477815
 20
158.0973381734316092
 30
0.0
 40
0.0084759512537552
 50
311.6626616618895014
 51
0.5023083471682253
  0
LINE
  5
B8F5
  8
0
 10
4419.9007624922596733
 20
158.1127701210000964
 30
0.0
 11
4419.9007624922596733
 21
158.0974124806000987
 31
0.0
  0
LINE
  5
B8F6
  8
0
 10
4419.6720911716001865
 20
157.968974283000108
 30
0.0
 11
4419.6720929192997573
 21
157.9529822194000985
 31
0.0
  0
ARC
  5
B8F7
  8
0
 10
4419.6781946193714248
 20
157.9550706835539131
 30
0.0
 40
0.0064492191327622
 50
198.8948334508017126
 51
305.0195027629976039
  0
LINE
  5
B8F8
  8
0
 10
4419.694416408797224
 20
157.957913064700108
 30
0.0
 11
4419.6818955375147198
 21
157.9497890519562873
 31
0.0
  0
LINE
  5
B8F9
  8
0
 10
4419.7418047344490333
 20
157.9569638638647859
 30
0.0
 11
4419.7418047344490333
 21
157.9665379580399929
 31
0.0
  0
LINE
  5
B8FA
  8
0
 10
4419.7334937083387558
 20
157.9527902225225944
 30
0.0
 11
4419.7255988378692564
 21
157.957913064700108
 31
0.0
  0
ARC
  5
B8FB
  8
0
 10
4419.7362028408388142
 20
157.9577572395454013
 30
0.0
 40
0.0056577961263567
 50
241.3908695492108052
 51
351.9390190226234267
  0
LINE
  5
B8FC
  8
0
 10
4419.7981973983805801
 20
157.9645954942797061
 30
0.0
 11
4419.7981973983805801
 21
157.9800355013001081
 31
0.0
  0
LINE
  5
B8FD
  8
0
 10
4419.7898863722693932
 20
157.9604218529374862
 30
0.0
 11
4419.7767061248196114
 21
157.968974283000108
 31
0.0
  0
ARC
  5
B8FE
  8
0
 10
4419.7925955047694515
 20
157.9653888699604067
 30
0.0
 40
0.0056577961263567
 50
241.3908695492108052
 51
351.9390190226234267
  0
LINE
  5
B8FF
  8
0
 10
4419.8488596181432513
 20
157.9755906433780979
 30
0.0
 11
4419.8488596181432513
 21
157.9910967196001081
 31
0.0
  0
LINE
  5
B900
  8
0
 10
4419.8408694844456477
 20
157.9716106928231056
 30
0.0
 11
4419.8268272643335877
 21
157.9800355013001081
 31
0.0
  0
ARC
  5
B901
  8
0
 10
4419.8436010002260446
 20
157.9761373684513046
 30
0.0
 40
0.0052869623319876
 50
238.892108115798095
 51
354.0644291675209843
  0
LINE
  5
B902
  8
0
 10
4419.8938253471251301
 20
157.9910503503182895
 30
0.0
 11
4419.8938253488995542
 21
157.9988073468286984
 31
0.0
  0
LINE
  5
B903
  8
0
 10
4419.8878150406017085
 20
157.9853955215874919
 30
0.0
 11
4419.8790282540039698
 21
157.9910967196001081
 31
0.0
  0
ARC
  5
B904
  8
0
 10
4419.8882549536110673
 20
157.9909494341299023
 30
0.0
 40
0.0055713075647094
 50
265.4711845303373821
 51
1.037886847933932
  0
LINE
  5
B905
  8
0
 10
4419.9307458433504507
 20
158.010144479614496
 30
0.0
 11
4419.9307458433504507
 21
158.0239077100873999
 31
0.0
  0
LINE
  5
B906
  8
0
 10
4419.9003739590998521
 20
158.0089227342000981
 30
0.0
 11
4419.9003739590998521
 21
158.0242803746000959
 31
0.0
  0
LINE
  5
B907
  8
0
 10
4419.9255894826028452
 20
158.0021579379001082
 30
0.0
 11
4419.8985983122001926
 21
158.0021595156001126
 31
0.0
  0
ARC
  5
B908
  8
0
 10
4419.9228922547818001
 20
158.0095571770359868
 30
0.0
 40
0.007875517613973
 50
290.0282003789249075
 51
4.2766999988972261
  0
LINE
  5
B909
  8
0
 10
4419.9492511052503687
 20
158.0217830520217035
 30
0.0
 11
4419.9492511052503687
 21
158.034769664503699
 31
0.0
  0
LINE
  5
B90A
  8
0
 10
4419.944705618800981
 20
158.0148500821997004
 30
0.0
 11
4419.9301714862467634
 21
158.0242803746000959
 31
0.0
  0
ARC
  5
B90B
  8
0
 10
4419.9389193752258507
 20
158.0225312587259907
 30
0.0
 40
0.0103587865375362
 50
314.7571300191909245
 51
355.8579656934517743
  0
ARC
  5
B90C
  8
0
 10
4419.9452139358390923
 20
158.0161494620614064
 30
0.0
 40
0.0013952685176882
 50
248.6345765700764048
 51
315.7299660515785149
  0
LINE
  5
B90D
  8
0
 10
4419.8985983122001926
 20
158.0021595156001126
 30
0.0
 11
4419.8980593557998873
 21
158.002254669400088
 31
0.0
  0
LINE
  5
B90E
  8
0
 10
4419.8980593557998873
 20
158.002254669400088
 30
0.0
 11
4419.897531228490152
 21
158.0025162852475944
 31
0.0
  0
ARC
  5
B90F
  8
0
 10
4419.8972622463916196
 20
158.0086521833958955
 30
0.0
 40
0.0061417910647593
 50
235.2310057006089039
 51
272.5100939812646175
  0
LINE
  5
B910
  8
0
 10
4419.8937597726180684
 20
158.003606960413407
 30
0.0
 11
4419.8790268032780659
 21
158.013166265720912
 31
0.0
  0
ARC
  5
B911
  8
0
 10
4419.8907095741678859
 20
158.0093771809839041
 30
0.0
 40
0.0096750637194205
 50
314.8356767321805023
 51
357.3077731137788078
  0
LINE
  5
B912
  8
0
 10
4419.9745218938605831
 20
158.0574640295000961
 30
0.0
 11
4419.94974403818469
 21
158.0574640295000961
 31
0.0
  0
ARC
  5
B913
  8
0
 10
4419.9486454151219732
 20
158.064512673057493
 30
0.0
 40
0.0066903659307109
 50
236.0025398122836009
 51
270.2610790364366835
  0
LINE
  5
B914
  8
0
 10
4419.9449044558450623
 20
158.058965942492506
 30
0.0
 11
4419.9301714865041504
 21
158.0685252478000962
 31
0.0
  0
LINE
  5
B915
  8
0
 10
4419.9486759009350862
 20
158.0578223765870121
 30
0.0
 11
4419.9492018794990145
 21
158.0575606077001112
 31
0.0
  0
LINE
  5
B916
  8
0
 10
4419.9492018794990145
 20
158.0575606077001112
 30
0.0
 11
4419.9497440382356217
 21
158.0574640295000961
 31
0.0
  0
ARC
  5
B917
  8
0
 10
4419.9430415661872757
 20
158.064154518531609
 30
0.0
 40
0.0084759512537552
 50
311.6626616618895014
 51
0.5023083471682253
  0
LINE
  5
B918
  8
0
 10
4419.9515171917000771
 20
158.0795864661000962
 30
0.0
 11
4419.9515171917000771
 21
158.0642288257000985
 31
0.0
  0
LINE
  5
B919
  8
0
 10
4419.9681657149731109
 20
158.035341592900096
 30
0.0
 11
4419.94974403818469
 21
158.035341592900096
 31
0.0
  0
ARC
  5
B91A
  8
0
 10
4419.9486454151219732
 20
158.0423902364574076
 30
0.0
 40
0.0066903659307109
 50
236.0025398122836009
 51
270.2610790364366835
  0
LINE
  5
B91B
  8
0
 10
4419.9449044558450623
 20
158.0368435058925058
 30
0.0
 11
4419.9301714865041504
 21
158.046402811200096
 31
0.0
  0
LINE
  5
B91C
  8
0
 10
4419.9486759009350862
 20
158.0356999399870119
 30
0.0
 11
4419.9492018794990145
 21
158.035438171100111
 31
0.0
  0
LINE
  5
B91D
  8
0
 10
4419.9492018794990145
 20
158.035438171100111
 30
0.0
 11
4419.9497440382356217
 21
158.035341592900096
 31
0.0
  0
ARC
  5
B91E
  8
0
 10
4419.9430415661872757
 20
158.0420320819316089
 30
0.0
 40
0.0084759512537552
 50
311.6626616618895014
 51
0.5023083471682253
  0
LINE
  5
B91F
  8
0
 10
4419.9515171917000771
 20
158.0574640295000961
 30
0.0
 11
4419.9515171917000771
 21
158.0421063891000983
 31
0.0
  0
ARC
  5
B920
  8
0
 10
4419.9486416440859102
 20
158.0866351096574078
 30
0.0
 40
0.0066903659307109
 50
236.0025398122836009
 51
270.2610790364366835
  0
LINE
  5
B921
  8
0
 10
4419.9449006848099089
 20
158.0810883790925061
 30
0.0
 11
4419.9301677154689969
 21
158.0906476844000963
 31
0.0
  0
LINE
  5
B922
  8
0
 10
4419.9486721298999328
 20
158.0799448131870122
 30
0.0
 11
4419.949198108463861
 21
158.0796830443001113
 31
0.0
  0
LINE
  5
B923
  8
0
 10
4419.949198108463861
 20
158.0796830443001113
 30
0.0
 11
4419.9497402672013777
 21
158.0795864661000962
 31
0.0
  0
ARC
  5
B924
  8
0
 10
4419.9411368036144268
 20
158.0871261630425124
 30
0.0
 40
0.0104092712504235
 50
316.3778549670752227
 51
355.7307623511086945
  0
LINE
  5
B925
  8
0
 10
4419.9515171917000771
 20
158.0960198985924023
 30
0.0
 11
4419.9515171917000771
 21
158.0863512623000986
 31
0.0
  0
LINE
  5
B926
  8
0
 10
4419.966469550927286
 20
158.0795864661000962
 30
0.0
 11
4419.94974403818469
 21
158.0795864661000962
 31
0.0
  0
LINE
  5
B927
  8
0
 10
4419.732167967256828
 20
158.1594582020852897
 30
0.0
 11
4419.7433246214659448
 21
158.1666214604670131
 31
0.0
  0
ARC
  5
B928
  8
0
 10
4419.8860591894981553
 20
158.1083727505273089
 30
0.0
 40
0.0084161613533226
 50
179.3127444273019933
 51
228.5222848162966898
  0
LINE
  5
B929
  8
0
 10
4419.8776436336002007
 20
158.1238313393000965
 30
0.0
 11
4419.8776436336002007
 21
158.1084736989000987
 31
0.0
  0
ARC
  5
B92A
  8
0
 10
4419.841203598645734
 20
158.1083727972558961
 30
0.0
 40
0.0084162659511682
 50
311.4780403996410882
 51
0.6869288921914058
  0
LINE
  5
B92B
  8
0
 10
4419.84961925971038
 20
158.1238313393000965
 30
0.0
 11
4419.84961925971038
 21
158.1084736989000987
 31
0.0
  0
ARC
  5
B92C
  8
0
 10
4419.7838327941435637
 20
158.1526442650477122
 30
0.0
 40
0.0084759512537552
 50
179.4976916528318043
 51
228.3373383381106123
  0
LINE
  5
B92D
  8
0
 10
4419.7753571686316718
 20
158.1626422802040963
 30
0.0
 11
4419.7753571686316718
 21
158.152718572216088
 31
0.0
  0
ARC
  5
B92E
  8
0
 10
4419.7388571692308687
 20
158.1526442650477122
 30
0.0
 40
0.0084759512537552
 50
311.6626616618895014
 51
0.5023083471682253
  0
LINE
  5
B92F
  8
0
 10
4419.7473327947418511
 20
158.1662187379031934
 30
0.0
 11
4419.7473327947418511
 21
158.152718572216088
 31
0.0
  0
ARC
  5
B930
  8
0
 10
4419.8422536221241899
 20
158.1302918072647117
 30
0.0
 40
0.0073719219410708
 50
304.2533521674088774
 51
2.3659609318105592
  0
LINE
  5
B931
  8
0
 10
4419.8496192597203844
 20
158.1465423878235015
 30
0.0
 11
4419.8496192597203844
 21
158.1305961355000989
 31
0.0
  0
ARC
  5
B932
  8
0
 10
4419.8860591898919665
 20
158.1304951868343096
 30
0.0
 40
0.0084161613533226
 50
179.3127444273019933
 51
228.5222848162966898
  0
LINE
  5
B933
  8
0
 10
4419.8776436339940119
 20
158.1378438981030001
 30
0.0
 11
4419.8776436339940119
 21
158.1305961352070995
 31
0.0
  0
ARC
  5
B934
  8
0
 10
4419.7326294923568639
 20
158.1636788417941943
 30
0.0
 40
0.0084161613533226
 50
179.3127444273019933
 51
228.5222848162966898
  0
LINE
  5
B935
  8
0
 10
4419.7242139364598188
 20
158.1682478799966134
 30
0.0
 11
4419.7242139364598188
 21
158.1637797901670126
 31
0.0
  0
ARC
  5
B936
  8
0
 10
4419.6873254039101084
 20
158.1637054834029925
 30
0.0
 40
0.0084759512537552
 50
311.6626616618895014
 51
0.5023083471682253
  0
LINE
  5
B937
  8
0
 10
4419.6958010294220003
 20
158.1700015531014003
 30
0.0
 11
4419.6958010294220003
 21
158.1637797905715104
 31
0.0
  0
ARC
  5
B938
  8
0
 10
4419.8901897230143732
 20
158.1203098179454969
 30
0.0
 40
0.0104092712504235
 50
316.3778549670752227
 51
355.7307623511086945
  0
LINE
  5
B939
  8
0
 10
4419.9005701110982045
 20
158.1292035534953868
 30
0.0
 11
4419.9005701110982045
 21
158.1195349172031115
 31
0.0
  0
ARC
  5
B93A
  8
0
 10
4419.6873254034881029
 20
157.9646035537315925
 30
0.0
 40
0.0084759512537552
 50
311.6626616618895014
 51
0.5023083471682253
  0
LINE
  5
B93B
  8
0
 10
4419.6958010289999947
 20
157.9800355013001081
 30
0.0
 11
4419.6958010289999947
 21
157.9646778609001103
 31
0.0
  0
ARC
  5
B93C
  8
0
 10
4419.9611754225879849
 20
158.0420320819316089
 30
0.0
 40
0.0084759512537552
 50
307.8752246098114824
 51
0.5023083471682253
  0
LINE
  5
B93D
  8
0
 10
4419.9696510480989673
 20
158.0574640295000961
 30
0.0
 11
4419.9696510480989673
 21
158.0421063891000983
 31
0.0
  0
LINE
  5
B93E
  8
0
 10
4420.0269744862998778
 20
158.0619430927748965
 30
0.0
 11
4420.0269744862998778
 21
158.1407955764098006
 31
0.0
  0
ARC
  5
B93F
  8
0
 10
4419.6620850366070954
 20
157.2986260786809964
 30
0.0
 40
0.9008490273874326
 50
79.4246060758930952
 51
90.2048488303113487
  0
ARC
  5
B940
  8
0
 10
4419.7539452617193092
 20
157.7402991846261955
 30
0.0
 40
0.4499139249901331
 50
60.4302069644436273
 51
80.6013868337791735
  0
ARC
  5
B941
  8
0
 10
4419.9179644408040986
 20
158.0294437515736945
 30
0.0
 40
0.1174881920775835
 50
27.2963074642533883
 51
60.4148432925950587
  0
ARC
  5
B942
  8
0
 10
4419.9717492654308444
 20
158.0612350815306968
 30
0.0
 40
0.0552297591873855
 50
0.7345164617105223
 51
23.57358848326637
  0
ARC
  5
B943
  8
0
 10
4419.6594863410118705
 20
157.2906051260117977
 30
0.0
 40
0.8854241530164348
 50
82.217106094371573
 51
90.0402554971731632
  0
ARC
  5
B944
  8
0
 10
4419.6936562124228658
 20
157.5406063560542123
 30
0.0
 40
0.6330985793323168
 50
70.9512842413935232
 51
82.217106094371573
  0
ARC
  5
B945
  8
0
 10
4419.8429212953697061
 20
157.9500256551667121
 30
0.0
 40
0.1975238086422725
 50
40.6494881139469229
 51
73.1182072373226646
  0
ARC
  5
B946
  8
0
 10
4419.9468593631336262
 20
158.0457792985475862
 30
0.0
 40
0.0565047202604425
 50
1.2174383665728949
 51
35.633119625273963
  0
ARC
  5
B947
  8
0
 10
4419.9399649552196934
 20
158.0500520860040012
 30
0.0
 40
0.0634607830711944
 50
314.1078593864605182
 51
357.2251259275357143
  0
ARC
  5
B948
  8
0
 10
4419.8461476760867299
 20
158.1464978512269965
 30
0.0
 40
0.1980098432285291
 50
291.5362827598174817
 51
314.1762511812005982
  0
ARC
  5
B949
  8
0
 10
4419.7100754916118603
 20
158.479682649748014
 30
0.0
 40
0.557900518247646
 50
277.2432695780889276
 51
291.9741359171728163
  0
ARC
  5
B94A
  8
0
 10
4419.6601991556190114
 20
158.7929507293883944
 30
0.0
 40
0.875014099306599
 50
269.9125905687058093
 51
277.8968188413886082
  0
ARC
  5
B94B
  8
0
 10
4419.6588935744593982
 20
157.1604537409249929
 30
0.0
 40
1.070940135596061
 50
88.0709549271106766
 51
90.0015688691061371
  0
ARC
  5
B94C
  8
0
 10
4419.6602146371451454
 20
157.1996766265851875
 30
0.0
 40
1.0316950089414869
 50
82.8844892568471749
 51
88.0709549271106766
  0
ARC
  5
B94D
  8
0
 10
4419.6897364723708961
 20
157.4361700880967874
 30
0.0
 40
0.7933660428194149
 50
73.3795027659854497
 51
82.8844892568471749
  0
ARC
  5
B94E
  8
0
 10
4419.8308696697786218
 20
157.8886267299573944
 30
0.0
 40
0.3194974168583061
 50
52.5081892426972203
 51
74.423264441439116
  0
ARC
  5
B94F
  8
0
 10
4419.9710566353342074
 20
158.0735537263597905
 30
0.0
 40
0.0874544021463863
 50
19.3496122392334691
 51
51.6397817311942831
  0
ARC
  5
B950
  8
0
 10
4419.9950082772265887
 20
158.0883225409046986
 30
0.0
 40
0.0602616165130219
 50
322.2594087513145951
 51
13.6367250486982101
  0
ARC
  5
B951
  8
0
 10
4419.9503708593556439
 20
158.1168550112780053
 30
0.0
 40
0.113124949276963
 50
305.052224790127184
 51
324.6703716682238792
  0
ARC
  5
B952
  8
0
 10
4420.0498235224386008
 20
158.0883284762628023
 30
0.0
 40
0.0814904090229314
 50
331.2434769112251161
 51
359.1610113993810955
  0
ARC
  5
B953
  8
0
 10
4419.9491244903047118
 20
158.1639627226008997
 30
0.0
 40
0.2069294975935802
 50
292.099431675970493
 51
326.2917881239580993
  0
ARC
  5
B954
  8
0
 10
4419.6592471503936395
 20
158.9479172899677906
 30
0.0
 40
1.0426781253577491
 50
269.9789593992364871
 51
290.6510662433569792
  0
ARC
  5
B955
  8
0
 10
4419.960143546692052
 20
158.0617822627606017
 30
0.0
 40
0.0668311331280808
 50
346.4056595709001272
 51
0.1378831915551631
  0
ARC
  5
B956
  8
0
 10
4419.9188406903613213
 20
158.0805010178401915
 30
0.0
 40
0.1116994624932776
 50
300.9693123485773754
 51
342.0484693310708053
  0
ARC
  5
B957
  8
0
 10
4419.8096462802195674
 20
158.2412910991747026
 30
0.0
 40
0.3059507649746056
 50
290.2174628427737275
 51
303.0089026729377224
  0
ARC
  5
B958
  8
0
 10
4419.664637479956582
 20
158.7081682109539997
 30
0.0
 40
0.7945772365582893
 50
269.5836973492992001
 51
288.3949098298930949
  0
LINE
  5
B959
  8
0
 10
4419.1864233051001065
 20
161.1651712110000858
 30
0.0
 11
4419.1864233051001065
 21
153.4958877528000869
 31
0.0
  0
ARC
  5
B95B
  8
0
 10
4419.6588642500000788
 20
161.1651712110000858
 30
0.0
 40
0.4724409449000025
 50
0.0
 51
180.0
  0
ARC
  5
B95C
  8
0
 10
4419.6592508936819286
 20
158.7471071691286113
 30
0.0
 40
0.8334953106028812
 50
252.0479713239423063
 51
269.973421503815814
  0
ARC
  5
B95D
  8
0
 10
4419.6617053088129978
 20
158.7267036060090959
 30
0.0
 40
0.8130966213226996
 50
269.7998011546002886
 51
288.1788060177008788
  0
LINE
  5
B95E
  8
0
 10
4420.5446910216996912
 20
152.2555158587140056
 30
0.0
 11
4420.5446910216996912
 21
153.4761952146031092
 31
0.0
  0
LINE
  5
B95F
  8
0
 10
4418.7730374783013758
 20
148.9683286977000876
 30
0.0
 11
4418.7730374783013758
 21
153.4762027125744055
 31
0.0
  0
LINE
  5
B960
  8
0
 10
4422.3937003533455936
 20
150.4053614253571993
 30
0.0
 11
4421.8706537427206058
 21
150.4053614253571993
 31
0.0
  0
LINE
  5
B961
  8
0
 10
4421.3281555902112814
 20
150.4053614253571993
 30
0.0
 11
4420.7416238243977205
 21
150.4053614253571993
 31
0.0
  0
LINE
  5
B962
  8
0
 10
4420.5446910216996912
 20
148.9683286977000876
 30
0.0
 11
4420.5446888255992235
 21
150.2084861822000903
 31
0.0
  0
LINE
  5
B963
  8
0
 10
4420.5446910216996912
 20
150.2093988359384866
 30
0.0
 11
4420.5446910216996912
 21
148.9683286977000876
 31
0.0
  0
ENDSEC
  0
EOF
