  0
SECTION
  2
HEADER
  9
$ACADVER
  1
AC1009
  9
$INSBASE
 10
544.8438501297791845
 20
-6.4534024290116028
 30
0.0
  9
$EXTMIN
 10
535.498488980388629
 20
-7.6510369647640744
 30
-0.0000000000000058
  9
$EXTMAX
 10
544.880003259011346
 20
2.8622823110073981
 30
0.0000000000000104
  9
$LIMMIN
 10
0.0
 20
0.0
  9
$LIMMAX
 10
11.6929133858000007
 20
8.2677165353999982
  9
$ORTHOMODE
 70
     0
  9
$REGENMODE
 70
     1
  9
$FILLMODE
 70
     1
  9
$QTEXTMODE
 70
     0
  9
$MIRRTEXT
 70
     0
  9
$DRAGMODE
 70
     2
  9
$LTSCALE
 40
0.6431102362
  9
$OSMODE
 70
  4095
  9
$ATTMODE
 70
     1
  9
$TEXTSIZE
 40
0.2
  9
$TRACEWID
 40
0.05
  9
$TEXTSTYLE
  7
STANDARD
  9
$CLAYER
  8
DEFPOINT
  9
$CELTYPE
  6
BYLAYER
  9
$CECOLOR
 62
   256
  9
$DIMSCALE
 40
1.0
  9
$DIMASZ
 40
0.1875
  9
$DIMEXO
 40
0.0625
  9
$DIMDLI
 40
0.4443307087
  9
$DIMRND
 40
0.0
  9
$DIMDLE
 40
0.0
  9
$DIMEXE
 40
0.125
  9
$DIMTP
 40
0.01
  9
$DIMTM
 40
0.01
  9
$DIMTXT
 40
1.0
  9
$DIMCEN
 40
0.1052362205
  9
$DIMTSZ
 40
0.0
  9
$DIMTOL
 70
     1
  9
$DIMLIM
 70
     0
  9
$DIMTIH
 70
     1
  9
$DIMTOH
 70
     1
  9
$DIMSE1
 70
     0
  9
$DIMSE2
 70
     0
  9
$DIMTAD
 70
     0
  9
$DIMZIN
 70
     0
  9
$DIMBLK
  1

  9
$DIMASO
 70
     1
  9
$DIMSHO
 70
     1
  9
$DIMPOST
  1
\X
  9
$DIMAPOST
  1

  9
$DIMALT
 70
     1
  9
$DIMALTD
 70
     2
  9
$DIMALTF
 40
25.3999999999999986
  9
$DIMLFAC
 40
1.0
  9
$DIMTOFL
 70
     0
  9
$DIMTVP
 40
0.0
  9
$DIMTIX
 70
     0
  9
$DIMSOXD
 70
     0
  9
$DIMSAH
 70
     0
  9
$DIMBLK1
  1

  9
$DIMBLK2
  1

  9
$DIMSTYLE
  2
STANDARD
  9
$DIMCLRD
 70
     0
  9
$DIMCLRE
 70
     0
  9
$DIMCLRT
 70
     0
  9
$DIMTFAC
 40
1.0
  9
$DIMGAP
 40
0.09
  9
$LUNITS
 70
     2
  9
$LUPREC
 70
     4
  9
$SKETCHINC
 40
0.1
  9
$FILLETRAD
 40
0.0
  9
$AUNITS
 70
     0
  9
$AUPREC
 70
     0
  9
$MENU
  1
.
  9
$ELEVATION
 40
0.0
  9
$PELEVATION
 40
0.0
  9
$THICKNESS
 40
0.0
  9
$LIMCHECK
 70
     0
  9
$BLIPMODE
 70
     0
  9
$CHAMFERA
 40
0.0
  9
$CHAMFERB
 40
0.0
  9
$SKPOLY
 70
     0
  9
$TDCREATE
 40
2458306.6094560190103948
  9
$TDUPDATE
 40
2460517.514930556062609
  9
$TDINDWG
 40
0.125830787
  9
$TDUSRTIMER
 40
0.1258306597
  9
$USRTIMER
 70
     1
  9
$ANGBASE
 50
0.0
  9
$ANGDIR
 70
     0
  9
$PDMODE
 70
     0
  9
$PDSIZE
 40
0.3125
  9
$PLINEWID
 40
0.0
  9
$COORDS
 70
     1
  9
$SPLFRAME
 70
     0
  9
$SPLINETYPE
 70
     6
  9
$SPLINESEGS
 70
     8
  9
$ATTDIA
 70
     1
  9
$ATTREQ
 70
     1
  9
$HANDLING
 70
     1
  9
$HANDSEED
  5
52F8
  9
$SURFTAB1
 70
     6
  9
$SURFTAB2
 70
     6
  9
$SURFTYPE
 70
     6
  9
$SURFU
 70
     6
  9
$SURFV
 70
     6
  9
$UCSNAME
  2

  9
$UCSORG
 10
0.0
 20
0.0
 30
0.0
  9
$UCSXDIR
 10
1.0
 20
0.0
 30
0.0
  9
$UCSYDIR
 10
0.0
 20
1.0
 30
0.0
  9
$PUCSNAME
  2

  9
$PUCSORG
 10
0.0
 20
0.0
 30
0.0
  9
$PUCSXDIR
 10
1.0
 20
0.0
 30
0.0
  9
$PUCSYDIR
 10
0.0
 20
1.0
 30
0.0
  9
$USERI1
 70
     0
  9
$USERI2
 70
     0
  9
$USERI3
 70
     0
  9
$USERI4
 70
     0
  9
$USERI5
 70
     0
  9
$USERR1
 40
0.0
  9
$USERR2
 40
0.0
  9
$USERR3
 40
0.0
  9
$USERR4
 40
0.0
  9
$USERR5
 40
0.0
  9
$WORLDVIEW
 70
     1
  9
$SHADEDGE
 70
     3
  9
$SHADEDIF
 70
    70
  9
$TILEMODE
 70
     1
  9
$MAXACTVP
 70
    64
  9
$PLIMCHECK
 70
     0
  9
$PEXTMIN
 10
1.0000000000000000E+20
 20
1.0000000000000000E+20
 30
1.0000000000000000E+20
  9
$PEXTMAX
 10
-1.0000000000000000E+20
 20
-1.0000000000000000E+20
 30
-1.0000000000000000E+20
  9
$PLIMMIN
 10
0.0
 20
0.0
  9
$PLIMMAX
 10
12.0
 20
9.0
  9
$UNITMODE
 70
     0
  9
$VISRETAIN
 70
     1
  9
$PLINEGEN
 70
     0
  9
$PSLTSCALE
 70
     1
  0
ENDSEC
  0
SECTION
  2
TABLES
  0
TABLE
  2
VPORT
 70
     1
  0
VPORT
  2
*ACTIVE
 70
     0
 10
0.0
 20
0.0
 11
1.0
 21
1.0
 12
31.7565544640217503
 22
7.6018103894021074
 13
0.0
 23
0.0
 14
1.0
 24
1.0
 15
0.0
 25
0.0
 16
0.0
 26
0.0
 36
0.0353741150031454
 17
508.4326916556781839
 27
-9.9961877162804456
 37
0.0
 40
10.5962100979194709
 41
2.498684210526315
 42
50.0
 43
0.0
 44
0.0
 50
0.0
 51
0.0
 71
     0
 72
   100
 73
     1
 74
     1
 75
     0
 76
     0
 77
     0
 78
     0
  0
ENDTAB
  0
TABLE
  2
LTYPE
 70
     1
  0
LTYPE
  2
CONTINUOUS
 70
     0
  3
Solid line
 72
    65
 73
     0
 40
0.0
  0
ENDTAB
  0
TABLE
  2
LAYER
 70
     2
  0
LAYER
  2
0
 70
     0
 62
   255
  6
CONTINUOUS
  0
LAYER
  2
DEFPOINT
 70
     0
 62
     7
  6
CONTINUOUS
  0
ENDTAB
  0
TABLE
  2
STYLE
 70
     1
  0
STYLE
  2
STANDARD
 70
     0
 40
0.0
 41
0.8
 50
0.0
 71
     0
 42
0.2
  3
txt
  4

  0
ENDTAB
  0
TABLE
  2
VIEW
 70
     0
  0
ENDTAB
  0
TABLE
  2
UCS
 70
     0
  0
ENDTAB
  0
TABLE
  2
APPID
 70
    10
  0
APPID
  2
ACAD
 70
     0
  0
APPID
  2
ACADANNOTATIVE
 70
     0
  0
APPID
  2
ACAD_MLEADERVER
 70
     0
  0
APPID
  2
ACAD_EXEMPT_FROM_CAD_STANDARDS
 70
     0
  0
APPID
  2
ACAD_DSTYLE_DIMJAG
 70
     0
  0
APPID
  2
ACAD_DSTYLE_DIMTALN
 70
     0
  0
APPID
  2
ACAD_NAV_VCDISPLAY
 70
     0
  0
APPID
  2
ACAECLAYERSTANDARD
 70
     0
  0
APPID
  2
ACCMTRANSPARENCY
 70
     0
  0
APPID
  2
ACDBATTR
 70
     0
  0
ENDTAB
  0
TABLE
  2
DIMSTYLE
 70
     1
  0
DIMSTYLE
  2
STANDARD
 70
     0
  3

  4

  5

  6

  7

 40
1.0
 41
0.1875
 42
0.0625
 43
0.38
 44
0.125
 45
0.0
 46
0.0
 47
0.01
 48
0.01
140
0.15625
141
0.09
142
0.0
143
25.3999999999999986
144
1.0
145
0.0
146
1.0
147
0.09
 71
     1
 72
     0
 73
     1
 74
     1
 75
     0
 76
     0
 77
     0
 78
     4
170
     0
171
     2
172
     0
173
     0
174
     0
175
     0
176
     0
177
     0
178
     0
  0
ENDTAB
  0
ENDSEC
  0
SECTION
  2
BLOCKS
  0
BLOCK
  8
0
  2
$MODEL_SPACE
 70
     0
 10
0.0
 20
0.0
 30
0.0
  3
$MODEL_SPACE
  1

  0
ENDBLK
  5
1598
  8
0
  0
BLOCK
 67
     1
  8
0
  2
$PAPER_SPACE
 70
     0
 10
0.0
 20
0.0
 30
0.0
  3
$PAPER_SPACE
  1

  0
ENDBLK
  5
1594
 67
     1
  8
0
  0
BLOCK
  8
0
  2
_FILLED
 70
     0
 10
0.0
 20
0.0
 30
0.0
  3
_FILLED
  1

  0
SOLID
  5
3F0C
  8
0
  6
BYBLOCK
 62
     0
 10
0.0
 20
0.0
 30
0.0
 11
-1.0
 21
0.1666666667
 31
0.0
 12
-1.0
 22
-0.1666666667
 32
0.0
 13
-1.0
 23
-0.1666666667
 33
0.0
  0
ENDBLK
  5
3F0D
  8
0
  6
BYBLOCK
 62
     0
  0
ENDSEC
  0
SECTION
  2
ENTITIES
  0
ATTDEF
  5
659
  8
DEFPOINT
 10
544.8446861199441855
 20
-6.4531465094362881
 30
0.0
 40
0.001
  1
K-74054IN-4
  3

  2
MODELNUMBER
 70
     0
1001
ACDBATTR
1070
     0
1070
     1
  0
ATTDEF
  5
65A
  8
DEFPOINT
 10
544.8446861199441855
 20
-6.4548131761029532
 30
0.0
 40
0.001
  1
TAUT
  3

  2
TRADENAME
 70
     0
1001
ACDBATTR
1070
     0
1070
     1
  0
ATTDEF
  5
65B
  8
DEFPOINT
 10
544.8446861199441855
 20
-6.4564798427696157
 30
0.0
 40
0.001
  1
KITCHEN SINK FAUCET
  3

  2
PRODUCT
 70
     0
1001
ACDBATTR
1070
     0
1070
     1
  0
LINE
  5
522C
  8
0
 10
543.0229839880788631
 20
-5.1345047912115973
 30
0.0
 11
544.0584170589791029
 21
-5.1345047912115973
 31
0.0
  0
LINE
  5
522D
  8
0
 10
543.0131377980392244
 20
-5.1738748699115851
 30
0.0
 11
544.0682632490196511
 21
-5.1738748699115851
 31
0.0
  0
LINE
  5
522E
  8
0
 10
541.1387173547600469
 20
-4.5981413834116012
 30
0.0
 11
541.6546622060077425
 21
-4.5981413834116012
 31
0.0
  0
LINE
  5
522F
  8
0
 10
541.1385827832446012
 20
-7.0537828712727304
 30
0.0
 11
541.7659191743023257
 21
-7.0537828712727304
 31
0.0
  0
LINE
  5
5230
  8
0
 10
542.0323160906414159
 20
-7.0537828712727304
 30
0.0
 11
542.7887305362960433
 21
-7.0537828712727304
 31
0.0
  0
LINE
  5
5231
  8
0
 10
541.1077278947791456
 20
-7.0222961613115871
 30
0.0
 11
541.1077278947791456
 21
-4.6291308433923026
 31
0.0
  0
LINE
  5
5232
  8
0
 10
541.7426424354315486
 20
-5.8530191316136628
 30
0.0
 11
542.7887320194795393
 21
-5.8530191316136628
 31
0.0
  0
ARC
  5
5233
  8
0
 10
541.1392239576794054
 20
-4.6296374463116052
 30
0.0
 40
0.0315001368999983
 50
90.921502680372285
 51
179.0784973199239118
  0
ARC
  5
5234
  8
0
 10
541.6541833124852019
 20
-4.6296323477776431
 30
0.0
 40
0.0314946055017301
 50
1.53579685340266
 51
89.1287512671398048
  0
LINE
  5
5235
  8
0
 10
541.6856666043439645
 20
-4.6287882450447313
 30
0.0
 11
541.7178985831733371
 21
-5.8309746106423708
 31
0.0
  0
ARC
  5
5236
  8
0
 10
541.7431037333508357
 20
-5.827592230615906
 30
0.0
 40
0.0254310851148911
 50
187.6430893386090872
 51
268.9606470449210178
  0
LINE
  5
5237
  8
0
 10
542.8202280825794332
 20
-7.0223144085822318
 30
0.0
 11
542.8202280825794332
 21
-5.8839723027249562
 31
0.0
  0
LINE
  5
5238
  8
0
 10
542.8556611534791045
 20
-6.9809614841116021
 30
0.0
 11
542.8556611534791045
 21
-5.9258433739116043
 31
0.0
  0
LINE
  5
5239
  8
0
 10
542.8556611533795149
 20
-6.9809614841116021
 30
0.0
 11
544.6076296573791069
 21
-6.9809614841116021
 31
0.0
  0
LINE
  5
523A
  8
0
 10
544.8438501297791845
 20
-7.6501406315116043
 30
0.0
 11
544.8438501297791845
 21
-5.256664226511603
 31
0.0
  0
LINE
  5
523B
  8
0
 10
544.8438501297791845
 20
-7.6501406315116043
 30
0.0
 11
544.6651316577795114
 21
-7.6345047912115973
 31
0.0
  0
LINE
  5
523C
  8
0
 10
544.6076296573791069
 20
-7.5717523693115956
 30
0.0
 11
544.6076296573791069
 21
-5.33505248871161
 31
0.0
  0
ARC
  5
523D
  8
0
 10
544.6706217833792607
 20
-7.5717523693115956
 30
0.0
 40
0.0629921260000046
 50
180.0
 51
264.9999999349798259
  0
LINE
  5
523E
  8
0
 10
544.8438501297791845
 20
-5.256664226511603
 30
0.0
 11
544.6651316577795114
 21
-5.2723000668115807
 31
0.0
  0
ARC
  5
523F
  8
0
 10
544.6706217833792607
 20
-5.33505248871161
 30
0.0
 40
0.0629921260000046
 50
95.0000000650202168
 51
180.0
  0
LINE
  5
5240
  8
0
 10
542.8556611533795149
 20
-5.9258433739116043
 30
0.0
 11
542.8950313560793575
 21
-5.9258433739116043
 31
0.0
  0
LINE
  5
5241
  8
0
 10
544.1863698067789983
 20
-5.9258433739116043
 30
0.0
 11
544.6076296573791069
 21
-5.9258433739116043
 31
0.0
  0
ARC
  5
5242
  8
0
 10
542.788752408047344
 20
-7.0223072035153526
 30
0.0
 40
0.0314756753564775
 50
269.9601864256632098
 51
359.9868844775514276
  0
ARC
  5
5243
  8
0
 10
541.1393022599589813
 20
-7.0222166041653082
 30
0.0
 40
0.0315744654086192
 50
180.1443664517217087
 51
268.6943073502329753
  0
LINE
  5
5244
  8
0
 10
542.8556611534791045
 20
-6.9258433739116043
 30
0.0
 11
542.8202280825794332
 21
-6.9258433739116043
 31
0.0
  0
ARC
  5
5245
  8
0
 10
542.7887336814101218
 20
-5.8845182645633676
 30
0.0
 40
0.0314991329935052
 50
0.9931344962510452
 51
90.0030229922389964
  0
LINE
  5
5246
  8
0
 10
542.8202280825794332
 20
-5.9809614841116021
 30
0.0
 11
542.8556611534791045
 21
-5.9809614841116021
 31
0.0
  0
ARC
  5
5247
  8
0
 10
544.1863678415211325
 20
-5.80774383160876
 30
0.0
 40
0.1180995423191889
 50
179.9948124960689881
 51
270.0009534414277255
  0
LINE
  5
5248
  8
0
 10
544.0682682996862241
 20
-5.8077331389915372
 30
0.0
 11
544.0682632490196511
 21
-5.1738748699115851
 31
0.0
  0
LINE
  5
5249
  8
0
 10
543.9737713896793139
 20
-5.1738748699115851
 30
0.0
 11
543.9737713896793139
 21
-5.1345047912115973
 31
0.0
  0
ARC
  5
524A
  8
0
 10
544.0584147397084962
 20
-5.1246566722961262
 30
0.0
 40
0.0098481191885734
 50
270.013493382627189
 51
359.9634448400686892
  0
LINE
  5
524B
  8
0
 10
543.895031232179349
 20
-1.182837384911593
 30
0.0
 11
543.895031232179349
 21
-4.4770244762091087
 31
0.0
  0
ARC
  5
524C
  8
0
 10
542.8950332055404715
 20
-5.8077438316100958
 30
0.0
 40
0.1180995423159882
 50
269.999102737180408
 51
0.0051875045774838
  0
LINE
  5
524D
  8
0
 10
543.0131327473726515
 20
-5.8077331389915372
 30
0.0
 11
543.0131377980392244
 21
-5.1738748699115851
 31
0.0
  0
LINE
  5
524E
  8
0
 10
543.1076296573792206
 20
-5.1738748699115851
 30
0.0
 11
543.1076296573792206
 21
-5.1345047912115973
 31
0.0
  0
ARC
  5
524F
  8
0
 10
543.0229863073503793
 20
-5.1246566722961262
 30
0.0
 40
0.0098481191885734
 50
180.0365551599313108
 51
269.986506617372811
  0
LINE
  5
5250
  8
0
 10
544.1028557687618559
 20
-5.8912497331932761
 30
0.0
 11
543.5811711694759651
 21
-6.4534024290116028
 31
0.0
  0
LINE
  5
5251
  8
0
 10
543.5811711694759651
 20
-6.4534024290116028
 30
0.0
 11
542.9856662229090034
 21
-5.883461452135136
 31
0.0
  0
ARC
  5
5252
  8
0
 10
539.8482651875333431
 20
-1.1853661863738549
 30
0.0
 40
4.046766834762983
 50
0.0358038074249802
 51
154.9993886567644097
  0
LINE
  5
5253
  8
0
 10
536.1806671412282412
 20
0.5249105121978204
 30
0.0
 11
536.0110328705641223
 21
0.161138778540149
 31
0.0
  0
ARC
  5
5254
  8
0
 10
535.9997648470462082
 20
0.1665588254554535
 30
0.0
 40
0.012503809921769
 50
248.1421567690057088
 51
334.3119186286799049
  0
LINE
  5
5255
  8
0
 10
536.6659250729444466
 20
-0.1578569333879187
 30
0.0
 11
535.987982140557051
 21
0.1582775527251528
 31
0.0
  0
ARC
  5
5256
  8
0
 10
535.9545218000735076
 20
0.0873909278916045
 30
0.0
 40
0.078386911953353
 50
64.7314642872060659
 51
155.1138386478052098
  0
LINE
  5
5257
  8
0
 10
535.8834134514791003
 20
0.1203774512884053
 30
0.0
 11
535.7935689289793117
 21
-0.0722920033116026
 31
0.0
  0
ARC
  5
5258
  8
0
 10
535.7971371021458253
 20
-0.0739558948270229
 30
0.0
 40
0.0039370540665595
 50
154.9996697076068983
 51
244.9996945504892096
  0
LINE
  5
5259
  8
0
 10
535.7954732121775123
 20
-0.0775240687152206
 30
0.0
 11
536.6090344131107486
 21
-0.4568992893413082
 31
0.0
  0
LINE
  5
525A
  8
0
 10
535.8133236405792559
 20
-0.085847978711584
 30
0.0
 11
535.7946499154736557
 21
-0.1258933408241347
 31
0.0
  0
LINE
  5
525B
  8
0
 10
536.593912087179433
 20
-0.4986007237116184
 30
0.0
 11
535.7732433153792044
 21
-0.1159111370115937
 31
0.0
  0
LINE
  5
525C
  8
0
 10
535.7732433153792044
 20
-0.1159111370115937
 30
0.0
 11
535.5561239572302838
 21
-0.5815184678165936
 31
0.0
  0
ARC
  5
525D
  8
0
 10
535.9664710344544574
 20
-0.7728691793081311
 30
0.0
 40
0.4527690565562022
 50
154.9996872569454069
 51
175.0930451197060904
  0
LINE
  5
525E
  8
0
 10
535.5153614124997148
 20
-0.7341402811259315
 30
0.0
 11
536.2860778842417631
 21
-1.0935363446973689
 31
0.0
  0
ARC
  5
525F
  8
0
 10
539.848265251889984
 20
-1.1853662931869591
 30
0.0
 40
3.338105520924239
 50
0.0434065921676632
 51
154.9993534451747053
  0
LINE
  5
5260
  8
0
 10
536.8229308671310491
 20
0.2254137503944804
 30
0.0
 11
536.6533003882750563
 21
-0.1383597514373633
 31
0.0
  0
ARC
  5
5261
  8
0
 10
536.6646952748022841
 20
-0.1435077436276941
 30
0.0
 40
0.0125038099217697
 50
155.6874559111693941
 51
241.8572177708481092
  0
ARC
  5
5262
  8
0
 10
536.6331298829677507
 20
-0.2290537274167121
 30
0.0
 40
0.078386911953353
 50
334.8855358920122853
 51
65.2679102526229258
  0
LINE
  5
5263
  8
0
 10
536.7041062281573431
 20
-0.2623233289943556
 30
0.0
 11
536.6142617057130337
 21
-0.4549927836202557
 31
0.0
  0
ARC
  5
5264
  8
0
 10
536.6106935315260671
 20
-0.4533288942922554
 30
0.0
 40
0.0039370540665595
 50
244.9996799893303887
 51
334.9997048322138085
  0
LINE
  5
5265
  8
0
 10
536.5911792137361545
 20
-0.4485731545722303
 30
0.0
 11
536.572505487084868
 21
-0.4886185198990774
 31
0.0
  0
LINE
  5
5266
  8
0
 10
536.5939120872693593
 20
-0.4986007235184076
 30
0.0
 11
536.3767927293315552
 21
-0.9642080544217179
 31
0.0
  0
ARC
  5
5267
  8
0
 10
535.9664466737084467
 20
-0.7728579335504123
 30
0.0
 40
0.4527678810634082
 50
314.9062951423131267
 51
334.9997003581722765
  0
LINE
  5
5268
  8
0
 10
542.0323160906414159
 20
-7.0537828712727304
 30
0.0
 11
541.9805720607791955
 21
-7.0439536101115863
 31
0.0
  0
LINE
  5
5269
  8
0
 10
541.9805720607791955
 20
-7.0439536101115863
 30
0.0
 11
541.8173748860795058
 21
-7.0439536101115863
 31
0.0
  0
LINE
  5
526A
  8
0
 10
541.8173748860795058
 20
-7.0439536101115863
 30
0.0
 11
541.7659191743023257
 21
-7.0537828712727304
 31
0.0
  0
LINE
  5
526B
  8
0
 10
544.0682628568923747
 20
-5.1246629554735392
 30
0.0
 11
544.0682595786793172
 21
-4.7132449487090886
 31
0.0
  0
LINE
  5
526C
  8
0
 10
544.0682595786793172
 20
-4.7132449487090886
 30
0.0
 11
544.0131414683792173
 21
-4.7132449487090886
 31
0.0
  0
LINE
  5
526D
  8
0
 10
544.0131414683792173
 20
-4.7132449487090886
 30
0.0
 11
544.0131414683792173
 21
-4.4770244762091087
 31
0.0
  0
LINE
  5
526E
  8
0
 10
544.0131414683792173
 20
-4.4770244762091087
 30
0.0
 11
543.0682595786793172
 21
-4.4770244762091087
 31
0.0
  0
LINE
  5
526F
  8
0
 10
543.0131381901660461
 20
-5.1246629554735392
 30
0.0
 11
543.0131414683792173
 21
-4.7132449487090886
 31
0.0
  0
LINE
  5
5270
  8
0
 10
543.0131414683792173
 20
-4.7132449487090886
 30
0.0
 11
543.0682595786793172
 21
-4.7132449487090886
 31
0.0
  0
LINE
  5
5271
  8
0
 10
543.0682595786793172
 20
-4.7132449487090886
 30
0.0
 11
543.0682595786793172
 21
-4.4770244762091087
 31
0.0
  0
LINE
  5
5272
  8
0
 10
543.1863698148790718
 20
-1.1828373849090921
 30
0.0
 11
543.1863698148790718
 21
-4.4770244762091087
 31
0.0
  0
ARC
  5
5274
  8
0
 10
545.8763544080737802
 20
-305.7546261724465921
 30
0.0
 40
304.5786564994417063
 50
90.3734604465731053
 51
90.5060327261388835
  0
ENDSEC
  0
EOF
