  0
SECTION
  2
HEADER
  9
$ACADVER
  1
AC1009
  9
$INSBASE
 10
3607.8718646787820035
 20
154.7888116727633019
 30
0.0
  9
$EXTMIN
 10
3603.8954946000822019
 20
151.6809629322711999
 30
0.0
  9
$EXTMAX
 10
3607.8718646787820035
 20
157.1510163971632892
 30
0.0
  9
$LIMMIN
 10
0.0
 20
0.0
  9
$LIMMAX
 10
11.6929133858000007
 20
8.2677165353999982
  9
$ORTHOMODE
 70
     1
  9
$REGENMODE
 70
     1
  9
$FILLMODE
 70
     1
  9
$QTEXTMODE
 70
     0
  9
$MIRRTEXT
 70
     0
  9
$DRAGMODE
 70
     2
  9
$LTSCALE
 40
0.6431102362
  9
$OSMODE
 70
  3839
  9
$ATTMODE
 70
     1
  9
$TEXTSIZE
 40
0.2
  9
$TRACEWID
 40
0.05
  9
$TEXTSTYLE
  7
STANDARD
  9
$CLAYER
  8
0
  9
$CELTYPE
  6
BYLAYER
  9
$CECOLOR
 62
   256
  9
$DIMSCALE
 40
1.0
  9
$DIMASZ
 40
0.1875
  9
$DIMEXO
 40
0.0625
  9
$DIMDLI
 40
0.4443307087
  9
$DIMRND
 40
0.0
  9
$DIMDLE
 40
0.0
  9
$DIMEXE
 40
0.125
  9
$DIMTP
 40
0.01
  9
$DIMTM
 40
0.01
  9
$DIMTXT
 40
2.0
  9
$DIMCEN
 40
0.1052362205
  9
$DIMTSZ
 40
0.0
  9
$DIMTOL
 70
     1
  9
$DIMLIM
 70
     0
  9
$DIMTIH
 70
     1
  9
$DIMTOH
 70
     1
  9
$DIMSE1
 70
     0
  9
$DIMSE2
 70
     0
  9
$DIMTAD
 70
     0
  9
$DIMZIN
 70
     0
  9
$DIMBLK
  1

  9
$DIMASO
 70
     1
  9
$DIMSHO
 70
     1
  9
$DIMPOST
  1
\X
  9
$DIMAPOST
  1

  9
$DIMALT
 70
     1
  9
$DIMALTD
 70
     2
  9
$DIMALTF
 40
25.3999999999999986
  9
$DIMLFAC
 40
1.0
  9
$DIMTOFL
 70
     0
  9
$DIMTVP
 40
0.0
  9
$DIMTIX
 70
     0
  9
$DIMSOXD
 70
     0
  9
$DIMSAH
 70
     0
  9
$DIMBLK1
  1

  9
$DIMBLK2
  1

  9
$DIMSTYLE
  2
STANDARD
  9
$DIMCLRD
 70
     0
  9
$DIMCLRE
 70
     0
  9
$DIMCLRT
 70
     0
  9
$DIMTFAC
 40
1.0
  9
$DIMGAP
 40
0.09
  9
$LUNITS
 70
     2
  9
$LUPREC
 70
     4
  9
$SKETCHINC
 40
0.1
  9
$FILLETRAD
 40
0.0
  9
$AUNITS
 70
     0
  9
$AUPREC
 70
     0
  9
$MENU
  1
.
  9
$ELEVATION
 40
0.0
  9
$PELEVATION
 40
0.0
  9
$THICKNESS
 40
0.0
  9
$LIMCHECK
 70
     0
  9
$BLIPMODE
 70
     0
  9
$CHAMFERA
 40
0.0
  9
$CHAMFERB
 40
0.0
  9
$SKPOLY
 70
     0
  9
$TDCREATE
 40
2458060.468368056230247
  9
$TDUPDATE
 40
2459140.681759259197861
  9
$TDINDWG
 40
0.7343704861
  9
$TDUSRTIMER
 40
0.7343704861
  9
$USRTIMER
 70
     1
  9
$ANGBASE
 50
0.0
  9
$ANGDIR
 70
     0
  9
$PDMODE
 70
     0
  9
$PDSIZE
 40
0.3125
  9
$PLINEWID
 40
0.0
  9
$COORDS
 70
     1
  9
$SPLFRAME
 70
     0
  9
$SPLINETYPE
 70
     6
  9
$SPLINESEGS
 70
     8
  9
$ATTDIA
 70
     1
  9
$ATTREQ
 70
     1
  9
$HANDLING
 70
     1
  9
$HANDSEED
  5
10EED
  9
$SURFTAB1
 70
     6
  9
$SURFTAB2
 70
     6
  9
$SURFTYPE
 70
     6
  9
$SURFU
 70
     6
  9
$SURFV
 70
     6
  9
$UCSNAME
  2

  9
$UCSORG
 10
0.0
 20
0.0
 30
0.0
  9
$UCSXDIR
 10
1.0
 20
0.0
 30
0.0
  9
$UCSYDIR
 10
0.0
 20
1.0
 30
0.0
  9
$PUCSNAME
  2

  9
$PUCSORG
 10
0.0
 20
0.0
 30
0.0
  9
$PUCSXDIR
 10
1.0
 20
0.0
 30
0.0
  9
$PUCSYDIR
 10
0.0
 20
1.0
 30
0.0
  9
$USERI1
 70
     0
  9
$USERI2
 70
     0
  9
$USERI3
 70
     0
  9
$USERI4
 70
     0
  9
$USERI5
 70
     0
  9
$USERR1
 40
0.0
  9
$USERR2
 40
0.0
  9
$USERR3
 40
0.0
  9
$USERR4
 40
0.0
  9
$USERR5
 40
0.0
  9
$WORLDVIEW
 70
     1
  9
$SHADEDGE
 70
     3
  9
$SHADEDIF
 70
    70
  9
$TILEMODE
 70
     1
  9
$MAXACTVP
 70
    64
  9
$PLIMCHECK
 70
     0
  9
$PEXTMIN
 10
1.0000000000000000E+20
 20
1.0000000000000000E+20
 30
1.0000000000000000E+20
  9
$PEXTMAX
 10
-1.0000000000000000E+20
 20
-1.0000000000000000E+20
 30
-1.0000000000000000E+20
  9
$PLIMMIN
 10
0.0
 20
0.0
  9
$PLIMMAX
 10
12.0
 20
9.0
  9
$UNITMODE
 70
     0
  9
$VISRETAIN
 70
     1
  9
$PLINEGEN
 70
     0
  9
$PSLTSCALE
 70
     1
  0
ENDSEC
  0
SECTION
  2
TABLES
  0
TABLE
  2
VPORT
 70
     1
  0
VPORT
  2
*ACTIVE
 70
     0
 10
0.0
 20
0.0
 11
1.0
 21
1.0
 12
0.0
 22
0.0
 13
0.0
 23
0.0
 14
1.0
 24
1.0
 15
0.0
 25
0.0
 16
0.0
 26
0.0
 36
28.0751838854843889
 17
3605.8836669921879547
 27
154.4159927368164063
 37
0.0
 40
6.7625824834349073
 41
3.314341846758349
 42
50.0
 43
0.0
 44
0.0
 50
0.0
 51
0.0
 71
     0
 72
   100
 73
     1
 74
     1
 75
     0
 76
     0
 77
     0
 78
     0
  0
ENDTAB
  0
TABLE
  2
LTYPE
 70
     2
  0
LTYPE
  2
CONTINUOUS
 70
     0
  3
Solid line
 72
    65
 73
     0
 40
0.0
  0
LTYPE
  2
PHANTOM2
 70
     0
  3
___ _ _ ___ _ _ ___ _ _ ___ _ _
 72
    65
 73
     6
 40
1.25
 49
0.625
 49
-0.125
 49
0.125
 49
-0.125
 49
0.125
 49
-0.125
  0
ENDTAB
  0
TABLE
  2
LAYER
 70
     2
  0
LAYER
  2
0
 70
     0
 62
   255
  6
CONTINUOUS
  0
LAYER
  2
DEFPOINTS
 70
     0
 62
     7
  6
CONTINUOUS
  0
ENDTAB
  0
TABLE
  2
STYLE
 70
     1
  0
STYLE
  2
STANDARD
 70
     0
 40
0.0
 41
0.8
 50
0.0
 71
     0
 42
0.2
  3
txt
  4

  0
ENDTAB
  0
TABLE
  2
VIEW
 70
     0
  0
ENDTAB
  0
TABLE
  2
UCS
 70
     0
  0
ENDTAB
  0
TABLE
  2
APPID
 70
    10
  0
APPID
  2
ACAD
 70
     0
  0
APPID
  2
ACAD_MLEADERVER
 70
     0
  0
APPID
  2
ACAD_EXEMPT_FROM_CAD_STANDARDS
 70
     0
  0
APPID
  2
ACAD_NAV_VCDISPLAY
 70
     0
  0
APPID
  2
ACAECLAYERSTANDARD
 70
     0
  0
APPID
  2
ACCMTRANSPARENCY
 70
     0
  0
APPID
  2
ACAD_DSTYLE_DIMJAG
 70
     0
  0
APPID
  2
ACAD_DSTYLE_DIMTALN
 70
     0
  0
APPID
  2
ACDBATTR
 70
     0
  0
APPID
  2
ACAD_PSEXT
 70
     0
  0
ENDTAB
  0
TABLE
  2
DIMSTYLE
 70
     1
  0
DIMSTYLE
  2
STANDARD
 70
     0
  3

  4

  5

  6

  7

 40
1.0
 41
0.1875
 42
0.0625
 43
0.38
 44
0.125
 45
0.0
 46
0.0
 47
0.01
 48
0.01
140
0.15625
141
0.09
142
0.0
143
25.3999999999999986
144
1.0
145
0.0
146
1.0
147
0.09
 71
     1
 72
     0
 73
     1
 74
     1
 75
     0
 76
     0
 77
     0
 78
     4
170
     0
171
     2
172
     0
173
     0
174
     0
175
     0
176
     0
177
     0
178
     0
  0
ENDTAB
  0
ENDSEC
  0
SECTION
  2
BLOCKS
  0
BLOCK
  8
0
  2
$MODEL_SPACE
 70
     0
 10
0.0
 20
0.0
 30
0.0
  3
$MODEL_SPACE
  1

  0
ENDBLK
  5
21
  8
0
  0
BLOCK
 67
     1
  8
0
  2
$PAPER_SPACE
 70
     0
 10
0.0
 20
0.0
 30
0.0
  3
$PAPER_SPACE
  1

  0
ENDBLK
  5
1D
 67
     1
  8
0
  0
BLOCK
  8
0
  2
_FILLED
 70
     0
 10
0.0
 20
0.0
 30
0.0
  3
_FILLED
  1

  0
SOLID
  5
B630
  8
0
  6
BYBLOCK
 62
     0
 10
0.0
 20
0.0
 30
0.0
 11
-1.0
 21
0.1666666667
 31
0.0
 12
-1.0
 22
-0.1666666667
 32
0.0
 13
-1.0
 23
-0.1666666667
 33
0.0
  0
ENDBLK
  5
B631
  8
0
  6
BYBLOCK
 62
     0
  0
ENDSEC
  0
SECTION
  2
ENTITIES
  0
ATTDEF
  5
AA11
  8
DEFPOINTS
 10
3607.8606751049078412
 20
154.7875423748477033
 30
0.0
 40
0.001
  1
K-74096T-4CD
  3

  2
MODELNUMBER
 70
     0
1001
ACDBATTR
1070
     0
1070
     1
  0
ATTDEF
  5
AA12
  8
DEFPOINTS
 10
3607.8606751049078412
 20
154.785875708181095
 30
0.0
 40
0.001
  1
TAUT
  3

  2
TRADENAME
 70
     0
1001
ACDBATTR
1070
     0
1070
     1
  0
ATTDEF
  5
AA13
  8
DEFPOINTS
 10
3607.8606751049078412
 20
154.7842090415144014
 30
0.0
 40
0.001
  1
VALVE TRIM
  3

  2
PRODUCT
 70
     0
1001
ACDBATTR
1070
     0
1070
     1
  0
LINE
  5
10B76
  8
0
 10
3607.6356442063820396
 20
152.4266069484133084
 30
0.0
 11
3607.8718646787820035
 21
152.4266069484133084
 31
0.0
  0
LINE
  5
10B77
  8
0
 10
3607.8718646787820035
 20
152.4266069484133084
 30
0.0
 11
3607.8718646787820035
 21
157.1510163971632892
 31
0.0
  0
LINE
  5
10B78
  8
0
 10
3607.5962741276821362
 20
152.465977027113297
 30
0.0
 11
3607.5962741276821362
 21
157.1116463184131931
 31
0.0
  0
LINE
  5
10B79
  8
0
 10
3607.5844631039822161
 20
153.8636148224132967
 30
0.0
 11
3607.5844631039822161
 21
155.7140085231131934
 31
0.0
  0
LINE
  5
10B7A
  8
0
 10
3607.545093025281858
 20
153.824244743613292
 30
0.0
 11
3606.9920098155980668
 21
153.824244743613292
 31
0.0
  0
LINE
  5
10B7B
  8
0
 10
3606.0116417304689094
 20
153.824244743613292
 30
0.0
 11
3605.0647780646818319
 21
153.824244743613292
 31
0.0
  0
LINE
  5
10B7C
  8
0
 10
3604.958119394681944
 20
153.8222591028633133
 30
0.0
 11
3604.51386165058193
 21
153.8222591028633133
 31
0.0
  0
LINE
  5
10B7D
  8
0
 10
3604.260000907182075
 20
153.8222591028633133
 30
0.0
 11
3604.228537987853997
 21
153.8222525770028994
 31
0.0
  0
LINE
  5
10B7E
  8
0
 10
3603.8954946000822019
 20
151.7113448014713128
 30
0.0
 11
3603.8954946000822019
 21
155.7230066214052044
 31
0.0
  0
LINE
  5
10B7F
  8
0
 10
3605.0529670409819119
 20
153.8353684376054105
 30
0.0
 11
3605.0529670409819119
 21
155.7422549079211933
 31
0.0
  0
LINE
  5
10B80
  8
0
 10
3604.958119394681944
 20
153.8222591028633133
 30
0.0
 11
3604.958119394681944
 21
154.7688904128632998
 31
0.0
  0
ARC
  5
10B81
  8
0
 10
3607.6356442063820396
 20
152.465977027113297
 30
0.0
 40
0.0393700786999993
 50
180.0000000000015916
 51
270.0
  0
ARC
  5
10B82
  8
0
 10
3607.545093025281858
 20
153.8636148224132967
 30
0.0
 40
0.0393700787000011
 50
270.0
 51
0.0
  0
ARC
  5
10B83
  8
0
 10
3607.60414814338219
 20
154.3508195468133124
 30
0.0
 40
0.019685039400007
 50
113.5781719839967963
 51
179.9999999999836859
  0
ARC
  5
10B84
  8
0
 10
3605.064793766161074
 20
153.8360936740361922
 30
0.0
 40
0.0118489407262461
 50
183.509087966842003
 51
269.924075177015709
  0
LINE
  5
10B85
  8
0
 10
3605.0529670409819119
 20
153.9817250586131934
 30
0.0
 11
3604.9742268835821051
 21
153.9817250586131934
 31
0.0
  0
ARC
  5
10B86
  8
0
 10
3604.9742268835821051
 20
154.7415675783132087
 30
0.0
 40
0.7598425196999932
 50
268.7853269023490839
 51
270.0
  0
LINE
  5
10B88
  8
0
 10
3607.545093025281858
 20
155.7533786019133117
 30
0.0
 11
3605.0647780646818319
 21
155.7533786019133117
 31
0.0
  0
LINE
  5
10B89
  8
0
 10
3604.4990450389100261
 20
155.7533786019133117
 30
0.0
 11
3603.9269906623821953
 21
155.7533786019133117
 31
0.0
  0
ARC
  5
10B8B
  8
0
 10
3607.545093025281858
 20
155.7140085231131934
 30
0.0
 40
0.0393700787000011
 50
0.0
 51
90.0
  0
ARC
  5
10B8C
  8
0
 10
3607.60414814338219
 20
155.2268037987132914
 30
0.0
 40
0.019685039400007
 50
180.0000000000146088
 51
246.4218280160031043
  0
ARC
  5
10B8D
  8
0
 10
3603.9270562867659464
 20
155.7217936850308888
 30
0.0
 40
0.0315849850566261
 50
90.1190440005284756
 51
177.7991685697394928
  0
ARC
  5
10B8E
  8
0
 10
3605.064793766161074
 20
155.7415296714902979
 30
0.0
 40
0.0118489407262461
 50
90.0759248229843337
 51
176.4909120331579118
  0
LINE
  5
10B8F
  8
0
 10
3605.0529670409819119
 20
155.5958982869132967
 30
0.0
 11
3604.9742268835821051
 21
155.5958982869132967
 31
0.0
  0
ARC
  5
10B90
  8
0
 10
3604.9742268835821051
 20
154.8360557672133098
 30
0.0
 40
0.7598425196999932
 50
90.0
 51
118.2429035489157059
  0
LINE
  5
10B91
  8
0
 10
3604.4990450389100261
 20
155.7533786019133117
 30
0.0
 11
3604.958119394681944
 21
154.7688904128632998
 31
0.0
  0
LINE
  5
10B92
  8
0
 10
3604.0345445249818113
 20
151.6809728209632908
 30
0.0
 11
3603.9269906623821953
 21
151.6809728209632908
 31
0.0
  0
ARC
  5
10B93
  8
0
 10
3603.9270562867659464
 20
151.7125577378457137
 30
0.0
 40
0.0315849850566261
 50
182.2008314302603935
 51
269.8809559994714959
  0
LINE
  5
10B94
  8
0
 10
3604.0668835023820975
 20
151.7105100491631902
 30
0.0
 11
3604.1436745938822241
 21
154.4235177855632912
 31
0.0
  0
ARC
  5
10B95
  8
0
 10
3604.0353352114880181
 20
151.7125789911538902
 30
0.0
 40
0.0316160588826503
 50
268.566939551323685
 51
356.2479063579812077
  0
ARC
  5
10B96
  8
0
 10
3606.8835442343138311
 20
154.4350068742645021
 30
0.0
 40
2.7398937289094012
 50
180.2402568447201077
 51
193.0029857625571879
  0
ARC
  5
10B97
  8
0
 10
3604.2288045597370001
 20
153.7906186060978939
 30
0.0
 40
0.0316350940537186
 50
90.4828063597272632
 51
176.3071485157431937
  0
LINE
  5
10B98
  8
0
 10
3604.1972351508338761
 20
153.792656152993203
 30
0.0
 11
3604.0668835023820975
 21
151.7105100491633038
 31
0.0
  0
ARC
  5
10B99
  8
0
 10
3604.3869312788820025
 20
152.8900591446565898
 30
0.0
 40
0.9408018289418887
 50
82.2461665802766646
 51
97.7538334197233354
  0
LINE
  5
10B9A
  8
0
 10
3606.8561166473818957
 20
153.2140085231631872
 30
0.0
 11
3606.1475348986850804
 21
153.2140085231631872
 31
0.0
  0
LINE
  5
10B9B
  8
0
 10
3606.915171765481773
 20
153.7000142206632916
 30
0.0
 11
3606.915171765481773
 21
153.6756835120631877
 31
0.0
  0
LINE
  5
10B9C
  8
0
 10
3606.9153259167328542
 20
153.7494015819939079
 30
0.0
 11
3606.8805663101820755
 21
153.7292969804632889
 31
0.0
  0
ARC
  5
10B9D
  8
0
 10
3606.882182498147813
 20
153.7265026919156128
 30
0.0
 40
0.0032280198310083
 50
120.0446500055865044
 51
239.7070865499240142
  0
LINE
  5
10B9E
  8
0
 10
3606.8805542176987728
 20
153.7237154325432869
 30
0.0
 11
3606.9116086419821841
 21
153.7057536464633074
 31
0.0
  0
ARC
  5
10B9F
  8
0
 10
3606.9076409425570091
 20
153.6993147041114867
 30
0.0
 40
0.0075632411926724
 50
5.3068132288103129
 51
58.3584751346499502
  0
ARC
  5
10BA0
  8
0
 10
3606.907210807175943
 20
153.6767698515629093
 30
0.0
 40
0.0080347365019415
 50
302.9912151441500896
 51
352.2295045538426734
  0
LINE
  5
10BA1
  8
0
 10
3606.9115858050818133
 20
153.670030683663299
 30
0.0
 11
3606.8803678339818362
 21
153.6519658206632926
 31
0.0
  0
ARC
  5
10BA2
  8
0
 10
3606.8823541169981581
 20
153.6492407306429868
 30
0.0
 40
0.0033721559629703
 50
126.0878255512642028
 51
240.3946840558755014
  0
LINE
  5
10BA3
  8
0
 10
3606.8806881959549173
 20
153.6463088126843957
 30
0.0
 11
3606.9115772692821338
 21
153.628437463763305
 31
0.0
  0
LINE
  5
10BA4
  8
0
 10
3606.0884001118820379
 20
153.6614113993950923
 30
0.0
 11
3606.0884001118820379
 21
153.6370806907949884
 31
0.0
  0
LINE
  5
10BA5
  8
0
 10
3606.091465318401788
 20
153.7089367170609933
 30
0.0
 11
3606.1230055671821901
 21
153.6906941591950897
 31
0.0
  0
ARC
  5
10BA6
  8
0
 10
3606.1213893792169074
 20
153.6878998706474135
 30
0.0
 40
0.0032280198310083
 50
300.2929134500760142
 51
59.95534999441346
  0
LINE
  5
10BA7
  8
0
 10
3606.1230176596650381
 20
153.6851126112750876
 30
0.0
 11
3606.0919632353820816
 21
153.6671508251951082
 31
0.0
  0
ARC
  5
10BA8
  8
0
 10
3606.0959309348068018
 20
153.6607118828432874
 30
0.0
 40
0.0075632411926724
 50
121.641524865349993
 51
174.6931867711896871
  0
ARC
  5
10BA9
  8
0
 10
3606.0963610701878679
 20
153.63816703029471
 30
0.0
 40
0.0080347365019415
 50
187.7704954461572129
 51
237.0087848558497967
  0
LINE
  5
10BAA
  8
0
 10
3606.0919860722819976
 20
153.6314278623949861
 30
0.0
 11
3606.1232040433819748
 21
153.6133629993950933
 31
0.0
  0
ARC
  5
10BAB
  8
0
 10
3606.1212177603661075
 20
153.6106379093747876
 30
0.0
 40
0.0033721559629703
 50
299.6053159441245271
 51
53.912174448735783
  0
LINE
  5
10BAC
  8
0
 10
3606.1228836814098031
 20
153.6077059914161964
 30
0.0
 11
3606.0919946080821319
 21
153.5898346424949921
 31
0.0
  0
LINE
  5
10BAD
  8
0
 10
3606.0919632353820816
 20
153.6671508251951082
 30
0.0
 11
3606.9116086419821841
 21
153.7057536464633074
 31
0.0
  0
LINE
  5
10BAE
  8
0
 10
3606.1245845219318653
 20
153.6104472463279933
 30
0.0
 11
3606.8789873554319456
 21
153.6490500675961925
 31
0.0
  0
LINE
  5
10BAF
  8
0
 10
3606.0919860722819976
 20
153.6314278623949861
 30
0.0
 11
3606.9115858050818133
 21
153.670030683663299
 31
0.0
  0
LINE
  5
10BB0
  8
0
 10
3606.9151403927821775
 20
153.6226980379632892
 30
0.0
 11
3606.9151403927821775
 21
153.5983673293632137
 31
0.0
  0
ARC
  5
10BB1
  8
0
 10
3606.9076095698560493
 20
153.6219985214115127
 30
0.0
 40
0.0075632411926724
 50
5.3068132288103129
 51
58.3584751346499502
  0
ARC
  5
10BB2
  8
0
 10
3606.9071794344758928
 20
153.5994536688629069
 30
0.0
 40
0.0080347365019415
 50
302.9912151441500896
 51
352.2295045538426734
  0
LINE
  5
10BB3
  8
0
 10
3606.9115544323822178
 20
153.5927145009632113
 30
0.0
 11
3606.8803364612817859
 21
153.5746496379632049
 31
0.0
  0
ARC
  5
10BB4
  8
0
 10
3606.8823227442981079
 20
153.5719245479428992
 30
0.0
 40
0.0033721559629703
 50
126.0878255512642028
 51
240.3946840558755014
  0
LINE
  5
10BB5
  8
0
 10
3606.880656823254867
 20
153.5689926299843933
 30
0.0
 11
3606.9115458965820835
 21
153.5511212810631889
 31
0.0
  0
LINE
  5
10BB6
  8
0
 10
3606.0883687391819876
 20
153.5840952166950046
 30
0.0
 11
3606.0883687391819876
 21
153.559764508094986
 31
0.0
  0
ARC
  5
10BB7
  8
0
 10
3606.0958995621072063
 20
153.5833957001433134
 30
0.0
 40
0.0075632411926724
 50
121.641524865349993
 51
174.6931867711896871
  0
ARC
  5
10BB8
  8
0
 10
3606.0963296974878176
 20
153.5608508475947076
 30
0.0
 40
0.0080347365019415
 50
187.7704954461572129
 51
237.0087848558497967
  0
LINE
  5
10BB9
  8
0
 10
3606.0919546995819474
 20
153.5541116796950973
 30
0.0
 11
3606.1231726706819245
 21
153.5360468166950056
 31
0.0
  0
ARC
  5
10BBA
  8
0
 10
3606.1211863876660573
 20
153.5333217266746999
 30
0.0
 40
0.0033721559629703
 50
299.6053159441245271
 51
53.912174448735783
  0
LINE
  5
10BBB
  8
0
 10
3606.1228523087102076
 20
153.530389808716194
 30
0.0
 11
3606.0919632353820816
 21
153.5125184597949897
 31
0.0
  0
LINE
  5
10BBC
  8
0
 10
3606.0919318626820314
 20
153.5898346424949921
 30
0.0
 11
3606.9115772692821338
 21
153.628437463763305
 31
0.0
  0
LINE
  5
10BBD
  8
0
 10
3606.124553149231815
 20
153.5331310636279909
 30
0.0
 11
3606.8789559827328048
 21
153.5717338848961901
 31
0.0
  0
LINE
  5
10BBE
  8
0
 10
3606.0919546995819474
 20
153.5541116796950973
 30
0.0
 11
3606.9115544323822178
 21
153.5927145009632113
 31
0.0
  0
LINE
  5
10BBF
  8
0
 10
3606.9151090200821272
 20
153.5453818552632015
 30
0.0
 11
3606.9151090200821272
 21
153.5210511466632113
 31
0.0
  0
ARC
  5
10BC0
  8
0
 10
3606.9075781971559991
 20
153.5446823387115103
 30
0.0
 40
0.0075632411926724
 50
5.3068132288103129
 51
58.3584751346499502
  0
ARC
  5
10BC1
  8
0
 10
3606.9071480617758425
 20
153.5221374861629045
 30
0.0
 40
0.0080347365019415
 50
302.9912151441500896
 51
352.2295045538426734
  0
LINE
  5
10BC2
  8
0
 10
3606.9115230596808033
 20
153.5153983182632089
 30
0.0
 11
3606.8803050885821904
 21
153.4973334552632025
 31
0.0
  0
ARC
  5
10BC3
  8
0
 10
3606.8822913715980576
 20
153.4946083652428968
 30
0.0
 40
0.0033721559629703
 50
126.0878255512642028
 51
240.3946840558755014
  0
LINE
  5
10BC4
  8
0
 10
3606.8806254505548168
 20
153.4916764472843909
 30
0.0
 11
3606.9115145238820332
 21
153.4738050983633002
 31
0.0
  0
LINE
  5
10BC5
  8
0
 10
3606.0883373664819374
 20
153.5067790339950022
 30
0.0
 11
3606.0883373664819374
 21
153.4824483253950973
 31
0.0
  0
ARC
  5
10BC6
  8
0
 10
3606.095868189407156
 20
153.506079517443311
 30
0.0
 40
0.0075632411926724
 50
121.641524865349993
 51
174.6931867711896871
  0
ARC
  5
10BC7
  8
0
 10
3606.0962983247882221
 20
153.4835346648947052
 30
0.0
 40
0.0080347365019415
 50
187.7704954461572129
 51
237.0087848558497967
  0
LINE
  5
10BC8
  8
0
 10
3606.0919233268818971
 20
153.4767954969950097
 30
0.0
 11
3606.1231412979818742
 21
153.4587306339950032
 31
0.0
  0
ARC
  5
10BC9
  8
0
 10
3606.121155014966007
 20
153.4560055439746975
 30
0.0
 40
0.0033721559629703
 50
299.6053159441245271
 51
53.912174448735783
  0
LINE
  5
10BCA
  8
0
 10
3606.1228209360101573
 20
153.4530736260161916
 30
0.0
 11
3606.0919318626820314
 21
153.435202277095101
 31
0.0
  0
LINE
  5
10BCB
  8
0
 10
3606.0919004899819811
 20
153.5125184597949897
 30
0.0
 11
3606.9115458965820835
 21
153.5511212810631889
 31
0.0
  0
LINE
  5
10BCC
  8
0
 10
3606.1245217765322195
 20
153.4558148809279885
 30
0.0
 11
3606.8789246100332093
 21
153.4944177021961877
 31
0.0
  0
LINE
  5
10BCD
  8
0
 10
3606.0919233268818971
 20
153.4767954969950097
 30
0.0
 11
3606.9115230596808033
 21
153.5153983182632089
 31
0.0
  0
LINE
  5
10BCE
  8
0
 10
3606.915077647382077
 20
153.4680656725631991
 30
0.0
 11
3606.915077647382077
 21
153.4437349639632089
 31
0.0
  0
ARC
  5
10BCF
  8
0
 10
3606.9075468244559488
 20
153.4673661560115079
 30
0.0
 40
0.0075632411926724
 50
5.3068132288103129
 51
58.3584751346499502
  0
ARC
  5
10BD0
  8
0
 10
3606.9071166890771565
 20
153.4448213034629021
 30
0.0
 40
0.0080347365019415
 50
302.9912151441500896
 51
352.2295045538426734
  0
LINE
  5
10BD1
  8
0
 10
3606.9114916869821172
 20
153.4380821355632065
 30
0.0
 11
3606.8802737158821401
 21
153.4200172725632001
 31
0.0
  0
ARC
  5
10BD2
  8
0
 10
3606.8822599988980073
 20
153.4172921825428944
 30
0.0
 40
0.0033721559629703
 50
126.0878255512642028
 51
240.3946840558755014
  0
LINE
  5
10BD3
  8
0
 10
3606.8805940778552213
 20
153.4143602645843885
 30
0.0
 11
3606.911483151181983
 21
153.3964889156632125
 31
0.0
  0
LINE
  5
10BD4
  8
0
 10
3606.0883059937818871
 20
153.4294628512949998
 30
0.0
 11
3606.0883059937818871
 21
153.4051321426950096
 31
0.0
  0
ARC
  5
10BD5
  8
0
 10
3606.0958368167071058
 20
153.4287633347433086
 30
0.0
 40
0.0075632411926724
 50
121.641524865349993
 51
174.6931867711896871
  0
ARC
  5
10BD6
  8
0
 10
3606.0962669520881718
 20
153.4062184821947028
 30
0.0
 40
0.0080347365019415
 50
187.7704954461572129
 51
237.0087848558497967
  0
LINE
  5
10BD7
  8
0
 10
3606.0918919541818468
 20
153.3994793142950073
 30
0.0
 11
3606.123109925281824
 21
153.3814144512950008
 31
0.0
  0
ARC
  5
10BD8
  8
0
 10
3606.1211236422659567
 20
153.3786893612746951
 30
0.0
 40
0.0033721559629703
 50
299.6053159441245271
 51
53.912174448735783
  0
LINE
  5
10BD9
  8
0
 10
3606.122789563310107
 20
153.3757574433161892
 30
0.0
 11
3606.0919004899819811
 21
153.3578860943950133
 31
0.0
  0
LINE
  5
10BDA
  8
0
 10
3606.0918691172819308
 20
153.435202277095101
 30
0.0
 11
3606.9115145238820332
 21
153.4738050983633002
 31
0.0
  0
LINE
  5
10BDB
  8
0
 10
3606.1244904038321692
 20
153.3784986982279861
 30
0.0
 11
3606.878893237333159
 21
153.4171015194962138
 31
0.0
  0
LINE
  5
10BDC
  8
0
 10
3606.0918919541818468
 20
153.3994793142950073
 30
0.0
 11
3606.9114916869821172
 21
153.4380821355632065
 31
0.0
  0
LINE
  5
10BDD
  8
0
 10
3606.9150462746820267
 20
153.3907494898631967
 30
0.0
 11
3606.9150462746820267
 21
153.3664187812632065
 31
0.0
  0
ARC
  5
10BDE
  8
0
 10
3606.907515451756808
 20
153.3900499733115055
 30
0.0
 40
0.0075632411926724
 50
5.3068132288103129
 51
58.3584751346499502
  0
ARC
  5
10BDF
  8
0
 10
3606.9070853163771062
 20
153.3675051207628997
 30
0.0
 40
0.0080347365019415
 50
302.9912151441500896
 51
352.2295045538426734
  0
LINE
  5
10BE0
  8
0
 10
3606.911460314282067
 20
153.3607659528632041
 30
0.0
 11
3606.8802423431820898
 21
153.3427010898631977
 31
0.0
  0
ARC
  5
10BE1
  8
0
 10
3606.8822286261988666
 20
153.339975999842892
 30
0.0
 40
0.0033721559629703
 50
126.0878255512642028
 51
240.3946840558755014
  0
LINE
  5
10BE2
  8
0
 10
3606.880562705155171
 20
153.3370440818843861
 30
0.0
 11
3606.9114517784819327
 21
153.3191727329632101
 31
0.0
  0
LINE
  5
10BE3
  8
0
 10
3606.0882746210818368
 20
153.3521466685949974
 30
0.0
 11
3606.0882746210818368
 21
153.3278159599950072
 31
0.0
  0
ARC
  5
10BE4
  8
0
 10
3606.0958054440070555
 20
153.3514471520433062
 30
0.0
 40
0.0075632411926724
 50
121.641524865349993
 51
174.6931867711896871
  0
ARC
  5
10BE5
  8
0
 10
3606.0962355793881216
 20
153.3289022994947004
 30
0.0
 40
0.0080347365019415
 50
187.7704954461572129
 51
237.0087848558497967
  0
LINE
  5
10BE6
  8
0
 10
3606.0918605814817965
 20
153.3221631315950049
 30
0.0
 11
3606.1230785525808642
 21
153.3040982685949984
 31
0.0
  0
ARC
  5
10BE7
  8
0
 10
3606.1210922695659065
 20
153.3013731785746927
 30
0.0
 40
0.0033721559629703
 50
299.6053159441245271
 51
53.912174448735783
  0
LINE
  5
10BE8
  8
0
 10
3606.1227581906100568
 20
153.2984412606161868
 30
0.0
 11
3606.0918691172819308
 21
153.2805699116950109
 31
0.0
  0
LINE
  5
10BE9
  8
0
 10
3606.0918377445818805
 20
153.3578860943950133
 30
0.0
 11
3606.911483151181983
 21
153.3964889156632125
 31
0.0
  0
LINE
  5
10BEA
  8
0
 10
3606.124459031132119
 20
153.3011825155280121
 30
0.0
 11
3606.8788618646331088
 21
153.3397853367962114
 31
0.0
  0
LINE
  5
10BEB
  8
0
 10
3606.0918605814817965
 20
153.3221631315950049
 30
0.0
 11
3606.911460314282067
 21
153.3607659528632041
 31
0.0
  0
LINE
  5
10BEC
  8
0
 10
3606.9150149019819764
 20
153.3134333071631943
 30
0.0
 11
3606.9150149019819764
 21
153.2891025985632041
 31
0.0
  0
ARC
  5
10BED
  8
0
 10
3606.9074840790572125
 20
153.3127337906115031
 30
0.0
 40
0.0075632411926724
 50
5.3068132288103129
 51
58.3584751346499502
  0
ARC
  5
10BEE
  8
0
 10
3606.9070539436770559
 20
153.290188938062812
 30
0.0
 40
0.0080347365019415
 50
302.9912151441500896
 51
352.2295045538426734
  0
LINE
  5
10BEF
  8
0
 10
3606.9114289415820167
 20
153.2834497701632017
 30
0.0
 11
3606.8802109704820396
 21
153.2653849071631953
 31
0.0
  0
ARC
  5
10BF0
  8
0
 10
3606.8821972534979068
 20
153.2626598171428896
 30
0.0
 40
0.0033721559629703
 50
126.0878255512642028
 51
240.3946840558755014
  0
LINE
  5
10BF1
  8
0
 10
3606.8805313324551207
 20
153.2597278991842984
 30
0.0
 11
3606.894027568348065
 21
153.2519194441292996
 31
0.0
  0
LINE
  5
10BF2
  8
0
 10
3606.0882432483817865
 20
153.2730636412632919
 30
0.0
 11
3606.1475348986850804
 21
153.2140085231631872
 31
0.0
  0
ARC
  5
10BF3
  8
0
 10
3606.0995661292918157
 20
153.2722876432924863
 30
0.0
 40
0.0113494407330514
 50
133.1344566584052984
 51
176.0794434843795102
  0
LINE
  5
10BF4
  8
0
 10
3606.0918063718818303
 20
153.2805699116950109
 30
0.0
 11
3606.9114517784819327
 21
153.3191727329632101
 31
0.0
  0
LINE
  5
10BF5
  8
0
 10
3606.2692147941970688
 20
153.2389680084233134
 30
0.0
 11
3606.8788304919330585
 21
153.262469154096209
 31
0.0
  0
LINE
  5
10BF6
  8
0
 10
3606.2692147941970688
 20
153.2389680084233134
 30
0.0
 11
3606.9114289415820167
 21
153.2834497701632017
 31
0.0
  0
LINE
  5
10BF7
  8
0
 10
3606.894027568348065
 20
153.2519194441292996
 30
0.0
 11
3606.8561166473818957
 21
153.2140085231631872
 31
0.0
  0
ARC
  5
10BF8
  8
0
 10
3606.0951864329608725
 20
153.7146206172403993
 30
0.0
 40
0.006793630459112
 50
182.6580667586677862
 51
236.7881829204291932
  0
LINE
  5
10BF9
  8
0
 10
3606.0884001118820379
 20
153.714305560063309
 30
0.0
 11
3606.0884267960827856
 21
153.7455135923632952
 31
0.0
  0
ARC
  5
10BFA
  8
0
 10
3606.0095614870751888
 20
153.7454068025166123
 30
0.0
 40
0.0788653813085852
 50
0.0775829556415069
 51
88.4885257598545252
  0
ARC
  5
10BFB
  8
0
 10
3606.9940900589931516
 20
153.7454068025166123
 30
0.0
 40
0.0788653813085852
 50
91.5114742401455032
 51
177.0965461690117877
  0
ARC
  5
10BFC
  8
0
 10
3606.5018257730339428
 20
153.0655704578695975
 30
0.0
 40
0.9032536008413485
 50
57.1332532065705223
 51
122.866746793429499
  0
LINE
  5
10C93
  8
0
 10
3607.6356442063820396
 20
157.1510163971632892
 30
0.0
 11
3607.871864678781094
 21
157.1510163971632892
 31
0.0
  0
ARC
  5
10C94
  8
0
 10
3607.6356442064670773
 20
157.1116463183778933
 30
0.0
 40
0.0393700787853604
 50
90.0000001242307235
 51
179.9999999485411024
  0
ENDSEC
  0
EOF
