  0
SECTION
  2
HEADER
  9
$ACADVER
  1
AC1009
  9
$INSBASE
 10
413.8703810600940187
 20
48.7710837057346325
 30
0.0
  9
$EXTMIN
 10
406.1837817515005895
 20
48.7665641326031007
 30
-0.0000000349181948
  9
$EXTMAX
 10
415.2441607296744905
 20
61.3424554044753378
 30
0.0000000814935746
  9
$LIMMIN
 10
0.0
 20
0.0
  9
$LIMMAX
 10
11.6929133858000007
 20
8.2677165353999982
  9
$ORTHOMODE
 70
     0
  9
$REGENMODE
 70
     1
  9
$FILLMODE
 70
     1
  9
$QTEXTMODE
 70
     0
  9
$MIRRTEXT
 70
     0
  9
$DRAGMODE
 70
     2
  9
$LTSCALE
 40
0.6431102362
  9
$OSMODE
 70
  2047
  9
$ATTMODE
 70
     1
  9
$TEXTSIZE
 40
0.2
  9
$TRACEWID
 40
0.05
  9
$TEXTSTYLE
  7
STANDARD
  9
$CLAYER
  8
0
  9
$CELTYPE
  6
BYLAYER
  9
$CECOLOR
 62
   256
  9
$DIMSCALE
 40
1.0
  9
$DIMASZ
 40
0.1875
  9
$DIMEXO
 40
0.0625
  9
$DIMDLI
 40
0.4443307087
  9
$DIMRND
 40
0.0
  9
$DIMDLE
 40
0.0
  9
$DIMEXE
 40
0.125
  9
$DIMTP
 40
0.01
  9
$DIMTM
 40
0.01
  9
$DIMTXT
 40
1.0
  9
$DIMCEN
 40
0.1052362205
  9
$DIMTSZ
 40
0.0
  9
$DIMTOL
 70
     1
  9
$DIMLIM
 70
     0
  9
$DIMTIH
 70
     0
  9
$DIMTOH
 70
     1
  9
$DIMSE1
 70
     0
  9
$DIMSE2
 70
     0
  9
$DIMTAD
 70
     0
  9
$DIMZIN
 70
     0
  9
$DIMBLK
  1

  9
$DIMASO
 70
     1
  9
$DIMSHO
 70
     1
  9
$DIMPOST
  1
\X
  9
$DIMAPOST
  1

  9
$DIMALT
 70
     1
  9
$DIMALTD
 70
     2
  9
$DIMALTF
 40
25.3999999999999986
  9
$DIMLFAC
 40
1.0
  9
$DIMTOFL
 70
     0
  9
$DIMTVP
 40
0.0
  9
$DIMTIX
 70
     0
  9
$DIMSOXD
 70
     0
  9
$DIMSAH
 70
     0
  9
$DIMBLK1
  1

  9
$DIMBLK2
  1

  9
$DIMSTYLE
  2
STANDARD
  9
$DIMCLRD
 70
     0
  9
$DIMCLRE
 70
     0
  9
$DIMCLRT
 70
     0
  9
$DIMTFAC
 40
1.0
  9
$DIMGAP
 40
0.09
  9
$LUNITS
 70
     2
  9
$LUPREC
 70
     4
  9
$SKETCHINC
 40
0.1
  9
$FILLETRAD
 40
0.0
  9
$AUNITS
 70
     0
  9
$AUPREC
 70
     0
  9
$MENU
  1
.
  9
$ELEVATION
 40
0.0
  9
$PELEVATION
 40
0.0
  9
$THICKNESS
 40
0.0
  9
$LIMCHECK
 70
     0
  9
$BLIPMODE
 70
     0
  9
$CHAMFERA
 40
0.0
  9
$CHAMFERB
 40
0.0
  9
$SKPOLY
 70
     0
  9
$TDCREATE
 40
2458172.5207638889551163
  9
$TDUPDATE
 40
2459048.3698842590674758
  9
$TDINDWG
 40
0.2691175694
  9
$TDUSRTIMER
 40
0.2691175694
  9
$USRTIMER
 70
     1
  9
$ANGBASE
 50
0.0
  9
$ANGDIR
 70
     0
  9
$PDMODE
 70
     0
  9
$PDSIZE
 40
0.3125
  9
$PLINEWID
 40
0.0
  9
$COORDS
 70
     1
  9
$SPLFRAME
 70
     0
  9
$SPLINETYPE
 70
     6
  9
$SPLINESEGS
 70
     8
  9
$ATTDIA
 70
     1
  9
$ATTREQ
 70
     1
  9
$HANDLING
 70
     1
  9
$HANDSEED
  5
F2BB
  9
$SURFTAB1
 70
     6
  9
$SURFTAB2
 70
     6
  9
$SURFTYPE
 70
     6
  9
$SURFU
 70
     6
  9
$SURFV
 70
     6
  9
$UCSNAME
  2

  9
$UCSORG
 10
0.0
 20
0.0
 30
0.0
  9
$UCSXDIR
 10
1.0
 20
0.0
 30
0.0
  9
$UCSYDIR
 10
0.0
 20
1.0
 30
0.0
  9
$PUCSNAME
  2

  9
$PUCSORG
 10
0.0
 20
0.0
 30
0.0
  9
$PUCSXDIR
 10
1.0
 20
0.0
 30
0.0
  9
$PUCSYDIR
 10
0.0
 20
1.0
 30
0.0
  9
$USERI1
 70
     0
  9
$USERI2
 70
     0
  9
$USERI3
 70
     0
  9
$USERI4
 70
     0
  9
$USERI5
 70
     0
  9
$USERR1
 40
0.0
  9
$USERR2
 40
0.0
  9
$USERR3
 40
0.0
  9
$USERR4
 40
0.0
  9
$USERR5
 40
0.0
  9
$WORLDVIEW
 70
     1
  9
$SHADEDGE
 70
     3
  9
$SHADEDIF
 70
    70
  9
$TILEMODE
 70
     1
  9
$MAXACTVP
 70
    64
  9
$PLIMCHECK
 70
     0
  9
$PEXTMIN
 10
1.0000000000000000E+20
 20
1.0000000000000000E+20
 30
1.0000000000000000E+20
  9
$PEXTMAX
 10
-1.0000000000000000E+20
 20
-1.0000000000000000E+20
 30
-1.0000000000000000E+20
  9
$PLIMMIN
 10
0.0
 20
0.0
  9
$PLIMMAX
 10
12.0
 20
9.0
  9
$UNITMODE
 70
     0
  9
$VISRETAIN
 70
     1
  9
$PLINEGEN
 70
     0
  9
$PSLTSCALE
 70
     1
  0
ENDSEC
  0
SECTION
  2
TABLES
  0
TABLE
  2
VPORT
 70
     1
  0
VPORT
  2
*ACTIVE
 70
     0
 10
0.0
 20
0.0
 11
1.0
 21
1.0
 12
-18.9153178674661113
 22
-14.6480317436794696
 13
0.0
 23
0.0
 14
1.0
 24
1.0
 15
0.0
 25
0.0
 16
0.0
 26
0.0
 36
14.6338572656650907
 17
429.6292891080536833
 27
69.7025415122186871
 37
0.0
 40
12.6805450133857498
 41
2.6486111111111108
 42
50.0
 43
0.0
 44
0.0
 50
0.0
 51
0.0
 71
     0
 72
   100
 73
     1
 74
     1
 75
     0
 76
     0
 77
     0
 78
     1
  0
ENDTAB
  0
TABLE
  2
LTYPE
 70
     2
  0
LTYPE
  2
CONTINUOUS
 70
     0
  3
Solid line
 72
    65
 73
     0
 40
0.0
  0
LTYPE
  2
PHANTOM2
 70
     0
  3
___ _ _ ___ _ _ ___ _ _ ___ _ _
 72
    65
 73
     6
 40
1.25
 49
0.625
 49
-0.125
 49
0.125
 49
-0.125
 49
0.125
 49
-0.125
  0
ENDTAB
  0
TABLE
  2
LAYER
 70
     2
  0
LAYER
  2
0
 70
     0
 62
   255
  6
CONTINUOUS
  0
LAYER
  2
DEFPOINTS
 70
     0
 62
     7
  6
CONTINUOUS
  0
ENDTAB
  0
TABLE
  2
STYLE
 70
     1
  0
STYLE
  2
STANDARD
 70
     0
 40
0.0
 41
0.8
 50
0.0
 71
     0
 42
0.2
  3
txt
  4

  0
ENDTAB
  0
TABLE
  2
VIEW
 70
     0
  0
ENDTAB
  0
TABLE
  2
UCS
 70
     0
  0
ENDTAB
  0
TABLE
  2
APPID
 70
    10
  0
APPID
  2
ACAD
 70
     0
  0
APPID
  2
ACAD_MLEADERVER
 70
     0
  0
APPID
  2
ACAD_EXEMPT_FROM_CAD_STANDARDS
 70
     0
  0
APPID
  2
ACAD_DSTYLE_DIMJAG
 70
     0
  0
APPID
  2
ACAD_DSTYLE_DIMTALN
 70
     0
  0
APPID
  2
ACAD_NAV_VCDISPLAY
 70
     0
  0
APPID
  2
ACAECLAYERSTANDARD
 70
     0
  0
APPID
  2
ACCMTRANSPARENCY
 70
     0
  0
APPID
  2
DCO15
 70
     0
  0
APPID
  2
ACDBATTR
 70
     0
  0
ENDTAB
  0
TABLE
  2
DIMSTYLE
 70
     1
  0
DIMSTYLE
  2
STANDARD
 70
     0
  3

  4

  5

  6

  7

 40
1.0
 41
0.1875
 42
0.0625
 43
0.38
 44
0.125
 45
0.0
 46
0.0
 47
0.01
 48
0.01
140
0.15625
141
0.09
142
0.0
143
25.3999999999999986
144
1.0
145
0.0
146
1.0
147
0.09
 71
     1
 72
     0
 73
     1
 74
     1
 75
     0
 76
     0
 77
     0
 78
     4
170
     0
171
     2
172
     0
173
     0
174
     0
175
     0
176
     0
177
     0
178
     0
  0
ENDTAB
  0
ENDSEC
  0
SECTION
  2
BLOCKS
  0
BLOCK
  8
0
  2
$MODEL_SPACE
 70
     0
 10
0.0
 20
0.0
 30
0.0
  3
$MODEL_SPACE
  1

  0
ENDBLK
  5
21
  8
0
  0
BLOCK
 67
     1
  8
0
  2
$PAPER_SPACE
 70
     0
 10
0.0
 20
0.0
 30
0.0
  3
$PAPER_SPACE
  1

  0
ENDBLK
  5
1D
 67
     1
  8
0
  0
BLOCK
  8
0
  2
_FILLED
 70
     0
 10
0.0
 20
0.0
 30
0.0
  3
_FILLED
  1

  0
SOLID
  5
87E2
  8
0
  6
BYBLOCK
 62
     0
 10
0.0
 20
0.0
 30
0.0
 11
-1.0
 21
0.1666666667
 31
0.0
 12
-1.0
 22
-0.1666666667
 32
0.0
 13
-1.0
 23
-0.1666666667
 33
0.0
  0
ENDBLK
  5
87E3
  8
0
  6
BYBLOCK
 62
     0
  0
ENDSEC
  0
SECTION
  2
ENTITIES
  0
ATTDEF
  5
DE35
  8
DEFPOINTS
 10
413.8713666929032229
 20
48.7746579928093595
 30
0.0
 40
0.001
  1
K-7501T-4
  3

  2
MODELNUMBER
 70
     0
1001
ACDBATTR
1070
     0
1070
     1
  0
ATTDEF
  5
DE36
  8
DEFPOINTS
 10
413.8713666929032229
 20
48.7729913261426873
 30
0.0
 40
0.001
  1
ARCHER
  3

  2
TRADENAME
 70
     0
1001
ACDBATTR
1070
     0
1070
     1
  0
ATTDEF
  5
DE37
  8
DEFPOINTS
 10
413.8713666929032229
 20
48.7713246594760292
 30
0.0
 40
0.001
  1
BATHROOM SINK FAUCET
  3

  2
PRODUCT
 70
     0
1001
ACDBATTR
1070
     0
1070
     1
  0
LINE
  5
EF5E
  8
0
 10
415.1785756302011805
 20
48.7710837057348812
 30
0.0
 11
412.5614529250938745
 21
48.7710837057343909
 31
0.0
  0
LINE
  5
EF5F
  8
0
 10
414.865634612833901
 20
49.1950451339343928
 30
0.0
 11
412.8714483763939143
 21
49.1950451339343928
 31
0.0
  0
LINE
  5
EF60
  8
0
 10
412.7893292600940072
 20
49.2828947293343873
 30
0.0
 11
414.9514328600939734
 21
49.282894729334572
 31
0.0
  0
LINE
  5
EF61
  8
0
 10
413.4512941717997023
 20
52.8037003773348488
 30
0.0
 11
413.7352119160476036
 21
52.803700377334863
 31
0.0
  0
LINE
  5
EF62
  8
0
 10
412.8089690943249934
 20
49.6049280886348214
 30
0.0
 11
414.9317930258629872
 21
49.6049280886348569
 31
0.0
  0
LINE
  5
EF63
  8
0
 10
412.8191911142047843
 20
49.4102040577348234
 30
0.0
 11
414.9215710059830258
 21
49.4102040577348589
 31
0.0
  0
LINE
  5
EF64
  8
0
 10
412.5574822904939083
 20
48.8968124908348187
 30
0.0
 11
415.1832798296939018
 21
48.8968124908348685
 31
0.0
  0
LINE
  5
EF65
  8
0
 10
413.1687116297393914
 20
51.7405053603348293
 30
0.0
 11
414.5720504904484756
 21
51.7405053603348719
 31
0.0
  0
LINE
  5
EF66
  8
0
 10
413.1672512624261913
 20
51.6568439215348292
 30
0.0
 11
414.5735108577617893
 21
51.6568439215348576
 31
0.0
  0
ARC
  5
EF67
  8
0
 10
412.5618197075136777
 20
48.8116532807341628
 30
0.0
 40
0.0405712329736888
 50
179.3178430694840131
 51
269.4820130081350271
  0
ARC
  5
EF68
  8
0
 10
412.5663858433459836
 20
48.8115989142796991
 30
0.0
 40
0.0451376924501452
 50
165.6821569304227069
 51
179.3178430694848089
  0
LINE
  5
EF69
  8
0
 10
412.5226501834176247
 20
48.8227615004654396
 30
0.0
 11
412.5328707015938789
 21
48.8609049935343904
 31
0.0
  0
ARC
  5
EF6A
  8
0
 10
412.5989598615201999
 20
48.8431946138166992
 30
0.0
 40
0.0684210100509189
 50
153.6532465980091047
 51
165.002342319391488
  0
LINE
  5
EF6B
  8
0
 10
412.5371391855412071
 20
48.8718279760098824
 30
0.0
 11
412.5234243493816848
 21
48.8206435109343886
 31
0.0
  0
ARC
  5
EF6C
  8
0
 10
412.5616734011882727
 20
48.8103947083337033
 30
0.0
 40
0.0395983322735352
 50
164.9999999191001052
 51
222.9466378736752858
  0
ARC
  5
EF6D
  8
0
 10
412.5751677613940274
 20
48.8616382500343889
 30
0.0
 40
0.0393700787000047
 50
116.6930713106227984
 51
165.0000003001989057
  0
ARC
  5
EF6E
  8
0
 10
412.2954311014557902
 20
49.4180002882840625
 30
0.0
 40
0.5833588482969067
 50
296.6930713106228268
 51
301.5870722476515766
  0
ARC
  5
EF6F
  8
0
 10
412.2630978163878126
 20
49.4705838739979171
 30
0.0
 40
0.6450878917838277
 50
301.5870722476515766
 51
332.700116435035909
  0
ARC
  5
EF70
  8
0
 10
412.8732879418739117
 20
49.1513781088254973
 30
0.0
 40
0.0437057557195312
 50
92.4122791440967291
 51
147.7257686873930993
  0
LINE
  5
EF71
  8
0
 10
412.9951909258940077
 20
49.2828947293343873
 30
0.0
 11
412.956549372385723
 21
49.2159655954645672
 31
0.0
  0
ARC
  5
EF72
  8
0
 10
412.9188292605871879
 20
49.2392402684946191
 30
0.0
 40
0.0443228748925708
 50
274.3510297198060925
 51
328.3239135464953051
  0
LINE
  5
EF73
  8
0
 10
412.9673460493186781
 20
49.2346659884402698
 30
0.0
 11
412.8152629502940272
 21
49.2346659884402698
 31
0.0
  0
ARC
  5
EF74
  8
0
 10
412.8152595292007732
 20
49.2622216227711505
 30
0.0
 40
0.0275556345432504
 50
179.9970545735397138
 51
270.0071133981566049
  0
ARC
  5
EF75
  8
0
 10
412.8303824002616125
 20
49.3707053804441927
 30
0.0
 40
0.0410535064435918
 50
105.8191861027114982
 51
180.0000000000003979
  0
ARC
  5
EF76
  8
0
 10
412.7893955324718718
 20
49.5153649893365184
 30
0.0
 40
0.1093004950864373
 50
285.8191861027115124
 51
325.3215068892404815
  0
ARC
  5
EF77
  8
0
 10
412.7892763913245062
 20
49.5154474204314283
 30
0.0
 40
0.1094453726153872
 50
325.3215068892401973
 51
29.9550465528563485
  0
ARC
  5
EF78
  8
0
 10
412.7881070434194726
 20
49.5147735198215315
 30
0.0
 40
0.1107950083273491
 50
29.9550465528560004
 51
54.4619790953453204
  0
ARC
  5
EF79
  8
0
 10
412.8765607763127718
 20
49.6386071870386374
 30
0.0
 40
0.0413852794867825
 50
170.2902795871864043
 51
234.461986391218403
  0
LINE
  5
EF7B
  8
0
 10
414.6631015640940063
 20
52.5522214952343916
 30
0.0
 11
413.0776605560939743
 21
52.5522214952343916
 31
0.0
  0
LINE
  5
EF7C
  8
0
 10
413.0776605560939743
 20
52.5522214952343916
 30
0.0
 11
413.1861758680939829
 21
51.7800949295343926
 31
0.0
  0
ARC
  5
EF7D
  8
0
 10
413.145522789081781
 20
51.7743815118788575
 30
0.0
 40
0.0410526000940361
 50
304.3877999986600003
 51
7.9999999971359781
  0
ARC
  5
EF7E
  8
0
 10
413.1976916295354272
 20
51.698156029333667
 30
0.0
 40
0.0513157500239599
 50
124.3877999986599008
 51
233.6122000013386923
  0
ARC
  5
EF7F
  8
0
 10
413.1428943379780776
 20
51.6237976476021672
 30
0.0
 40
0.0410526000519444
 50
350.0000000279653136
 51
53.6122000013390121
  0
LINE
  5
EF80
  8
0
 10
413.1833232567939831
 20
51.6166689384343869
 30
0.0
 11
412.835768346328905
 21
49.6455870877695205
 31
0.0
  0
ARC
  5
EF81
  8
0
 10
412.7621133434669787
 20
49.4680788239313429
 30
0.0
 40
0.1181102362262947
 50
352.7513480939172155
 51
59.7394915434735125
  0
ARC
  5
EF82
  8
0
 10
412.8355208198016726
 20
49.5938996691944283
 30
0.0
 40
0.0275590559547869
 50
174.0000008949461119
 51
239.7394915434734912
  0
LINE
  5
EF83
  8
0
 10
412.8081127351940154
 20
49.59678037453439
 30
0.0
 11
413.1011645094143887
 21
52.3849821773614792
 31
0.0
  0
ARC
  5
EF84
  8
0
 10
413.1183135483796036
 20
52.5579355282416287
 30
0.0
 40
0.0410525998566246
 50
112.9999999118257961
 51
188.0008673111856865
  0
LINE
  5
EF85
  8
0
 10
413.1022730197684041
 20
52.5957246456811802
 30
0.0
 11
413.3572259663509953
 21
52.7039457503608375
 31
0.0
  0
ARC
  5
EF86
  8
0
 10
413.3015268563589188
 20
52.8351646309713274
 30
0.0
 40
0.1425509925695896
 50
292.9999999118256255
 51
337.2235272501175132
  0
ARC
  5
EF87
  8
0
 10
413.4866451973193762
 20
52.757437477213827
 30
0.0
 40
0.0582232851435333
 50
127.3846521657446971
 51
157.2235272501179111
  0
ARC
  5
EF88
  8
0
 10
413.4168998989168813
 20
52.8487112019917831
 30
0.0
 40
0.0566475095960526
 50
307.3846521657446829
 51
359.0281726859267906
  0
LINE
  5
EF89
  8
0
 10
413.4735392600940145
 20
52.847750416434387
 30
0.0
 11
413.4735392600940145
 21
52.9973045718343911
 31
0.0
  0
ARC
  5
EF8A
  8
0
 10
413.4188024356449205
 20
52.9973045558196532
 30
0.0
 40
0.0547368286702039
 50
359.9774985450853819
 51
44.043538330145509
  0
ARC
  5
EF8B
  8
0
 10
413.4973968019438075
 20
53.073317755585748
 30
0.0
 40
0.0546024641417379
 50
188.7926394062085933
 51
224.043538330145509
  0
ARC
  5
EF8C
  8
0
 10
413.5013260161792914
 20
53.0739255132272305
 30
0.0
 40
0.0585784035098401
 50
180.4962804958811944
 51
188.7926394062085933
  0
LINE
  5
EF8D
  8
0
 10
413.4427498100939147
 20
53.0734181293348328
 30
0.0
 11
413.4427498100940284
 21
53.6448115256142586
 31
0.0
  0
ARC
  5
EF8E
  8
0
 10
413.4838024419635758
 20
53.6448329399003683
 30
0.0
 40
0.0410526374548105
 50
134.9957982733644997
 51
180.0298871972005088
  0
LINE
  5
EF8F
  8
0
 10
413.4547759724940192
 20
53.6738636669343876
 30
0.0
 11
413.4991537108314787
 21
53.718234896958279
 31
0.0
  0
ARC
  5
EF90
  8
0
 10
413.5282113557429966
 20
53.6891729899096717
 30
0.0
 40
0.0410967294210155
 50
88.7366448613270791
 51
134.995798273372003
  0
ARC
  5
EF91
  8
0
 10
413.5810109812701967
 20
53.7578187845582178
 30
0.0
 40
0.0511811022761695
 50
89.9999999733260836
 51
180.0000001386248982
  0
LINE
  5
EF92
  8
0
 10
413.5298298789940077
 20
53.7578187844343915
 30
0.0
 11
413.5298298790364129
 21
53.7402597293343902
 31
0.0
  0
ARC
  5
EF93
  8
0
 10
413.5398312215839951
 20
53.7402597293585913
 30
0.0
 40
0.0100013425475965
 50
180.0000001386183897
 51
269.0611972739936277
  0
LINE
  5
EF94
  8
0
 10
413.358570036393985
 20
57.3645852440343873
 30
0.0
 11
413.358570036393985
 21
54.7267899684343888
 31
0.0
  0
LINE
  5
EF95
  8
0
 10
414.5145055223940176
 20
54.7267899684343888
 30
0.0
 11
413.2262565977939062
 21
54.7267899684343888
 31
0.0
  0
ARC
  5
EF96
  8
0
 10
413.2262565977939062
 20
54.6992309133597772
 30
0.0
 40
0.0275590550746099
 50
90.0000000000065086
 51
112.5000000206321005
  0
LINE
  5
EF97
  8
0
 10
413.2157102039960819
 20
54.7246921602747705
 30
0.0
 11
412.9998037063522247
 21
54.6352607606551075
 31
0.0
  0
ARC
  5
EF98
  8
0
 10
413.0103501001872814
 20
54.6097995136502092
 30
0.0
 40
0.0275590551719394
 50
112.5000000206321005
 51
186.4999997948239923
  0
LINE
  5
EF99
  8
0
 10
412.9829681985881962
 20
54.6066797401343891
 30
0.0
 11
413.1551472433624781
 21
53.0954836108243811
 31
0.0
  0
ARC
  5
EF9A
  8
0
 10
413.1277653408938022
 20
53.0923638372094615
 30
0.0
 40
0.0275590560472281
 50
276.3013735265561195
 51
6.4999997948260519
  0
ARC
  5
EF9B
  8
0
 10
413.1381377545304758
 20
52.9984323348343906
 30
0.0
 40
0.0669433994927775
 50
96.3013735265594306
 51
263.6986264734438805
  0
ARC
  5
EF9C
  8
0
 10
413.1277331075219195
 20
52.9042089303863179
 30
0.0
 40
0.0278527324175381
 50
354.6453138919209778
 51
83.6986264734438947
  0
LINE
  5
EF9D
  8
0
 10
413.1554642928796852
 20
52.9016096878479019
 30
0.0
 11
413.1242990390799719
 21
52.6050921048975013
 31
0.0
  0
LINE
  5
EF9E
  8
0
 10
412.7893288938179808
 20
49.3707053804441927
 30
0.0
 11
412.7893292600940072
 21
49.2828947293343873
 31
0.0
  0
LINE
  5
EF9F
  8
0
 10
412.787703894693891
 20
49.3324519026343893
 30
0.0
 11
412.787703894693891
 21
49.262223039834403
 31
0.0
  0
ARC
  5
EFA0
  8
0
 10
412.8152296287183844
 20
49.3324547332715184
 30
0.0
 40
0.0275257341699042
 50
160.2134021403641952
 51
180.0058920703000922
  0
LINE
  5
EFA1
  8
0
 10
412.9459119831706175
 20
49.2346659884402698
 30
0.0
 11
412.9379251281119991
 21
49.2175381223731634
 31
0.0
  0
ARC
  5
EFA2
  8
0
 10
412.9022437192980988
 20
49.2341766364391873
 30
0.0
 40
0.0393700785530168
 50
276.310844320865499
 51
335.0000001551795208
  0
LINE
  5
EFA3
  8
0
 10
412.9379251279960954
 20
49.217538122309719
 30
0.0
 11
412.9574572712717782
 21
49.2175381223343891
 31
0.0
  0
LINE
  5
EFA4
  8
0
 10
413.4434360244940194
 20
53.0649712840343923
 30
0.0
 11
413.1307901715940147
 21
53.0649712840343923
 31
0.0
  0
LINE
  5
EFA5
  8
0
 10
413.4735392600940145
 20
52.9318933856344032
 30
0.0
 11
413.1307901715940147
 21
52.9318933856344032
 31
0.0
  0
ARC
  5
EFA6
  8
0
 10
413.8770275536857071
 20
52.7908780923005168
 30
0.0
 40
0.1494538756963918
 50
248.5991198607327988
 51
267.451108793547121
  0
ARC
  5
EFA7
  8
0
 10
413.8520612325128809
 20
52.7050892877536086
 30
0.0
 40
0.0610048165917813
 50
226.6405459999893139
 51
241.0082210353454002
  0
ARC
  5
EFA8
  8
0
 10
407.996595826224393
 20
46.720794689449697
 30
0.0
 40
8.3114750492518414
 50
45.6159492876348622
 51
46.1772455461020925
  0
ARC
  5
EFA9
  8
0
 10
413.7822692078938758
 20
52.7490196090627705
 30
0.0
 40
0.0439732784158449
 50
183.8584567711914133
 51
225.9740768452552118
  0
ARC
  5
EFAA
  8
0
 10
413.8655239627148035
 20
53.7520704470365871
 30
0.0
 40
1.0160031129896829
 50
264.4993213868912108
 51
270.2739088463175108
  0
ARC
  5
EFAB
  8
0
 10
413.7789374263213062
 20
52.8529465070592792
 30
0.0
 40
0.112719609473254
 50
248.8674291102693985
 51
264.4993213868912108
  0
LINE
  5
EFAC
  8
0
 10
413.738305598993918
 20
53.6448330622343903
 30
0.0
 11
413.738305598993918
 21
52.7477683810181404
 31
0.0
  0
ARC
  5
EFAD
  8
0
 10
413.7793842600884204
 20
53.6448180202448981
 30
0.0
 40
0.0410837557225298
 50
135.0144190236372026
 51
179.9787843889469912
  0
LINE
  5
EFAE
  8
0
 10
413.7503263478802182
 20
53.6738613107328391
 30
0.0
 11
413.7946961590474189
 21
53.71823787891244
 31
0.0
  0
ARC
  5
EFAF
  8
0
 10
413.8239681940195851
 20
53.6889703010561306
 30
0.0
 40
0.0413937573190052
 50
94.0687787201355263
 51
135.0043624122507993
  0
ARC
  5
EFB0
  8
0
 10
413.8702383305131889
 20
53.0265043734836325
 30
0.0
 40
0.7337285711558142
 50
89.9888473578360362
 51
93.8161138044633134
  0
ARC
  5
EFB1
  8
0
 10
413.8229350840215943
 20
53.7470442149608729
 30
0.0
 40
0.0116626547221493
 50
97.5367850584274834
 51
178.5500635064219068
  0
LINE
  5
EFB2
  8
0
 10
413.8112761634939147
 20
53.7473393205343868
 30
0.0
 11
413.8103810600940164
 21
53.730259729334847
 31
0.0
  0
LINE
  5
EFB3
  8
0
 10
414.7409584126785944
 20
54.6352607611343828
 30
0.0
 11
412.9998037075092725
 21
54.6352607611343828
 31
0.0
  0
ARC
  5
EFB4
  8
0
 10
410.405814130919623
 20
57.3645852440600095
 30
0.0
 40
2.9527559054743762
 50
359.9999999995029043
 51
165.0000000044703086
  0
LINE
  5
EFB5
  8
0
 10
407.5536709430346036
 20
58.1288147077131967
 30
0.0
 11
407.431394228898796
 21
57.6724717978330972
 31
0.0
  0
LINE
  5
EFB6
  8
0
 10
407.431394228898796
 20
57.6724717978330972
 30
0.0
 11
406.4426512570801151
 21
57.9374046785824603
 31
0.0
  0
LINE
  5
EFB7
  8
0
 10
406.4426512570801151
 20
57.9374046785824603
 30
0.0
 11
406.5649279713178998
 21
58.3937475887279618
 31
0.0
  0
LINE
  5
EFB8
  8
0
 10
414.382192083694008
 20
57.3645852440343873
 30
0.0
 11
414.3821920836554114
 21
54.7267899684343888
 31
0.0
  0
LINE
  5
EFB9
  8
0
 10
406.2298347472067803
 20
56.9632284006309533
 30
0.0
 11
407.1286105936939066
 21
56.7224021384343899
 31
0.0
  0
ARC
  5
EFBA
  8
0
 10
407.1438951825718959
 20
56.7794450007105311
 30
0.0
 40
0.0590551165761339
 50
255.0000000027534952
 51
270.0000004095113013
  0
ARC
  5
EFBB
  8
0
 10
407.1438951829939015
 20
56.7794450022343824
 30
0.0
 40
0.0590551180999892
 50
269.9999999999935199
 51
327.2542787917541887
  0
ARC
  5
EFBC
  8
0
 10
407.1438951829608186
 20
56.7794450022556987
 30
0.0
 40
0.0590551181393985
 50
327.2542787917537908
 51
39.5085575194561471
  0
ARC
  5
EFBD
  8
0
 10
407.2107205553141966
 20
56.8345483533544567
 30
0.0
 40
0.0275590244267839
 50
154.9999679266879014
 51
219.5085575194557919
  0
LINE
  5
EFBE
  8
0
 10
407.1857436033927797
 20
56.8461953143347003
 30
0.0
 11
407.4295632374762022
 21
57.3690674428076832
 31
0.0
  0
ARC
  5
EFBF
  8
0
 10
407.4045869988806885
 20
57.3807140711581809
 30
0.0
 40
0.0275582373586967
 50
334.9999679266878729
 51
20.0016539384189294
  0
LINE
  5
EFC0
  8
0
 10
407.4304829990755934
 20
57.3901402909846468
 30
0.0
 11
407.3938007186717982
 21
57.4909149766995782
 31
0.0
  0
ARC
  5
EFC1
  8
0
 10
407.4196981242470201
 20
57.5003417080885626
 30
0.0
 40
0.0275597329487696
 50
76.3426055756599737
 51
200.0016539384212138
  0
ARC
  5
EFC2
  8
0
 10
407.4373594607064888
 20
57.5730262720744008
 30
0.0
 40
0.0472397900934832
 50
256.3426055756600022
 51
345.0050994405747815
  0
LINE
  5
EFC3
  8
0
 10
407.4829906819940106
 20
57.5608037759343887
 30
0.0
 11
407.485033304093804
 21
57.5684296602034706
 31
0.0
  0
ARC
  5
EFC4
  8
0
 10
407.4393938624501743
 20
57.5806543581971226
 30
0.0
 40
0.0472483002294681
 50
345.0050994405826259
 51
74.9940976910772434
  0
LINE
  5
EFC5
  8
0
 10
407.4516273237557016
 20
57.6262914516525413
 30
0.0
 11
406.4020387097825164
 21
57.9075278731505918
 31
0.0
  0
ARC
  5
EFC6
  8
0
 10
406.3898038831877102
 20
57.8618578202855005
 30
0.0
 40
0.0472804897447936
 50
75.002841109477643
 51
89.9913771153340321
  0
ARC
  5
EFC7
  8
0
 10
406.3898251425031276
 20
57.8617855583743719
 30
0.0
 40
0.0473527532327153
 50
90.0171134608012835
 51
101.6890203403826973
  0
ARC
  5
EFC8
  8
0
 10
406.3898004875198922
 20
57.8619047277831129
 30
0.0
 40
0.0472310601097545
 50
101.6890203403826973
 51
165.0097472655604918
  0
LINE
  5
EFC9
  8
0
 10
406.3441767077965778
 20
57.8741212642336791
 30
0.0
 11
406.3421347042435059
 21
57.8664952140289017
 31
0.0
  0
ARC
  5
EFCA
  8
0
 10
406.387779056979582
 20
57.8542731688072109
 30
0.0
 40
0.0472523578892877
 50
165.0097472655529884
 51
253.640877899334896
  0
ARC
  5
EFCB
  8
0
 10
406.3667070730862179
 20
57.7824876597332704
 30
0.0
 40
0.0275619978067205
 50
310.0114201557340152
 51
73.6408778993380082
  0
LINE
  5
EFCC
  8
0
 10
406.3844277917938825
 20
57.7613774761343919
 30
0.0
 11
406.3022746532769816
 21
57.6924428078402087
 31
0.0
  0
ARC
  5
EFCD
  8
0
 10
406.3201878836845253
 20
57.6712279541770982
 30
0.0
 40
0.0277660555278841
 50
130.1768140009685908
 51
174.8231815821688997
  0
LINE
  5
EFCE
  8
0
 10
406.2925350862694813
 20
57.6737332754550991
 30
0.0
 11
406.2422526974278867
 21
57.0990029406193784
 31
0.0
  0
ARC
  5
EFCF
  8
0
 10
406.2147985131938981
 20
57.1014048744343867
 30
0.0
 40
0.0275590550999943
 50
290.4914828718659123
 51
354.9999918642985222
  0
ARC
  5
EFD0
  8
0
 10
406.2451193803304932
 20
57.0202712665008491
 30
0.0
 40
0.0590551314991128
 50
110.4914828718625017
 51
254.9999594273668038
  0
LINE
  5
EFD1
  8
0
 10
406.224446060332582
 20
57.0755896395485607
 30
0.0
 11
407.1894579613863812
 21
56.8170154720503788
 31
0.0
  0
LINE
  5
EFD2
  8
0
 10
406.3022746532773226
 20
57.6924428078404219
 30
0.0
 11
407.4304829991506267
 21
57.3901402908905212
 31
0.0
  0
LINE
  5
EFD3
  8
0
 10
406.3744701268220183
 20
57.8089338072749115
 30
0.0
 11
407.4262054086291869
 21
57.5271221884833608
 31
0.0
  0
LINE
  5
EFD4
  8
0
 10
406.5187084086689993
 20
57.9170252262411012
 30
0.0
 11
406.5085186825940013
 21
57.878996650434388
 31
0.0
  0
LINE
  5
EFD5
  8
0
 10
407.3451473509940115
 20
57.6548226744343921
 30
0.0
 11
407.3553370771608115
 21
57.6928512502144173
 31
0.0
  0
ARC
  5
EFD6
  8
0
 10
410.4058141307536971
 20
57.3645852443459674
 30
0.0
 40
3.9763779524884222
 50
90.0004063413184241
 51
165.0000000076742879
  0
ARC
  5
EFD7
  8
0
 10
410.4058141307536971
 20
57.3645852438940906
 30
0.0
 40
3.97637795294031
 50
0.0000000020217132
 51
90.0004063413184241
  0
LINE
  5
EFD8
  8
0
 10
413.5291174531500928
 20
53.730259729334847
 30
0.0
 11
414.2134568618527055
 21
53.7302597293348398
 31
0.0
  0
LINE
  5
EFD9
  8
0
 10
413.5810109812701967
 20
53.8089998868348403
 30
0.0
 11
414.1597511388940234
 21
53.8089998868348331
 31
0.0
  0
LINE
  5
EFDA
  8
0
 10
414.2894679483882214
 20
52.8037003773348488
 30
0.0
 11
414.0055502041403201
 21
52.803700377334863
 31
0.0
  0
ARC
  5
EFDB
  8
0
 10
415.1789424126740755
 20
48.8116532807341628
 30
0.0
 40
0.0405712329736888
 50
269.4820129640480104
 51
0.6821569305159649
  0
ARC
  5
EFDC
  8
0
 10
415.1743762768418833
 20
48.8115989142796991
 30
0.0
 40
0.0451376924501452
 50
0.6821569305151508
 51
14.3178430695773198
  0
LINE
  5
EFDD
  8
0
 10
415.2181119367701854
 20
48.8227615004654396
 30
0.0
 11
415.2078914185938743
 21
48.8609049935343904
 31
0.0
  0
ARC
  5
EFDE
  8
0
 10
415.1418022586677239
 20
48.8431946138166992
 30
0.0
 40
0.0684210100509189
 50
14.9976576806085102
 51
26.3467534019908491
  0
LINE
  5
EFDF
  8
0
 10
415.2036229346467167
 20
48.8718279760098824
 30
0.0
 11
415.2173377708061253
 21
48.8206435109343886
 31
0.0
  0
ARC
  5
EFE0
  8
0
 10
415.1790887189997079
 20
48.8103947083337033
 30
0.0
 40
0.0395983322735352
 50
317.0533621263248278
 51
15.0000000808999108
  0
ARC
  5
EFE1
  8
0
 10
415.1655943587940101
 20
48.8616382500343889
 30
0.0
 40
0.0393700787000047
 50
14.9999996998010605
 51
63.306928689377159
  0
ARC
  5
EFE2
  8
0
 10
415.4453310187321904
 20
49.4180002882840625
 30
0.0
 40
0.5833588482969067
 50
238.412927752348395
 51
243.3069286893772016
  0
ARC
  5
EFE3
  8
0
 10
415.4776643038001112
 20
49.4705838739979171
 30
0.0
 40
0.6450878917838277
 50
207.2998835649640057
 51
238.412927752348395
  0
ARC
  5
EFE4
  8
0
 10
414.8674741783138984
 20
49.1513781088254973
 30
0.0
 40
0.0437057557195341
 50
32.2742313126116684
 51
92.4122791440934606
  0
LINE
  5
EFE5
  8
0
 10
414.7455711942939729
 20
49.2828947293343873
 30
0.0
 11
414.7842127478022007
 21
49.2159655954645672
 31
0.0
  0
ARC
  5
EFE6
  8
0
 10
414.8219328596006221
 20
49.2392402684946191
 30
0.0
 40
0.0443228748925708
 50
211.6760864535046096
 51
265.6489702801939075
  0
LINE
  5
EFE7
  8
0
 10
414.7734160708693025
 20
49.2346659884402698
 30
0.0
 11
414.9254991698938966
 21
49.2346659884402698
 31
0.0
  0
ARC
  5
EFE8
  8
0
 10
414.9255025909870938
 20
49.2622216227711505
 30
0.0
 40
0.0275556345432504
 50
269.9928866018433951
 51
0.0029454264602633
  0
ARC
  5
EFE9
  8
0
 10
414.910379719926425
 20
49.3707053804441927
 30
0.0
 40
0.0410535064435919
 50
359.984117554727618
 51
74.1808138972886155
  0
ARC
  5
EFEA
  8
0
 10
414.9513665877161088
 20
49.5153649893365184
 30
0.0
 40
0.1093004950864373
 50
214.6784931107594048
 51
254.1808138972884876
  0
ARC
  5
EFEB
  8
0
 10
414.9514857288634175
 20
49.5154474204314283
 30
0.0
 40
0.1094453726153872
 50
150.0449534471435982
 51
214.678493110759689
  0
ARC
  5
EFEC
  8
0
 10
414.9526550767683943
 20
49.5147735198215315
 30
0.0
 40
0.1107950083273491
 50
125.5380209046547009
 51
150.0449534471439961
  0
ARC
  5
EFED
  8
0
 10
414.8642013438752087
 20
49.6386071870386374
 30
0.0
 40
0.0413852794867825
 50
305.5380136087816254
 51
9.7097204128135317
  0
LINE
  5
EFEE
  8
0
 10
414.6631015640940063
 20
52.5522214952343916
 30
0.0
 11
414.5545862520939977
 21
51.7800949295343926
 31
0.0
  0
ARC
  5
EFEF
  8
0
 10
414.5952393311061996
 20
51.7743815118788575
 30
0.0
 40
0.0410526000940361
 50
172.0000000028639988
 51
235.6122000013399997
  0
ARC
  5
EFF0
  8
0
 10
414.5430704906526103
 20
51.698156029333667
 30
0.0
 40
0.0513157500239599
 50
306.387799998661194
 51
55.6122000013400211
  0
ARC
  5
EFF1
  8
0
 10
414.597867782209903
 20
51.6237976476021672
 30
0.0
 40
0.0410526000519444
 50
126.387799998660995
 51
189.9999999720346864
  0
LINE
  5
EFF2
  8
0
 10
414.5574388633939975
 20
51.6166689384343869
 30
0.0
 11
414.9049937738590188
 21
49.6455870877695205
 31
0.0
  0
ARC
  5
EFF3
  8
0
 10
414.9786487767207745
 20
49.4680788239313429
 30
0.0
 40
0.1181102362262947
 50
120.2605084565264946
 51
187.2486519060826993
  0
ARC
  5
EFF4
  8
0
 10
414.905241300386308
 20
49.5938996691944283
 30
0.0
 40
0.0275590559547869
 50
300.2605084565263951
 51
5.9999991050538712
  0
LINE
  5
EFF5
  8
0
 10
414.9326493849939084
 20
49.59678037453439
 30
0.0
 11
414.6395976107735919
 21
52.3849821773614792
 31
0.0
  0
ARC
  5
EFF6
  8
0
 10
414.6224485718083201
 20
52.5579355282416287
 30
0.0
 40
0.0410525998566246
 50
351.9991326888141998
 51
67.0000000881741755
  0
LINE
  5
EFF7
  8
0
 10
414.6384891004195765
 20
52.5957246456811802
 30
0.0
 11
414.3835361538369852
 21
52.7039457503608375
 31
0.0
  0
ARC
  5
EFF8
  8
0
 10
414.4392352638290049
 20
52.8351646309713274
 30
0.0
 40
0.1425509925695896
 50
202.7764727498824868
 51
247.0000000881742892
  0
ARC
  5
EFF9
  8
0
 10
414.2541169228683771
 20
52.757437477213827
 30
0.0
 40
0.0582232851435333
 50
22.7764727498820889
 51
52.61534783425531
  0
ARC
  5
EFFA
  8
0
 10
414.3238622212709856
 20
52.8487112019917831
 30
0.0
 40
0.0566475095960526
 50
180.9718273140732094
 51
232.6153478342552887
  0
LINE
  5
EFFB
  8
0
 10
414.267222860094023
 20
52.847750416434387
 30
0.0
 11
414.267222860094023
 21
52.9973045718343911
 31
0.0
  0
ARC
  5
EFFC
  8
0
 10
414.321959684543117
 20
52.9973045558196532
 30
0.0
 40
0.0547368286702039
 50
135.956461669854491
 51
180.0225014549145044
  0
ARC
  5
EFFD
  8
0
 10
414.2433653182441162
 20
53.073317755585748
 30
0.0
 40
0.0546024641417379
 50
315.956461669854491
 51
351.2073605937908951
  0
ARC
  5
EFFE
  8
0
 10
414.2394361040086892
 20
53.0739255132272305
 30
0.0
 40
0.0585784035098401
 50
351.207360593791293
 51
359.5037195041188056
  0
LINE
  5
EFFF
  8
0
 10
414.2980123100938954
 20
53.0734181293348328
 30
0.0
 11
414.2980123100938954
 21
53.6448115256142586
 31
0.0
  0
ARC
  5
F000
  8
0
 10
414.2569596782242911
 20
53.6448329399003683
 30
0.0
 40
0.0410526374548105
 50
359.9701128027995196
 51
45.0042017266354719
  0
LINE
  5
F001
  8
0
 10
414.2859861476940182
 20
53.6738636669343876
 30
0.0
 11
414.2416084093563882
 21
53.718234896958279
 31
0.0
  0
ARC
  5
F002
  8
0
 10
414.2125507644449272
 20
53.6891729899096575
 30
0.0
 40
0.0410967294210229
 50
45.0042017266279828
 51
88.7366448606429685
  0
ARC
  5
F003
  8
0
 10
414.1597511389177839
 20
53.7578187845582178
 30
0.0
 40
0.0511811022761695
 50
359.9999998613749881
 51
90.000000026673888
  0
LINE
  5
F004
  8
0
 10
414.2109322411939161
 20
53.7578187844343915
 30
0.0
 11
414.2109322411513972
 21
53.7402597293343902
 31
0.0
  0
ARC
  5
F005
  8
0
 10
414.2009308986038718
 20
53.7402597293585913
 30
0.0
 40
0.0100013425475965
 50
270.9388027260063723
 51
359.9999998613811272
  0
ARC
  5
F006
  8
0
 10
414.5145055223940176
 20
54.6992309133597772
 30
0.0
 40
0.0275590550746099
 50
67.4999999793678853
 51
89.9999999999934914
  0
LINE
  5
F007
  8
0
 10
414.525051916191785
 20
54.7246921602747705
 30
0.0
 11
414.7409584138355854
 21
54.6352607606551075
 31
0.0
  0
ARC
  5
F008
  8
0
 10
414.7304120200004718
 20
54.6097995136502092
 30
0.0
 40
0.0275590551719394
 50
353.5000002051759225
 51
67.4999999793678853
  0
LINE
  5
F009
  8
0
 10
414.7577939215996139
 20
54.6066797401343891
 30
0.0
 11
414.5856148768253888
 21
53.0954836108243811
 31
0.0
  0
ARC
  5
F00A
  8
0
 10
414.6129967792941216
 20
53.0923638372094615
 30
0.0
 40
0.0275590560472281
 50
173.5000002051739045
 51
263.6986264734438805
  0
ARC
  5
F00B
  8
0
 10
414.6026243656573911
 20
52.9984323348343906
 30
0.0
 40
0.0669433994927775
 50
276.3013735265561195
 51
83.6986264734405978
  0
ARC
  5
F00C
  8
0
 10
414.6130290126658906
 20
52.9042089303863179
 30
0.0
 40
0.0278527324175381
 50
96.3013735265561337
 51
185.3546861080789938
  0
LINE
  5
F00D
  8
0
 10
414.5852978273081249
 20
52.9016096878479019
 30
0.0
 11
414.6164630811077814
 21
52.6050921048975013
 31
0.0
  0
LINE
  5
F00E
  8
0
 10
414.951433224792595
 20
49.3706940003728008
 30
0.0
 11
414.9514328600939734
 21
49.2828947293343873
 31
0.0
  0
LINE
  5
F00F
  8
0
 10
414.9530582254939191
 20
49.3324519026343893
 30
0.0
 11
414.9530582254939191
 21
49.262223039834403
 31
0.0
  0
ARC
  5
F010
  8
0
 10
414.9255324914695962
 20
49.3324547332715184
 30
0.0
 40
0.0275257341699042
 50
359.9941079296999078
 51
19.7865978596357905
  0
LINE
  5
F011
  8
0
 10
414.7948501370174768
 20
49.2346659884402698
 30
0.0
 11
414.8028369920758109
 21
49.2175381223731634
 31
0.0
  0
ARC
  5
F012
  8
0
 10
414.838518400889825
 20
49.2341766364391873
 30
0.0
 40
0.0393700785530168
 50
204.9999998448205076
 51
263.6891556791346147
  0
LINE
  5
F013
  8
0
 10
414.8028369921918284
 20
49.217538122309719
 30
0.0
 11
414.7833048489159751
 21
49.2175381223343891
 31
0.0
  0
LINE
  5
F014
  8
0
 10
414.297326095694018
 20
53.0649712840343923
 30
0.0
 11
414.609971948593909
 21
53.0649712840343923
 31
0.0
  0
LINE
  5
F015
  8
0
 10
414.267222860094023
 20
52.9318933856344032
 30
0.0
 11
414.6099719485940227
 21
52.9318933856344032
 31
0.0
  0
ARC
  5
F016
  8
0
 10
413.8615958663818901
 20
52.8009616166730922
 30
0.0
 40
0.1596314624023642
 50
273.1548226882256927
 51
290.7949486574926254
  0
ARC
  5
F017
  8
0
 10
413.8887008876748723
 20
52.7050892877536086
 30
0.0
 40
0.0610048165917813
 50
298.9917789646547135
 51
313.359454000010885
  0
ARC
  5
F018
  8
0
 10
419.7441662939634739
 20
46.720794689449697
 30
0.0
 40
8.3114750492518414
 50
133.8227544538978862
 51
134.3840507123651093
  0
ARC
  5
F019
  8
0
 10
413.9584929122939911
 20
52.7490196090627705
 30
0.0
 40
0.0439732784158449
 50
314.0259231547448167
 51
356.141543228808473
  0
ARC
  5
F01A
  8
0
 10
413.8752381574731771
 20
53.7520704470365871
 30
0.0
 40
1.0160031129896829
 50
269.7260911536824892
 51
275.5006786131087892
  0
ARC
  5
F01B
  8
0
 10
413.9618246938665038
 20
52.8529465070592792
 30
0.0
 40
0.112719609473254
 50
275.5006786131087892
 51
291.1325708897305731
  0
LINE
  5
F01C
  8
0
 10
414.0024565211938921
 20
53.6448330622343903
 30
0.0
 11
414.0024565211938921
 21
52.7477683810181404
 31
0.0
  0
ARC
  5
F01D
  8
0
 10
413.9613778600993896
 20
53.6448180202448981
 30
0.0
 40
0.0410837557225298
 50
0.0212156110534417
 51
44.9855809763627832
  0
LINE
  5
F01E
  8
0
 10
413.9904357723077055
 20
53.6738613107328391
 30
0.0
 11
413.9460659611406186
 21
53.71823787891244
 31
0.0
  0
ARC
  5
F01F
  8
0
 10
413.9167939261683955
 20
53.6889703010561306
 30
0.0
 40
0.0413937573190052
 50
44.9956375877492079
 51
85.9312212798644737
  0
ARC
  5
F020
  8
0
 10
413.8705237896746212
 20
53.0265043734836325
 30
0.0
 40
0.7337285711558142
 50
86.1838861955366866
 51
90.011152642163978
  0
ARC
  5
F021
  8
0
 10
413.9178270361662726
 20
53.7470442149608729
 30
0.0
 40
0.0116626547221493
 50
1.449936493578031
 51
82.4632149415725308
  0
LINE
  5
F022
  8
0
 10
413.9294859566938953
 20
53.7473393205343868
 30
0.0
 11
413.930381060094021
 21
53.730259729334847
 31
0.0
  0
ARC
  5
F023
  8
0
 10
414.9309006871940255
 20
49.6475458160344019
 30
0.0
 40
0.0250865562000056
 50
267.8248138480649914
 51
352.5000011539351021
  0
LINE
  5
F024
  8
0
 10
414.9557726244939886
 20
49.6442713638786088
 30
0.0
 11
414.9858141263067068
 21
49.8724592603383101
 31
0.0
  0
LINE
  5
F025
  8
0
 10
414.9858141263067068
 20
49.8724592603383101
 30
0.0
 11
414.9557726244939886
 21
50.1006471556901687
 31
0.0
  0
ARC
  5
F026
  8
0
 10
414.9309006871949919
 20
50.09737270351863
 30
0.0
 40
0.0250865562010353
 50
7.4999988820627683
 51
179.9999999639913995
  0
LINE
  5
F027
  8
0
 10
414.9058141309939174
 20
50.0973727035343899
 30
0.0
 11
414.9058141308398149
 21
49.8521008006263386
 31
0.0
  0
LINE
  5
F028
  8
0
 10
414.9557726244939886
 20
50.1006471562343876
 30
0.0
 11
414.9557726244939886
 21
49.6442713638786088
 31
0.0
  0
LINE
  5
F029
  8
0
 10
414.905814130893873
 20
50.0512092597343923
 30
0.0
 11
414.8918141308939198
 21
50.0512092597343923
 31
0.0
  0
ARC
  5
F02A
  8
0
 10
414.8918141308939198
 20
50.0352092597343869
 30
0.0
 40
0.016000000000008
 50
90.0000000000130314
 51
115.0289593932275949
  0
ENDSEC
  0
EOF
