  0
SECTION
  2
HEADER
  9
$ACADVER
  1
AC1009
  9
$INSBASE
 10
461.067949259092984
 20
82.8421081083598239
 30
0.0
  9
$EXTMIN
 10
457.7391243593036734
 20
79.294402092998638
 30
-0.0000000000000058
  9
$EXTMAX
 10
461.1052099032200999
 20
86.3881911921174606
 30
0.0000000000000104
  9
$LIMMIN
 10
0.0
 20
0.0
  9
$LIMMAX
 10
11.6929133858000007
 20
8.2677165353999982
  9
$ORTHOMODE
 70
     0
  9
$REGENMODE
 70
     1
  9
$FILLMODE
 70
     1
  9
$QTEXTMODE
 70
     0
  9
$MIRRTEXT
 70
     0
  9
$DRAGMODE
 70
     2
  9
$LTSCALE
 40
0.6431102362
  9
$OSMODE
 70
  4095
  9
$ATTMODE
 70
     1
  9
$TEXTSIZE
 40
0.2
  9
$TRACEWID
 40
0.05
  9
$TEXTSTYLE
  7
STANDARD
  9
$CLAYER
  8
0
  9
$CELTYPE
  6
BYLAYER
  9
$CECOLOR
 62
   256
  9
$DIMSCALE
 40
1.0
  9
$DIMASZ
 40
0.1875
  9
$DIMEXO
 40
0.0625
  9
$DIMDLI
 40
0.4443307087
  9
$DIMRND
 40
0.0
  9
$DIMDLE
 40
0.0
  9
$DIMEXE
 40
0.125
  9
$DIMTP
 40
0.01
  9
$DIMTM
 40
0.01
  9
$DIMTXT
 40
1.0
  9
$DIMCEN
 40
0.1052362205
  9
$DIMTSZ
 40
0.0
  9
$DIMTOL
 70
     1
  9
$DIMLIM
 70
     0
  9
$DIMTIH
 70
     0
  9
$DIMTOH
 70
     1
  9
$DIMSE1
 70
     0
  9
$DIMSE2
 70
     0
  9
$DIMTAD
 70
     0
  9
$DIMZIN
 70
     0
  9
$DIMBLK
  1

  9
$DIMASO
 70
     1
  9
$DIMSHO
 70
     1
  9
$DIMPOST
  1
\X
  9
$DIMAPOST
  1

  9
$DIMALT
 70
     1
  9
$DIMALTD
 70
     2
  9
$DIMALTF
 40
25.3999999999999986
  9
$DIMLFAC
 40
1.0
  9
$DIMTOFL
 70
     0
  9
$DIMTVP
 40
0.0
  9
$DIMTIX
 70
     0
  9
$DIMSOXD
 70
     0
  9
$DIMSAH
 70
     0
  9
$DIMBLK1
  1

  9
$DIMBLK2
  1

  9
$DIMSTYLE
  2
STANDARD
  9
$DIMCLRD
 70
     0
  9
$DIMCLRE
 70
     0
  9
$DIMCLRT
 70
     0
  9
$DIMTFAC
 40
1.0
  9
$DIMGAP
 40
0.09
  9
$LUNITS
 70
     2
  9
$LUPREC
 70
     4
  9
$SKETCHINC
 40
0.1
  9
$FILLETRAD
 40
0.0
  9
$AUNITS
 70
     0
  9
$AUPREC
 70
     0
  9
$MENU
  1
.
  9
$ELEVATION
 40
0.0
  9
$PELEVATION
 40
0.0
  9
$THICKNESS
 40
0.0
  9
$LIMCHECK
 70
     0
  9
$BLIPMODE
 70
     0
  9
$CHAMFERA
 40
0.0
  9
$CHAMFERB
 40
0.0
  9
$SKPOLY
 70
     0
  9
$TDCREATE
 40
2458172.5207638889551163
  9
$TDUPDATE
 40
2459384.0214351858012378
  9
$TDINDWG
 40
0.3111314583
  9
$TDUSRTIMER
 40
0.3111314583
  9
$USRTIMER
 70
     1
  9
$ANGBASE
 50
0.0
  9
$ANGDIR
 70
     0
  9
$PDMODE
 70
     0
  9
$PDSIZE
 40
0.3125
  9
$PLINEWID
 40
0.0
  9
$COORDS
 70
     1
  9
$SPLFRAME
 70
     0
  9
$SPLINETYPE
 70
     6
  9
$SPLINESEGS
 70
     8
  9
$ATTDIA
 70
     1
  9
$ATTREQ
 70
     1
  9
$HANDLING
 70
     1
  9
$HANDSEED
  5
1085A
  9
$SURFTAB1
 70
     6
  9
$SURFTAB2
 70
     6
  9
$SURFTYPE
 70
     6
  9
$SURFU
 70
     6
  9
$SURFV
 70
     6
  9
$UCSNAME
  2

  9
$UCSORG
 10
0.0
 20
0.0
 30
0.0
  9
$UCSXDIR
 10
1.0
 20
0.0
 30
0.0
  9
$UCSYDIR
 10
0.0
 20
1.0
 30
0.0
  9
$PUCSNAME
  2

  9
$PUCSORG
 10
0.0
 20
0.0
 30
0.0
  9
$PUCSXDIR
 10
1.0
 20
0.0
 30
0.0
  9
$PUCSYDIR
 10
0.0
 20
1.0
 30
0.0
  9
$USERI1
 70
     0
  9
$USERI2
 70
     0
  9
$USERI3
 70
     0
  9
$USERI4
 70
     0
  9
$USERI5
 70
     0
  9
$USERR1
 40
0.0
  9
$USERR2
 40
0.0
  9
$USERR3
 40
0.0
  9
$USERR4
 40
0.0
  9
$USERR5
 40
0.0
  9
$WORLDVIEW
 70
     1
  9
$SHADEDGE
 70
     3
  9
$SHADEDIF
 70
    70
  9
$TILEMODE
 70
     1
  9
$MAXACTVP
 70
    64
  9
$PLIMCHECK
 70
     0
  9
$PEXTMIN
 10
1.0000000000000000E+20
 20
1.0000000000000000E+20
 30
1.0000000000000000E+20
  9
$PEXTMAX
 10
-1.0000000000000000E+20
 20
-1.0000000000000000E+20
 30
-1.0000000000000000E+20
  9
$PLIMMIN
 10
0.0
 20
0.0
  9
$PLIMMAX
 10
12.0
 20
9.0
  9
$UNITMODE
 70
     0
  9
$VISRETAIN
 70
     1
  9
$PLINEGEN
 70
     0
  9
$PSLTSCALE
 70
     1
  0
ENDSEC
  0
SECTION
  2
TABLES
  0
TABLE
  2
VPORT
 70
     1
  0
VPORT
  2
*ACTIVE
 70
     0
 10
0.0
 20
0.0
 11
1.0
 21
1.0
 12
29.7928780232082389
 22
13.1387551303393604
 13
0.0
 23
0.0
 14
1.0
 24
1.0
 15
0.0
 25
0.0
 16
0.0
 26
0.0
 36
14.6338572656650907
 17
429.6292891080536833
 27
69.7025415122186871
 37
0.0
 40
7.376999231947285
 41
1.619230769230769
 42
50.0
 43
0.0
 44
0.0
 50
0.0
 51
0.0
 71
     0
 72
   100
 73
     1
 74
     1
 75
     0
 76
     0
 77
     0
 78
     0
  0
ENDTAB
  0
TABLE
  2
LTYPE
 70
     2
  0
LTYPE
  2
CONTINUOUS
 70
     0
  3
Solid line
 72
    65
 73
     0
 40
0.0
  0
LTYPE
  2
PHANTOM2
 70
     0
  3
___ _ _ ___ _ _ ___ _ _ ___ _ _
 72
    65
 73
     6
 40
1.25
 49
0.625
 49
-0.125
 49
0.125
 49
-0.125
 49
0.125
 49
-0.125
  0
ENDTAB
  0
TABLE
  2
LAYER
 70
     2
  0
LAYER
  2
0
 70
     0
 62
   255
  6
CONTINUOUS
  0
LAYER
  2
DEFPOINTS
 70
     0
 62
     7
  6
CONTINUOUS
  0
ENDTAB
  0
TABLE
  2
STYLE
 70
     1
  0
STYLE
  2
STANDARD
 70
     0
 40
0.0
 41
0.8
 50
0.0
 71
     0
 42
0.2
  3
txt
  4

  0
ENDTAB
  0
TABLE
  2
VIEW
 70
     1
  0
ENDTAB
  0
TABLE
  2
UCS
 70
     0
  0
ENDTAB
  0
TABLE
  2
APPID
 70
    10
  0
APPID
  2
ACAD
 70
     0
  0
APPID
  2
ACAD_MLEADERVER
 70
     0
  0
APPID
  2
ACAD_EXEMPT_FROM_CAD_STANDARDS
 70
     0
  0
APPID
  2
ACAD_DSTYLE_DIMJAG
 70
     0
  0
APPID
  2
ACAD_DSTYLE_DIMTALN
 70
     0
  0
APPID
  2
ACAD_NAV_VCDISPLAY
 70
     0
  0
APPID
  2
ACAECLAYERSTANDARD
 70
     0
  0
APPID
  2
ACCMTRANSPARENCY
 70
     0
  0
APPID
  2
DCO15
 70
     0
  0
APPID
  2
ACDBATTR
 70
     0
  0
ENDTAB
  0
TABLE
  2
DIMSTYLE
 70
     1
  0
DIMSTYLE
  2
STANDARD
 70
     0
  3

  4

  5

  6

  7

 40
1.0
 41
0.1875
 42
0.0625
 43
0.38
 44
0.125
 45
0.0
 46
0.0
 47
0.01
 48
0.01
140
0.15625
141
0.09
142
0.0
143
25.3999999999999986
144
1.0
145
0.0
146
1.0
147
0.09
 71
     1
 72
     0
 73
     1
 74
     1
 75
     0
 76
     0
 77
     0
 78
     4
170
     0
171
     2
172
     0
173
     0
174
     0
175
     0
176
     0
177
     0
178
     0
  0
ENDTAB
  0
ENDSEC
  0
SECTION
  2
BLOCKS
  0
BLOCK
  8
0
  2
$MODEL_SPACE
 70
     0
 10
0.0
 20
0.0
 30
0.0
  3
$MODEL_SPACE
  1

  0
ENDBLK
  5
21
  8
0
  0
BLOCK
 67
     1
  8
0
  2
$PAPER_SPACE
 70
     0
 10
0.0
 20
0.0
 30
0.0
  3
$PAPER_SPACE
  1

  0
ENDBLK
  5
1D
 67
     1
  8
0
  0
ENDSEC
  0
SECTION
  2
ENTITIES
  0
ATTDEF
  5
E04D
  8
DEFPOINTS
 10
461.0702204173318819
 20
82.8427030450880864
 30
0.0
 40
0.001
  1
K-75411D
  3

  2
MODELNUMBER
 70
     0
1001
ACDBATTR
1070
     0
1070
     1
  0
ATTDEF
  5
E04E
  8
DEFPOINTS
 10
461.0702204173318819
 20
82.841036378421407
 30
0.0
 40
0.001
  1
MODULO
  3

  2
TRADENAME
 70
     0
1001
ACDBATTR
1070
     0
1070
     1
  0
ATTDEF
  5
E04F
  8
DEFPOINTS
 10
461.0702204173318819
 20
82.8393697117547561
 30
0.0
 40
0.001
  1
VALVE TRIM
  3

  2
PRODUCT
 70
     0
1001
ACDBATTR
1070
     0
1070
     1
  0
LINE
  5
107E4
  8
0
 10
461.067949259092984
 20
86.3854151949628886
 30
0.0
 11
461.0679492592685165
 21
86.3854151949628886
 31
0.0
  0
LINE
  5
107E5
  8
0
 10
460.477398077992973
 20
79.3483941866496991
 30
0.0
 11
460.477398077992973
 21
86.3358220300638237
 31
0.0
  0
LINE
  5
107E6
  8
0
 10
460.5063510930929738
 20
79.3184124618391024
 30
0.0
 11
461.067949259092984
 21
79.2988010217567592
 31
0.0
  0
ARC
  5
107E7
  8
0
 10
460.5073980779931162
 20
79.3483941866497133
 30
0.0
 40
0.03
 50
180.0000000000098055
 51
268.0000000019778099
  0
LINE
  5
107E8
  8
0
 10
461.067949259092984
 20
79.2988010217567592
 30
0.0
 11
461.067949259092984
 21
86.3854151949628886
 31
0.0
  0
LINE
  5
107E9
  8
0
 10
460.5063510930929738
 20
86.3658037548744204
 30
0.0
 11
461.067949259092984
 21
86.3854151949628886
 31
0.0
  0
ARC
  5
107EA
  8
0
 10
460.5073980779931162
 20
86.3358220300638237
 30
0.0
 40
0.03
 50
91.9999999980222327
 51
179.9999999999893987
  0
LINE
  5
107EB
  8
0
 10
459.6194295740929761
 20
83.7082498406598035
 30
0.0
 11
460.477398077992973
 21
83.7082498406598035
 31
0.0
  0
LINE
  5
107EC
  8
0
 10
459.6194295740929761
 20
81.9759663760598301
 30
0.0
 11
460.477398077992973
 21
81.9759663760598301
 31
0.0
  0
LINE
  5
107ED
  8
0
 10
457.7598901385908903
 20
81.8628603907603178
 30
0.0
 11
457.7597213840929271
 21
83.379479363268814
 31
0.0
  0
LINE
  5
107EE
  8
0
 10
459.6004295740930274
 20
83.6892498406598264
 30
0.0
 11
459.6004295740930274
 21
81.9949663760598213
 31
0.0
  0
ARC
  5
107EF
  8
0
 10
459.6194295740929761
 20
83.6892498406598264
 30
0.0
 40
0.0189999999999961
 50
90.0239128089161369
 51
180.0000000000057128
  0
ARC
  5
107F0
  8
0
 10
459.6194295740929761
 20
81.9949663760598213
 30
0.0
 40
0.019
 50
179.9999999999917861
 51
270.0
  0
LINE
  5
107F1
  8
0
 10
459.6004295740930274
 20
83.5606120453598038
 30
0.0
 11
459.5292484716929948
 21
83.5606120453598038
 31
0.0
  0
LINE
  5
107F2
  8
0
 10
459.6004295740930274
 20
82.1236041713598155
 30
0.0
 11
459.5292484716929948
 21
82.1236041713598155
 31
0.0
  0
LINE
  5
107F3
  8
0
 10
459.5292484716929948
 20
83.7082498406598035
 30
0.0
 11
459.5292484716929948
 21
81.9759663760598301
 31
0.0
  0
LINE
  5
107F4
  8
0
 10
459.6194295740929761
 20
83.7082498406598035
 30
0.0
 11
460.477398077992973
 21
83.7082498406598035
 31
0.0
  0
LINE
  5
107F5
  8
0
 10
458.4884514898354269
 20
81.9759663760598158
 30
0.0
 11
459.5292484716929948
 21
81.9759663760598443
 31
0.0
  0
ARC
  5
107F6
  8
0
 10
458.4614066689488823
 20
83.3936340359146868
 30
0.0
 40
0.7018280371580043
 50
154.0871895009327943
 51
181.1556363535190997
  0
ARC
  5
107F7
  8
0
 10
457.8459186584465215
 20
83.6885655036630141
 30
0.0
 40
0.0196843627792759
 50
90.0927266009320959
 51
143.2798365815382056
  0
ARC
  5
107F8
  8
0
 10
458.4812269840298882
 20
81.8530186952288261
 30
0.0
 40
0.7214039808309363
 50
179.2183227081681025
 51
205.5388514369425081
  0
ARC
  5
107F9
  8
0
 10
457.8475137072309167
 20
81.5554676768422269
 30
0.0
 40
0.0218459711875718
 50
218.0437040412001011
 51
265.7291345090736741
  0
LINE
  5
107FA
  8
0
 10
458.1288317689263749
 20
81.5476811532923307
 30
0.0
 11
458.1823759676344139
 21
81.7526331928783065
 31
0.0
  0
ARC
  5
107FB
  8
0
 10
458.1104877550857282
 20
81.5526723264087536
 30
0.0
 40
0.0190109087857739
 50
267.309809801847905
 51
344.779016273384002
  0
ARC
  5
107FC
  8
0
 10
458.4360755166350145
 20
81.7254196752147948
 30
0.0
 40
0.2467301059093442
 50
115.5809274178138963
 51
158.2205938930692923
  0
ARC
  5
107FD
  8
0
 10
458.4882209079511881
 20
81.5123677931086945
 30
0.0
 40
0.4635986402938162
 50
89.9715025762229885
 51
110.0157514457044954
  0
LINE
  5
107FE
  8
0
 10
458.2069571907285876
 20
81.8169649530608751
 30
0.0
 11
458.1823759676344139
 21
81.7526331928783065
 31
0.0
  0
LINE
  5
107FF
  8
0
 10
457.8458868015929966
 20
83.7082498406639672
 30
0.0
 11
457.8458868015929966
 21
81.5336823690598038
 31
0.0
  0
LINE
  5
10800
  8
0
 10
458.6301227795667046
 20
82.8421081083128854
 30
0.0
 11
459.5292484716929948
 21
82.8421081083128854
 31
0.0
  0
ARC
  5
10801
  8
0
 10
458.6811693091419215
 20
82.3124999924222749
 30
0.0
 40
0.5320625006508811
 50
95.5054740193338176
 51
180.913207852710201
  0
LINE
  5
10802
  8
0
 10
458.6301227795671025
 20
82.8421081083128854
 30
0.0
 11
459.5292484716929948
 21
82.8421081083128854
 31
0.0
  0
LINE
  5
10803
  8
0
 10
458.1491743883796062
 20
82.3040200819264953
 30
0.0
 11
458.1288317689263749
 21
81.5476811532923307
 31
0.0
  0
LINE
  5
10805
  8
0
 10
457.8458868015929966
 20
83.7082498390050347
 30
0.0
 11
459.5292484716929948
 21
83.7082498390050347
 31
0.0
  0
LINE
  5
10806
  8
0
 10
459.6194216443054756
 20
83.7082498390050347
 30
0.0
 11
460.477398077992973
 21
83.7082498390050347
 31
0.0
  0
LINE
  5
10807
  8
0
 10
458.109595469969122
 20
81.5336823690598038
 30
0.0
 11
457.8458868015902112
 21
81.5336823690598038
 31
0.0
  0
ENDSEC
  0
EOF
