  0
SECTION
  2
HEADER
  9
$ACADVER
  1
AC1009
  9
$INSBASE
 10
1043.2848164778060891
 20
143.9634168543985027
 30
0.0
  9
$EXTMIN
 10
1013.6870494057050109
 20
128.9997647457909977
 30
-0.0015258207003583
  9
$EXTMAX
 10
1072.8295458270140443
 20
146.0029330760532105
 30
0.0000000349246037
  9
$LIMMIN
 10
0.0
 20
0.0
  9
$LIMMAX
 10
11.6929133858000007
 20
8.2677165353999982
  9
$ORTHOMODE
 70
     0
  9
$REGENMODE
 70
     1
  9
$FILLMODE
 70
     1
  9
$QTEXTMODE
 70
     0
  9
$MIRRTEXT
 70
     0
  9
$DRAGMODE
 70
     2
  9
$LTSCALE
 40
0.6431102362
  9
$OSMODE
 70
  4095
  9
$ATTMODE
 70
     1
  9
$TEXTSIZE
 40
0.2
  9
$TRACEWID
 40
0.05
  9
$TEXTSTYLE
  7
STANDARD
  9
$CLAYER
  8
0
  9
$CELTYPE
  6
BYLAYER
  9
$CECOLOR
 62
   256
  9
$DIMSCALE
 40
1.0
  9
$DIMASZ
 40
0.1875
  9
$DIMEXO
 40
0.0625
  9
$DIMDLI
 40
0.4443307087
  9
$DIMRND
 40
0.0
  9
$DIMDLE
 40
0.0
  9
$DIMEXE
 40
0.125
  9
$DIMTP
 40
0.01
  9
$DIMTM
 40
0.01
  9
$DIMTXT
 40
1.0
  9
$DIMCEN
 40
0.1052362205
  9
$DIMTSZ
 40
0.0
  9
$DIMTOL
 70
     1
  9
$DIMLIM
 70
     0
  9
$DIMTIH
 70
     0
  9
$DIMTOH
 70
     1
  9
$DIMSE1
 70
     0
  9
$DIMSE2
 70
     0
  9
$DIMTAD
 70
     0
  9
$DIMZIN
 70
     0
  9
$DIMBLK
  1

  9
$DIMASO
 70
     1
  9
$DIMSHO
 70
     1
  9
$DIMPOST
  1
\X
  9
$DIMAPOST
  1

  9
$DIMALT
 70
     1
  9
$DIMALTD
 70
     2
  9
$DIMALTF
 40
25.3999999999999986
  9
$DIMLFAC
 40
1.0
  9
$DIMTOFL
 70
     0
  9
$DIMTVP
 40
0.0
  9
$DIMTIX
 70
     0
  9
$DIMSOXD
 70
     0
  9
$DIMSAH
 70
     0
  9
$DIMBLK1
  1

  9
$DIMBLK2
  1

  9
$DIMSTYLE
  2
STANDARD
  9
$DIMCLRD
 70
     0
  9
$DIMCLRE
 70
     0
  9
$DIMCLRT
 70
     0
  9
$DIMTFAC
 40
1.0
  9
$DIMGAP
 40
0.09
  9
$LUNITS
 70
     2
  9
$LUPREC
 70
     4
  9
$SKETCHINC
 40
0.1
  9
$FILLETRAD
 40
0.0
  9
$AUNITS
 70
     0
  9
$AUPREC
 70
     0
  9
$MENU
  1
.
  9
$ELEVATION
 40
0.0
  9
$PELEVATION
 40
0.0
  9
$THICKNESS
 40
0.0
  9
$LIMCHECK
 70
     0
  9
$BLIPMODE
 70
     0
  9
$CHAMFERA
 40
0.0
  9
$CHAMFERB
 40
0.0
  9
$SKPOLY
 70
     0
  9
$TDCREATE
 40
2458172.5207638889551163
  9
$TDUPDATE
 40
2459132.7435763888061047
  9
$TDINDWG
 40
0.4498965509
  9
$TDUSRTIMER
 40
0.4498965509
  9
$USRTIMER
 70
     1
  9
$ANGBASE
 50
0.0
  9
$ANGDIR
 70
     0
  9
$PDMODE
 70
     0
  9
$PDSIZE
 40
0.3125
  9
$PLINEWID
 40
0.0
  9
$COORDS
 70
     1
  9
$SPLFRAME
 70
     0
  9
$SPLINETYPE
 70
     6
  9
$SPLINESEGS
 70
     8
  9
$ATTDIA
 70
     1
  9
$ATTREQ
 70
     1
  9
$HANDLING
 70
     1
  9
$HANDSEED
  5
B6BD
  9
$SURFTAB1
 70
     6
  9
$SURFTAB2
 70
     6
  9
$SURFTYPE
 70
     6
  9
$SURFU
 70
     6
  9
$SURFV
 70
     6
  9
$UCSNAME
  2

  9
$UCSORG
 10
0.0
 20
0.0
 30
0.0
  9
$UCSXDIR
 10
1.0
 20
0.0
 30
0.0
  9
$UCSYDIR
 10
0.0
 20
1.0
 30
0.0
  9
$PUCSNAME
  2

  9
$PUCSORG
 10
0.0
 20
0.0
 30
0.0
  9
$PUCSXDIR
 10
1.0
 20
0.0
 30
0.0
  9
$PUCSYDIR
 10
0.0
 20
1.0
 30
0.0
  9
$USERI1
 70
     0
  9
$USERI2
 70
     0
  9
$USERI3
 70
     0
  9
$USERI4
 70
     0
  9
$USERI5
 70
     0
  9
$USERR1
 40
0.0
  9
$USERR2
 40
0.0
  9
$USERR3
 40
0.0
  9
$USERR4
 40
0.0
  9
$USERR5
 40
0.0
  9
$WORLDVIEW
 70
     1
  9
$SHADEDGE
 70
     3
  9
$SHADEDIF
 70
    70
  9
$TILEMODE
 70
     1
  9
$MAXACTVP
 70
    64
  9
$PLIMCHECK
 70
     0
  9
$PEXTMIN
 10
1.0000000000000000E+20
 20
1.0000000000000000E+20
 30
1.0000000000000000E+20
  9
$PEXTMAX
 10
-1.0000000000000000E+20
 20
-1.0000000000000000E+20
 30
-1.0000000000000000E+20
  9
$PLIMMIN
 10
0.0
 20
0.0
  9
$PLIMMAX
 10
12.0
 20
9.0
  9
$UNITMODE
 70
     0
  9
$VISRETAIN
 70
     1
  9
$PLINEGEN
 70
     0
  9
$PSLTSCALE
 70
     1
  0
ENDSEC
  0
SECTION
  2
TABLES
  0
TABLE
  2
VPORT
 70
     1
  0
VPORT
  2
*ACTIVE
 70
     0
 10
0.0
 20
0.0
 11
1.0
 21
1.0
 12
576.5160959085294508
 22
48.368201790992309
 13
0.0
 23
0.0
 14
1.0
 24
1.0
 15
0.0
 25
0.0
 16
0.0
 26
0.0
 36
24.1179433675886514
 17
466.74220170783002
 27
89.133147119929788
 37
0.0
 40
22.8017948394053995
 41
2.6055226824457591
 42
50.0
 43
0.0
 44
0.0
 50
0.0
 51
0.0
 71
     0
 72
   100
 73
     1
 74
     1
 75
     0
 76
     0
 77
     0
 78
     0
  0
ENDTAB
  0
TABLE
  2
LTYPE
 70
     3
  0
LTYPE
  2
CONTINUOUS
 70
     0
  3
Solid line
 72
    65
 73
     0
 40
0.0
  0
LTYPE
  2
PHANTOM2
 70
     0
  3
___ _ _ ___ _ _ ___ _ _ ___ _ _
 72
    65
 73
     6
 40
1.25
 49
0.625
 49
-0.125
 49
0.125
 49
-0.125
 49
0.125
 49
-0.125
  0
ENDTAB
  0
TABLE
  2
LAYER
 70
     2
  0
LAYER
  2
0
 70
     0
 62
   255
  6
CONTINUOUS
  0
LAYER
  2
DEFPOINTS
 70
     0
 62
     7
  6
CONTINUOUS
  0
ENDTAB
  0
TABLE
  2
STYLE
 70
     1
  0
STYLE
  2
STANDARD
 70
     0
 40
0.0
 41
0.8
 50
0.0
 71
     0
 42
0.2
  3
txt
  4

  0
ENDTAB
  0
TABLE
  2
VIEW
 70
     0
  0
ENDTAB
  0
TABLE
  2
UCS
 70
     0
  0
ENDTAB
  0
TABLE
  2
APPID
 70
    11
  0
APPID
  2
ACAD
 70
     0
  0
APPID
  2
ACAD_MLEADERVER
 70
     0
  0
APPID
  2
ACAD_EXEMPT_FROM_CAD_STANDARDS
 70
     0
  0
APPID
  2
ACAD_DSTYLE_DIMJAG
 70
     0
  0
APPID
  2
ACAD_DSTYLE_DIMTALN
 70
     0
  0
APPID
  2
ACAD_NAV_VCDISPLAY
 70
     0
  0
APPID
  2
ACAECLAYERSTANDARD
 70
     0
  0
APPID
  2
ACCMTRANSPARENCY
 70
     0
  0
APPID
  2
DCO15
 70
     0
  0
APPID
  2
ACDBATTR
 70
     0
  0
APPID
  2
ACADANNOTATIVE
 70
     0
  0
ENDTAB
  0
TABLE
  2
DIMSTYLE
 70
     2
  0
DIMSTYLE
  2
STANDARD
 70
     0
  3

  4

  5

  6

  7

 40
1.0
 41
0.1875
 42
0.0625
 43
0.38
 44
0.125
 45
0.0
 46
0.0
 47
0.01
 48
0.01
140
0.15625
141
0.09
142
0.0
143
25.3999999999999986
144
1.0
145
0.0
146
1.0
147
0.09
 71
     1
 72
     0
 73
     1
 74
     1
 75
     0
 76
     0
 77
     0
 78
     4
170
     0
171
     2
172
     0
173
     0
174
     0
175
     0
176
     0
177
     0
178
     0
  0
ENDTAB
  0
ENDSEC
  0
SECTION
  2
BLOCKS
  0
BLOCK
  8
0
  2
$MODEL_SPACE
 70
     0
 10
0.0
 20
0.0
 30
0.0
  3
$MODEL_SPACE
  1

  0
ENDBLK
  5
21
  8
0
  0
BLOCK
 67
     1
  8
0
  2
$PAPER_SPACE
 70
     0
 10
0.0
 20
0.0
 30
0.0
  3
$PAPER_SPACE
  1

  0
ENDBLK
  5
1D
 67
     1
  8
0
  0
ENDSEC
  0
SECTION
  2
ENTITIES
  0
ATTDEF
  5
829
  8
DEFPOINTS
 10
1043.2803522647570844
 20
143.9677353793159114
 30
0.0
 40
0.001
  1
K-75420T
  3

  2
MODELNUMBER
 70
     0
1001
ACDBATTR
1070
     0
1070
     1
  0
ATTDEF
  5
82A
  8
DEFPOINTS
 10
1043.2803522647570844
 20
143.9660687126491894
 30
0.0
 40
0.001
  1
STRUKTURA
  3

  2
TRADENAME
 70
     0
1001
ACDBATTR
1070
     0
1070
     1
  0
ATTDEF
  5
82B
  8
DEFPOINTS
 10
1043.2803522647570844
 20
143.9644020459826095
 30
0.0
 40
0.001
  1
BATH
  3

  2
PRODUCT
 70
     0
1001
ACDBATTR
1070
     0
1070
     1
  0
LINE
  5
B4F3
  8
0
 10
1013.7572574231460294
 20
143.9689128381793068
 30
0.0
 11
1013.9146418054459673
 21
143.9634168543985027
 31
0.0
  0
LINE
  5
B4F4
  8
0
 10
1072.6549803714119662
 20
143.9634168543985027
 30
0.0
 11
1072.8123755330170752
 21
143.9689128381984915
 31
0.0
  0
LINE
  5
B4F5
  8
0
 10
1072.8123755330170752
 20
143.9689128381984915
 30
0.0
 11
1072.7792349000369541
 21
144.9175100343126985
 31
0.0
  0
LINE
  5
B4F6
  8
0
 10
1068.4905286249170331
 20
143.9634168543985027
 30
0.0
 11
1066.8228470709839257
 21
132.0971771420460072
 31
0.0
  0
ARC
  5
B4F7
  8
0
 10
1065.1013563205081027
 20
132.3119583887466888
 30
0.0
 40
1.734837568162289
 50
275.3765947299359027
 51
352.8882593156495204
  0
LINE
  5
B4F8
  8
0
 10
1065.2622293725989948
 20
130.6125937432796889
 30
0.0
 11
1065.2853075643170087
 21
130.2310692698985122
 31
0.0
  0
ARC
  5
B4F9
  8
0
 10
1061.6474258872169685
 20
130.3468381775998921
 30
0.0
 40
0.3149606299014368
 50
282.5487461276634917
 51
295.0974922552567818
  0
ARC
  5
B4FA
  8
0
 10
1061.6474258872169685
 20
130.3468381775983005
 30
0.0
 40
0.314960629899794
 50
269.9999999999935199
 51
282.5487461276567842
  0
LINE
  5
B4FB
  8
0
 10
1061.6474258872169685
 20
130.0318775476985138
 30
0.0
 11
1061.4764401411630388
 21
130.0318775476985138
 31
0.0
  0
LINE
  5
B4FC
  8
0
 10
1059.1142354167629946
 20
130.0318775476985138
 30
0.0
 11
1058.9432411824170686
 21
130.0318775476985138
 31
0.0
  0
ARC
  5
B4FD
  8
0
 10
1058.9432411824170686
 20
130.3468381775986131
 30
0.0
 40
0.3149606299000407
 50
246.2879513907010107
 51
270.0
  0
LINE
  5
B4FF
  8
0
 10
1061.4764401411630388
 20
130.0686796531886955
 30
0.0
 11
1061.4764401411630388
 21
129.0082392713584909
 31
0.0
  0
LINE
  5
B500
  8
0
 10
1059.1142354167629946
 20
129.0082392713584909
 30
0.0
 11
1059.1142354167629946
 21
130.0557991515495075
 31
0.0
  0
LINE
  5
B503
  8
0
 10
1034.7047865980130155
 20
130.9108255323621961
 30
0.0
 11
1034.7047865980130155
 21
129.0082392713584909
 31
0.0
  0
LINE
  5
B504
  8
0
 10
1032.3425818735129269
 20
129.0082392713584909
 30
0.0
 11
1032.3425818735129269
 21
130.993719665838114
 31
0.0
  0
LINE
  5
B505
  8
0
 10
1026.633778119462022
 20
131.19307548583879
 30
0.0
 11
1033.7638536157619455
 21
130.9440877629340036
 31
0.0
  0
LINE
  5
B506
  8
0
 10
1026.6337781195620664
 20
131.19307548583879
 30
0.0
 11
1026.6460524598201118
 21
131.547193546488586
 31
0.0
  0
ARC
  5
B507
  8
0
 10
1026.7066048566259724
 20
133.2784239085991089
 30
0.0
 40
1.732288994207468
 50
209.0000756228884882
 51
267.9968101759275783
  0
LINE
  5
B508
  8
0
 10
1025.1915118722990883
 20
132.4385915394364019
 30
0.0
 11
1018.8032152337459593
 21
143.9634168543985027
 31
0.0
  0
LINE
  5
B509
  8
0
 10
1026.6460524598201118
 20
131.547193546488586
 30
0.0
 11
1027.2630895934619275
 21
131.5256461338387908
 31
0.0
  0
LINE
  5
B50A
  8
0
 10
1027.2630895934619275
 20
131.5256461338387908
 30
0.0
 11
1040.787730210276095
 21
131.0533552815035137
 31
0.0
  0
LINE
  5
B50B
  8
0
 10
1040.787730210276095
 20
131.0533552815035137
 30
0.0
 11
1042.5253209101629182
 21
130.9926775296584935
 31
0.0
  0
LINE
  5
B50C
  8
0
 10
1042.5253209101629182
 20
130.9926775296584935
 30
0.0
 11
1057.5339318532169273
 21
130.468580818098502
 31
0.0
  0
ARC
  5
B50D
  8
0
 10
1058.4829675967930598
 20
241.3471070606769899
 30
0.0
 40
110.9388838970681945
 50
271.1561537179866832
 51
273.3157363830940767
  0
ARC
  5
B50E
  8
0
 10
1059.3345371253440135
 20
217.864791116828286
 30
0.0
 40
87.8372541758181029
 50
271.5960340175140004
 51
271.7500856171513988
  0
ARC
  5
B50F
  8
0
 10
1059.947246375666964
 20
195.9300832422385099
 30
0.0
 40
65.8940907613369404
 50
271.8000501792899968
 51
272.7066489929421209
  0
ARC
  5
B510
  8
0
 10
1057.1545367245898888
 20
256.8966742240440908
 30
0.0
 40
126.9245773602912948
 50
272.6662956940787126
 51
273.2304430631053265
  0
ARC
  5
B511
  8
0
 10
1051.6125443639530204
 20
355.3543870619990912
 30
0.0
 40
225.5381401609411114
 50
273.2266062589641251
 51
273.4755641091820735
  0
ARC
  5
B512
  8
0
 10
1067.8684225271908872
 20
76.3990993104842033
 30
0.0
 40
54.2761017518188069
 50
92.7522483176448418
 51
93.1356911736512245
  0
LINE
  5
B513
  8
0
 10
1013.7572574231460294
 20
143.9689128381793068
 30
0.0
 11
1013.7572574225960125
 21
143.9689128381984915
 31
0.0
  0
LINE
  5
B514
  8
0
 10
1013.7572574225960125
 20
143.9689128381984915
 30
0.0
 11
1013.7903830343459504
 21
144.917506260131205
 31
0.0
  0
ARC
  5
B515
  8
0
 10
1031.769333092126999
 20
-375.1011875025769768
 30
0.0
 40
520.3016999856409939
 50
89.2016059304189355
 51
90.7983940695810645
  0
ARC
  5
B516
  8
0
 10
1015.1177930796900455
 20
145.5445230568946045
 30
0.0
 40
0.3958464371598666
 50
274.6845589622222974
 51
357.8939696562338213
  0
LINE
  5
B517
  8
0
 10
1015.5133721350580345
 20
145.5299761408383006
 30
0.0
 11
1015.5165692204459447
 21
145.6226977184985003
 31
0.0
  0
ARC
  5
B518
  8
0
 10
1015.9114335323349678
 20
145.6074822425138962
 30
0.0
 40
0.3951573553825518
 50
87.2794938698061742
 51
177.793288901009106
  0
LINE
  5
B519
  8
0
 10
1015.9301892612379561
 20
146.0021942364363952
 30
0.0
 11
1017.6805188436460412
 21
145.9410713805984869
 31
0.0
  0
ARC
  5
B51A
  8
0
 10
1017.6668337805519968
 20
145.5473209546406963
 30
0.0
 40
0.3939881710074704
 50
31.7693872281639003
 51
88.0094475679323978
  0
LINE
  5
B51B
  8
0
 10
1018.001792327445969
 20
145.7547563680984979
 30
0.0
 11
1018.3783747120149883
 21
145.1499989713574905
 31
0.0
  0
ARC
  5
B51C
  8
0
 10
1013.9779246361459855
 20
139.2999274763785138
 30
0.0
 40
4.6666894964174217
 50
87.8780212938425933
 51
90.3264932256591777
  0
ARC
  5
B51D
  8
0
 10
1013.9609713092560241
 20
143.4420321016075093
 30
0.0
 40
0.5245976673965687
 50
91.0528282850377622
 51
94.3064516724434156
  0
ARC
  5
B51E
  8
0
 10
1013.9217369646560201
 20
143.9497556827938922
 30
0.0
 40
0.0153937946029629
 50
90.588925729292896
 51
117.4458715898603032
  0
LINE
  5
B51F
  8
0
 10
1060.7214169215169477
 20
130.430808416393802
 30
0.0
 11
1057.5339318532169273
 21
130.468580818098502
 31
0.0
  0
LINE
  5
B520
  8
0
 10
1061.4764401411630388
 20
130.0686796531886955
 30
0.0
 11
1059.1142354167629946
 21
130.0557991515495075
 31
0.0
  0
LINE
  5
B522
  8
0
 10
1014.1507183775460135
 20
143.9634168543985027
 30
0.0
 11
1072.6549803714119662
 21
143.9634168543985027
 31
0.0
  0
LINE
  5
B523
  8
0
 10
1072.5384817816359373
 20
145.1499989713574905
 30
0.0
 11
1039.019297258350889
 21
145.1499989713574905
 31
0.0
  0
ARC
  5
B524
  8
0
 10
1072.5384817816359373
 20
144.9090989713573947
 30
0.0
 40
0.2409
 50
2.0008982049683861
 51
90.0
  0
LINE
  5
B525
  8
0
 10
1024.5193689259040184
 20
145.1499989713574905
 30
0.0
 11
1014.0311362845740177
 21
145.1499989713574905
 31
0.0
  0
ARC
  5
B526
  8
0
 10
1014.0311362845740177
 20
144.9090989713575084
 30
0.0
 40
0.2409
 50
90.0
 51
177.9999999956800139
  0
LINE
  5
B527
  8
0
 10
1059.1142354167629946
 20
129.0082392713584909
 30
0.0
 11
1061.4764401411630388
 21
129.0082392713584909
 31
0.0
  0
LINE
  5
B528
  8
0
 10
1034.7047865980130155
 20
129.0082392713584909
 30
0.0
 11
1032.3425818735129269
 21
129.0082392713584909
 31
0.0
  0
LINE
  5
B572
  8
0
 10
1033.7638536157619455
 20
130.9440877629340036
 30
0.0
 11
1058.8165828137530298
 21
130.0584671387709079
 31
0.0
  0
ENDSEC
  0
EOF
