  0
SECTION
  2
HEADER
  9
$ACADVER
  1
AC1009
  9
$INSBASE
 10
1104.8079714278580923
 20
127.9064776414746945
 30
0.0
  9
$EXTMIN
 10
1075.1768049543989036
 20
127.9052913725744958
 30
-0.0000000349181948
  9
$EXTMAX
 10
1134.4248755332669134
 20
149.0040545366323101
 30
0.0000000814935746
  9
$LIMMIN
 10
0.0
 20
0.0
  9
$LIMMAX
 10
11.6929133858000007
 20
8.2677165353999982
  9
$ORTHOMODE
 70
     0
  9
$REGENMODE
 70
     1
  9
$FILLMODE
 70
     1
  9
$QTEXTMODE
 70
     0
  9
$MIRRTEXT
 70
     0
  9
$DRAGMODE
 70
     2
  9
$LTSCALE
 40
0.6431102362
  9
$OSMODE
 70
  4095
  9
$ATTMODE
 70
     1
  9
$TEXTSIZE
 40
0.2
  9
$TRACEWID
 40
0.05
  9
$TEXTSTYLE
  7
STANDARD
  9
$CLAYER
  8
0
  9
$CELTYPE
  6
BYLAYER
  9
$CECOLOR
 62
   256
  9
$DIMSCALE
 40
1.0
  9
$DIMASZ
 40
0.1875
  9
$DIMEXO
 40
0.0625
  9
$DIMDLI
 40
0.4443307087
  9
$DIMRND
 40
0.0
  9
$DIMDLE
 40
0.0
  9
$DIMEXE
 40
0.125
  9
$DIMTP
 40
0.01
  9
$DIMTM
 40
0.01
  9
$DIMTXT
 40
1.0
  9
$DIMCEN
 40
0.1052362205
  9
$DIMTSZ
 40
0.0
  9
$DIMTOL
 70
     1
  9
$DIMLIM
 70
     0
  9
$DIMTIH
 70
     0
  9
$DIMTOH
 70
     1
  9
$DIMSE1
 70
     0
  9
$DIMSE2
 70
     0
  9
$DIMTAD
 70
     0
  9
$DIMZIN
 70
     0
  9
$DIMBLK
  1

  9
$DIMASO
 70
     1
  9
$DIMSHO
 70
     1
  9
$DIMPOST
  1
\X
  9
$DIMAPOST
  1

  9
$DIMALT
 70
     1
  9
$DIMALTD
 70
     2
  9
$DIMALTF
 40
25.3999999999999986
  9
$DIMLFAC
 40
1.0
  9
$DIMTOFL
 70
     0
  9
$DIMTVP
 40
0.0
  9
$DIMTIX
 70
     0
  9
$DIMSOXD
 70
     0
  9
$DIMSAH
 70
     0
  9
$DIMBLK1
  1

  9
$DIMBLK2
  1

  9
$DIMSTYLE
  2
STANDARD
  9
$DIMCLRD
 70
     0
  9
$DIMCLRE
 70
     0
  9
$DIMCLRT
 70
     0
  9
$DIMTFAC
 40
1.0
  9
$DIMGAP
 40
0.09
  9
$LUNITS
 70
     2
  9
$LUPREC
 70
     4
  9
$SKETCHINC
 40
0.1
  9
$FILLETRAD
 40
0.0
  9
$AUNITS
 70
     0
  9
$AUPREC
 70
     0
  9
$MENU
  1
.
  9
$ELEVATION
 40
0.0
  9
$PELEVATION
 40
0.0
  9
$THICKNESS
 40
0.0
  9
$LIMCHECK
 70
     0
  9
$BLIPMODE
 70
     0
  9
$CHAMFERA
 40
0.0
  9
$CHAMFERB
 40
0.0
  9
$SKPOLY
 70
     0
  9
$TDCREATE
 40
2458172.5207638889551163
  9
$TDUPDATE
 40
2459132.7333101858384907
  9
$TDINDWG
 40
0.4477669213
  9
$TDUSRTIMER
 40
0.4477669213
  9
$USRTIMER
 70
     1
  9
$ANGBASE
 50
0.0
  9
$ANGDIR
 70
     0
  9
$PDMODE
 70
     0
  9
$PDSIZE
 40
0.3125
  9
$PLINEWID
 40
0.0
  9
$COORDS
 70
     1
  9
$SPLFRAME
 70
     0
  9
$SPLINETYPE
 70
     6
  9
$SPLINESEGS
 70
     8
  9
$ATTDIA
 70
     1
  9
$ATTREQ
 70
     1
  9
$HANDLING
 70
     1
  9
$HANDSEED
  5
B6FB
  9
$SURFTAB1
 70
     6
  9
$SURFTAB2
 70
     6
  9
$SURFTYPE
 70
     6
  9
$SURFU
 70
     6
  9
$SURFV
 70
     6
  9
$UCSNAME
  2

  9
$UCSORG
 10
0.0
 20
0.0
 30
0.0
  9
$UCSXDIR
 10
1.0
 20
0.0
 30
0.0
  9
$UCSYDIR
 10
0.0
 20
1.0
 30
0.0
  9
$PUCSNAME
  2

  9
$PUCSORG
 10
0.0
 20
0.0
 30
0.0
  9
$PUCSXDIR
 10
1.0
 20
0.0
 30
0.0
  9
$PUCSYDIR
 10
0.0
 20
1.0
 30
0.0
  9
$USERI1
 70
     0
  9
$USERI2
 70
     0
  9
$USERI3
 70
     0
  9
$USERI4
 70
     0
  9
$USERI5
 70
     0
  9
$USERR1
 40
0.0
  9
$USERR2
 40
0.0
  9
$USERR3
 40
0.0
  9
$USERR4
 40
0.0
  9
$USERR5
 40
0.0
  9
$WORLDVIEW
 70
     1
  9
$SHADEDGE
 70
     3
  9
$SHADEDIF
 70
    70
  9
$TILEMODE
 70
     1
  9
$MAXACTVP
 70
    64
  9
$PLIMCHECK
 70
     0
  9
$PEXTMIN
 10
1.0000000000000000E+20
 20
1.0000000000000000E+20
 30
1.0000000000000000E+20
  9
$PEXTMAX
 10
-1.0000000000000000E+20
 20
-1.0000000000000000E+20
 30
-1.0000000000000000E+20
  9
$PLIMMIN
 10
0.0
 20
0.0
  9
$PLIMMAX
 10
12.0
 20
9.0
  9
$UNITMODE
 70
     0
  9
$VISRETAIN
 70
     1
  9
$PLINEGEN
 70
     0
  9
$PSLTSCALE
 70
     1
  0
ENDSEC
  0
SECTION
  2
TABLES
  0
TABLE
  2
VPORT
 70
     1
  0
VPORT
  2
*ACTIVE
 70
     0
 10
0.0
 20
0.0
 11
1.0
 21
1.0
 12
638.0586385360028316
 22
49.3215258346736221
 13
0.0
 23
0.0
 14
1.0
 24
1.0
 15
0.0
 25
0.0
 16
0.0
 26
0.0
 36
24.1179433675886514
 17
466.74220170783002
 27
89.133147119929788
 37
0.0
 40
22.8424978943433601
 41
2.6055226824457591
 42
50.0
 43
0.0
 44
0.0
 50
0.0
 51
0.0
 71
     0
 72
   100
 73
     1
 74
     1
 75
     0
 76
     0
 77
     0
 78
     0
  0
ENDTAB
  0
TABLE
  2
LTYPE
 70
     2
  0
LTYPE
  2
CONTINUOUS
 70
     0
  3
Solid line
 72
    65
 73
     0
 40
0.0
  0
LTYPE
  2
PHANTOM2
 70
     0
  3
___ _ _ ___ _ _ ___ _ _ ___ _ _
 72
    65
 73
     6
 40
1.25
 49
0.625
 49
-0.125
 49
0.125
 49
-0.125
 49
0.125
 49
-0.125
  0
ENDTAB
  0
TABLE
  2
LAYER
 70
     2
  0
LAYER
  2
0
 70
     0
 62
   255
  6
CONTINUOUS
  0
LAYER
  2
DEFPOINTS
 70
     0
 62
     7
  6
CONTINUOUS
  0
ENDTAB
  0
TABLE
  2
STYLE
 70
     1
  0
STYLE
  2
STANDARD
 70
     0
 40
0.0
 41
0.8
 50
0.0
 71
     0
 42
0.2
  3
txt
  4

  0
ENDTAB
  0
TABLE
  2
VIEW
 70
     0
  0
ENDTAB
  0
TABLE
  2
UCS
 70
     0
  0
ENDTAB
  0
TABLE
  2
APPID
 70
    11
  0
APPID
  2
ACAD
 70
     0
  0
APPID
  2
ACAD_MLEADERVER
 70
     0
  0
APPID
  2
ACAD_EXEMPT_FROM_CAD_STANDARDS
 70
     0
  0
APPID
  2
ACAD_DSTYLE_DIMJAG
 70
     0
  0
APPID
  2
ACAD_DSTYLE_DIMTALN
 70
     0
  0
APPID
  2
ACAD_NAV_VCDISPLAY
 70
     0
  0
APPID
  2
ACAECLAYERSTANDARD
 70
     0
  0
APPID
  2
ACCMTRANSPARENCY
 70
     0
  0
APPID
  2
DCO15
 70
     0
  0
APPID
  2
ACDBATTR
 70
     0
  0
APPID
  2
ACADANNOTATIVE
 70
     0
  0
ENDTAB
  0
TABLE
  2
DIMSTYLE
 70
     1
  0
DIMSTYLE
  2
STANDARD
 70
     0
  3

  4

  5

  6

  7

 40
1.0
 41
0.1875
 42
0.0625
 43
0.38
 44
0.125
 45
0.0
 46
0.0
 47
0.01
 48
0.01
140
0.15625
141
0.09
142
0.0
143
25.3999999999999986
144
1.0
145
0.0
146
1.0
147
0.09
 71
     1
 72
     0
 73
     1
 74
     1
 75
     0
 76
     0
 77
     0
 78
     4
170
     0
171
     2
172
     0
173
     0
174
     0
175
     0
176
     0
177
     0
178
     0
  0
ENDTAB
  0
ENDSEC
  0
SECTION
  2
BLOCKS
  0
BLOCK
  8
0
  2
$MODEL_SPACE
 70
     0
 10
0.0
 20
0.0
 30
0.0
  3
$MODEL_SPACE
  1

  0
ENDBLK
  5
21
  8
0
  0
BLOCK
 67
     1
  8
0
  2
$PAPER_SPACE
 70
     0
 10
0.0
 20
0.0
 30
0.0
  3
$PAPER_SPACE
  1

  0
ENDBLK
  5
1D
 67
     1
  8
0
  0
ENDSEC
  0
SECTION
  2
ENTITIES
  0
ATTDEF
  5
829
  8
DEFPOINTS
 10
1104.8041895354178905
 20
127.9104701656005005
 30
0.0
 40
0.001
  1
K-75421T
  3

  2
MODELNUMBER
 70
     0
1001
ACDBATTR
1070
     0
1070
     1
  0
ATTDEF
  5
82A
  8
DEFPOINTS
 10
1104.8041895354178905
 20
127.908803498933807
 30
0.0
 40
0.001
  1
STRUKTURA
  3

  2
TRADENAME
 70
     0
1001
ACDBATTR
1070
     0
1070
     1
  0
ATTDEF
  5
82B
  8
DEFPOINTS
 10
1104.8041895354178905
 20
127.9071368322671987
 30
0.0
 40
0.001
  1
BATH
  3

  2
PRODUCT
 70
     0
1001
ACDBATTR
1070
     0
1070
     1
  0
LINE
  5
B5F4
  8
0
 10
1075.339467490845891
 20
146.567495752341614
 30
0.0
 11
1075.339467490845891
 21
129.5604201610746884
 31
0.0
  0
LINE
  5
B5F5
  8
0
 10
1134.3945856010459465
 20
129.3435201610747072
 30
0.0
 11
1134.3945856010459465
 21
146.7843957523415952
 31
0.0
  0
LINE
  5
B5F6
  8
0
 10
1076.408150408946085
 20
148.1269854612746997
 30
0.0
 11
1107.3735323836729094
 21
148.1269854612746997
 31
0.0
  0
LINE
  5
B5F7
  8
0
 10
1075.2213572546691012
 20
146.9615957523415943
 30
0.0
 11
1134.2764753648089027
 21
146.9615957523415943
 31
0.0
  0
LINE
  5
B5F8
  8
0
 10
1075.2213572546691012
 20
146.9615957523415943
 30
0.0
 11
1075.2543093730389501
 21
147.905220959698795
 31
0.0
  0
ARC
  5
B5F9
  8
0
 10
1075.7335674908460987
 20
146.567495752341614
 30
0.0
 40
0.3941
 50
90.0
 51
180.0
  0
LINE
  5
B5FA
  8
0
 10
1075.7335674908460987
 20
129.166320161074708
 30
0.0
 11
1134.2173856010460895
 21
129.166320161074708
 31
0.0
  0
ARC
  5
B5FB
  8
0
 10
1075.7335674908460987
 20
129.5604201610746884
 30
0.0
 40
0.3941
 50
180.0
 51
270.0
  0
ARC
  5
B5FC
  8
0
 10
1134.2173856010460895
 20
129.3435201610747072
 30
0.0
 40
0.1772
 50
270.0
 51
0.0000000000016284
  0
ARC
  5
B5FD
  8
0
 10
1134.2173856010460895
 20
146.7843957523415952
 30
0.0
 40
0.1772
 50
359.9999999999984084
 51
90.0
  0
LINE
  5
B5FE
  8
0
 10
1134.2764753648089027
 20
146.9615957523415943
 30
0.0
 11
1134.2431907863010565
 21
147.9147413749778082
 31
0.0
  0
ARC
  5
B5FF
  8
0
 10
1076.7710999943710704
 20
211.0864325225302878
 30
0.0
 40
62.9604932212305002
 50
268.9814868391097207
 51
269.6697040709553903
  0
ARC
  5
B600
  8
0
 10
1075.5233146027399016
 20
140.9004902396953867
 30
0.0
 40
7.2365399248576301
 50
88.9814868391097775
 51
90.3417198543666871
  0
ARC
  5
B601
  8
0
 10
1075.4909857662939885
 20
147.8999732472616131
 30
0.0
 40
0.2371756315343778
 50
92.6173207312451439
 51
121.530434003313502
  0
ARC
  5
B602
  8
0
 10
1075.4939966047440976
 20
147.898781634146502
 30
0.0
 40
0.2397737140635121
 50
121.9947745720672998
 51
178.4610884371998907
  0
LINE
  5
B603
  8
0
 10
1134.007134672958955
 20
148.142698113874701
 30
0.0
 11
1123.4630066522429388
 21
148.142698113874701
 31
0.0
  0
ARC
  5
B604
  8
0
 10
1134.007134672958955
 20
147.9064981138747044
 30
0.0
 40
0.2362
 50
1.9999999956253061
 51
90.0
  0
ARC
  5
B605
  8
0
 10
1107.2083716937609097
 20
244.5253712228833081
 30
0.0
 40
96.3985272475539432
 50
270.0981655568156725
 51
270.7378424381661262
  0
ARC
  5
B606
  8
0
 10
1108.3395899370088955
 20
204.4878185883144965
 30
0.0
 40
56.3530891367731002
 50
270.111989095004617
 51
272.316779873672715
  0
ARC
  5
B607
  8
0
 10
1108.0369619120428979
 20
-2887.7567265113179928
 30
0.0
 40
3035.938615864276926
 50
89.7088705757009564
 51
89.9512962963848963
  0
LINE
  5
B608
  8
0
 10
1130.0325638421179519
 20
148.7514576842839062
 30
0.0
 11
1129.6434062424159492
 21
148.142698113874701
 31
0.0
  0
LINE
  5
B609
  8
0
 10
1132.1097833298449586
 20
148.9951036433218974
 30
0.0
 11
1130.3503575892138997
 21
148.9328595162349131
 31
0.0
  0
LINE
  5
B60A
  8
0
 10
1132.5171766685059538
 20
148.6149902524323068
 30
0.0
 11
1132.5212207272500109
 21
148.4957117128707011
 31
0.0
  0
ARC
  5
B60B
  8
0
 10
1132.9153339205061002
 20
148.5388715447637082
 30
0.0
 40
0.3964693937587115
 50
186.249628995429191
 51
267.7859958425906939
  0
ARC
  5
B60C
  8
0
 10
1132.1237027533679793
 20
148.6016497837032944
 30
0.0
 40
0.3937
 50
1.941831089755905
 51
92.0261378363285161
  0
ARC
  5
B60D
  8
0
 10
1130.3642770127369204
 20
148.5394056566161964
 30
0.0
 40
0.3937
 50
92.0261378363285161
 51
147.4107149559172001
  0
LINE
  5
B60E
  8
0
 10
1121.2645058920479642
 20
135.0806526918746897
 30
0.0
 11
1075.7331682782460121
 21
135.0806526918746897
 31
0.0
  0
LINE
  5
B60F
  8
0
 10
1121.1301847006620847
 20
135.7716753162746954
 30
0.0
 11
1075.7461269546929543
 21
135.7716753162746954
 31
0.0
  0
LINE
  5
B610
  8
0
 10
1125.4243977653800357
 20
136.5373456052747088
 30
0.0
 11
1134.3318936910400225
 21
136.5373456052747088
 31
0.0
  0
LINE
  5
B611
  8
0
 10
1125.2900765739930193
 20
137.2283682296746861
 30
0.0
 11
1134.3319904715920075
 21
137.2283682296746861
 31
0.0
  0
LINE
  5
B612
  8
0
 10
1121.6644486241730192
 20
135.8755257028838912
 30
0.0
 11
1124.7558126504820848
 21
137.124517843065405
 31
0.0
  0
LINE
  5
B613
  8
0
 10
1121.7987698155588987
 20
135.1845030784839992
 30
0.0
 11
1124.8901338418679643
 21
136.4334952186653993
 31
0.0
  0
ARC
  5
B614
  8
0
 10
1121.1301847006620847
 20
137.1978753162746898
 30
0.0
 40
1.426199999999999
 50
270.0
 51
291.9999999991866844
  0
ARC
  5
B615
  8
0
 10
1121.2645058920479642
 20
136.5068526918747125
 30
0.0
 40
1.426199999999999
 50
270.0
 51
291.9999999991866844
  0
ARC
  5
B616
  8
0
 10
1125.4243977653800357
 20
135.111145605274686
 30
0.0
 40
1.426199999999999
 50
90.0
 51
111.999999999186997
  0
ARC
  5
B617
  8
0
 10
1125.2900765739930193
 20
135.8021682296746064
 30
0.0
 40
1.426199999999999
 50
90.0
 51
111.9999999991866986
  0
ARC
  5
B618
  8
0
 10
1075.739839886999107
 20
134.534832248875091
 30
0.0
 40
0.5458612152916171
 50
90.7002962126407937
 51
137.1780244124639978
  0
ARC
  5
B619
  8
0
 10
1075.739839886999107
 20
136.3175003240743024
 30
0.0
 40
0.5458612152916171
 50
222.8219755875360022
 51
270.6599303983597906
  0
ARC
  5
B61A
  8
0
 10
1134.1580005953589989
 20
137.3886804105817987
 30
0.0
 40
0.236585021458901
 50
317.3429032370959817
 51
359.9790784246840758
  0
ARC
  5
B61B
  8
0
 10
1092.0564609535629188
 20
176.180533049722186
 30
0.0
 40
57.4847070114993173
 50
317.2105590151970773
 51
317.3429032370959817
  0
ARC
  5
B61C
  8
0
 10
1134.5101019176420323
 20
136.882560596150114
 30
0.0
 40
0.3654638617892993
 50
137.2105590151971057
 51
222.6613791273238974
  0
ARC
  5
B61D
  8
0
 10
1147.9601825781669504
 20
149.2771621116640119
 30
0.0
 40
18.6556474722120313
 50
222.6613791273238974
 51
223.0701508620335005
  0
ARC
  5
B61E
  8
0
 10
1134.1619363390120725
 20
136.3784683245922906
 30
0.0
 40
0.2326531577803039
 50
0.3315729602983858
 51
43.0701508620334295
  0
LINE
  5
B61F
  8
0
 10
1076.3236989869460558
 20
128.3001784288746876
 30
0.0
 11
1133.8512989869459489
 21
128.3001784288746876
 31
0.0
  0
LINE
  5
B620
  8
0
 10
1076.0874989869460023
 20
128.5363784288747127
 30
0.0
 11
1076.0874989869460023
 21
128.6993399407876097
 31
0.0
  0
ARC
  5
B621
  8
0
 10
1076.3945855999938885
 20
128.6993399407876097
 30
0.0
 40
0.3070866131482468
 50
138.2246518921263885
 51
180.0000000895587107
  0
ARC
  5
B622
  8
0
 10
1076.0481289084950731
 20
129.0088398462135899
 30
0.0
 40
0.1574803147996938
 50
318.2246518921264169
 51
90.0
  0
ARC
  5
B623
  8
0
 10
1076.3236989869460558
 20
128.5363784288747127
 30
0.0
 40
0.2362
 50
180.0
 51
270.0
  0
LINE
  5
B624
  8
0
 10
1134.0874989869460023
 20
128.5363784288747127
 30
0.0
 11
1134.0874989869460023
 21
128.6993399407876097
 31
0.0
  0
ARC
  5
B625
  8
0
 10
1133.7804123738978888
 20
128.6993399407876097
 30
0.0
 40
0.3070866131482468
 50
359.9999999104405219
 51
41.7753481078729791
  0
ARC
  5
B626
  8
0
 10
1134.1268690653960221
 20
129.0088398462135899
 30
0.0
 40
0.1574803147996938
 50
90.0
 51
221.7753481078736115
  0
ARC
  5
B627
  8
0
 10
1133.8512989869459489
 20
128.5363784288747127
 30
0.0
 40
0.2362
 50
270.0
 51
0.0
  0
CIRCLE
  5
B628
  8
0
 10
1129.6675331111459855
 20
128.6151390587747017
 30
0.0
 40
0.1574803149999991
  0
CIRCLE
  5
B629
  8
0
 10
1104.8053283867459413
 20
128.6151390587747017
 30
0.0
 40
0.157480315
  0
CIRCLE
  5
B62A
  8
0
 10
1079.9431236623458972
 20
128.6151390587747017
 30
0.0
 40
0.1574803149999998
  0
LINE
  5
B62B
  8
0
 10
1076.165571854945938
 20
128.9039246238747012
 30
0.0
 11
1134.0094261189460667
 21
128.9039246238747012
 31
0.0
  0
LINE
  5
B62C
  8
0
 10
1078.2698953158460426
 20
128.1033280351747123
 30
0.0
 11
1076.3013913788458922
 21
128.1033280351747123
 31
0.0
  0
LINE
  5
B62D
  8
0
 10
1099.0376118512460835
 20
128.1033280351747123
 30
0.0
 11
1101.0061157882460066
 21
128.1033280351747123
 31
0.0
  0
LINE
  5
B62E
  8
0
 10
1076.3013913788458922
 20
128.1033280351747123
 30
0.0
 11
1076.3013913788458922
 21
128.3012341952203883
 31
0.0
  0
LINE
  5
B62F
  8
0
 10
1078.2698953158460426
 20
128.1033280351747123
 30
0.0
 11
1078.2698953158460426
 21
128.3001784288746876
 31
0.0
  0
LINE
  5
B630
  8
0
 10
1101.0061157882460066
 20
128.1033280351747123
 30
0.0
 11
1101.0061157882460066
 21
128.3001784288746876
 31
0.0
  0
LINE
  5
B631
  8
0
 10
1099.0376118512460835
 20
128.1033280351747123
 30
0.0
 11
1099.0376118512460835
 21
128.3001784288746876
 31
0.0
  0
LINE
  5
B632
  8
0
 10
1133.309265394545946
 20
127.9064776414746945
 30
0.0
 11
1131.3407614575460229
 21
127.9064776414746945
 31
0.0
  0
LINE
  5
B633
  8
0
 10
1131.3407614575460229
 20
127.9064776414746945
 30
0.0
 11
1131.3407614575460229
 21
128.3001784288746876
 31
0.0
  0
LINE
  5
B634
  8
0
 10
1133.309265394545946
 20
127.9064776414746945
 30
0.0
 11
1133.309265394545946
 21
128.3001784288746876
 31
0.0
  0
ENDSEC
  0
EOF
