  0
SECTION
  2
HEADER
  9
$ACADVER
  1
AC1009
  9
$INSBASE
 10
3997.2872824955879878
 20
118.286699728741894
 30
0.0
  9
$EXTMIN
 10
3969.9480196749241259
 20
95.1422967667244137
 30
0.0
  9
$EXTMAX
 10
4003.2856639372330392
 20
126.0721964168029956
 30
0.0
  9
$LIMMIN
 10
0.0
 20
0.0
  9
$LIMMAX
 10
11.6929133858000007
 20
8.2677165353999982
  9
$ORTHOMODE
 70
     0
  9
$REGENMODE
 70
     1
  9
$FILLMODE
 70
     1
  9
$QTEXTMODE
 70
     0
  9
$MIRRTEXT
 70
     0
  9
$DRAGMODE
 70
     2
  9
$LTSCALE
 40
0.6431102362
  9
$OSMODE
 70
  4095
  9
$ATTMODE
 70
     1
  9
$TEXTSIZE
 40
0.2
  9
$TRACEWID
 40
0.05
  9
$TEXTSTYLE
  7
STANDARD
  9
$CLAYER
  8
0
  9
$CELTYPE
  6
BYLAYER
  9
$CECOLOR
 62
   256
  9
$DIMSCALE
 40
1.0
  9
$DIMASZ
 40
0.1875
  9
$DIMEXO
 40
0.0625
  9
$DIMDLI
 40
0.4443307087
  9
$DIMRND
 40
0.0
  9
$DIMDLE
 40
0.0
  9
$DIMEXE
 40
0.125
  9
$DIMTP
 40
0.01
  9
$DIMTM
 40
0.01
  9
$DIMTXT
 40
2.0
  9
$DIMCEN
 40
0.1052362205
  9
$DIMTSZ
 40
0.0
  9
$DIMTOL
 70
     1
  9
$DIMLIM
 70
     0
  9
$DIMTIH
 70
     1
  9
$DIMTOH
 70
     1
  9
$DIMSE1
 70
     0
  9
$DIMSE2
 70
     0
  9
$DIMTAD
 70
     0
  9
$DIMZIN
 70
     0
  9
$DIMBLK
  1

  9
$DIMASO
 70
     1
  9
$DIMSHO
 70
     1
  9
$DIMPOST
  1
\X
  9
$DIMAPOST
  1

  9
$DIMALT
 70
     1
  9
$DIMALTD
 70
     2
  9
$DIMALTF
 40
25.3999999999999986
  9
$DIMLFAC
 40
1.0
  9
$DIMTOFL
 70
     0
  9
$DIMTVP
 40
0.0
  9
$DIMTIX
 70
     0
  9
$DIMSOXD
 70
     0
  9
$DIMSAH
 70
     0
  9
$DIMBLK1
  1

  9
$DIMBLK2
  1

  9
$DIMSTYLE
  2
STANDARD
  9
$DIMCLRD
 70
     0
  9
$DIMCLRE
 70
     0
  9
$DIMCLRT
 70
     0
  9
$DIMTFAC
 40
1.0
  9
$DIMGAP
 40
0.09
  9
$LUNITS
 70
     2
  9
$LUPREC
 70
     4
  9
$SKETCHINC
 40
0.1
  9
$FILLETRAD
 40
0.0
  9
$AUNITS
 70
     0
  9
$AUPREC
 70
     0
  9
$MENU
  1
.
  9
$ELEVATION
 40
0.0
  9
$PELEVATION
 40
0.0
  9
$THICKNESS
 40
0.0
  9
$LIMCHECK
 70
     0
  9
$BLIPMODE
 70
     0
  9
$CHAMFERA
 40
0.0
  9
$CHAMFERB
 40
0.0
  9
$SKPOLY
 70
     0
  9
$TDCREATE
 40
2458060.468368056230247
  9
$TDUPDATE
 40
2459105.9546990739181638
  9
$TDINDWG
 40
0.4386528935
  9
$TDUSRTIMER
 40
0.4386528935
  9
$USRTIMER
 70
     1
  9
$ANGBASE
 50
0.0
  9
$ANGDIR
 70
     0
  9
$PDMODE
 70
     0
  9
$PDSIZE
 40
0.3125
  9
$PLINEWID
 40
0.0
  9
$COORDS
 70
     1
  9
$SPLFRAME
 70
     0
  9
$SPLINETYPE
 70
     6
  9
$SPLINESEGS
 70
     8
  9
$ATTDIA
 70
     1
  9
$ATTREQ
 70
     1
  9
$HANDLING
 70
     1
  9
$HANDSEED
  5
8DCD
  9
$SURFTAB1
 70
     6
  9
$SURFTAB2
 70
     6
  9
$SURFTYPE
 70
     6
  9
$SURFU
 70
     6
  9
$SURFV
 70
     6
  9
$UCSNAME
  2

  9
$UCSORG
 10
0.0
 20
0.0
 30
0.0
  9
$UCSXDIR
 10
1.0
 20
0.0
 30
0.0
  9
$UCSYDIR
 10
0.0
 20
1.0
 30
0.0
  9
$PUCSNAME
  2

  9
$PUCSORG
 10
0.0
 20
0.0
 30
0.0
  9
$PUCSXDIR
 10
1.0
 20
0.0
 30
0.0
  9
$PUCSYDIR
 10
0.0
 20
1.0
 30
0.0
  9
$USERI1
 70
     0
  9
$USERI2
 70
     0
  9
$USERI3
 70
     0
  9
$USERI4
 70
     0
  9
$USERI5
 70
     0
  9
$USERR1
 40
0.0
  9
$USERR2
 40
0.0
  9
$USERR3
 40
0.0
  9
$USERR4
 40
0.0
  9
$USERR5
 40
0.0
  9
$WORLDVIEW
 70
     1
  9
$SHADEDGE
 70
     3
  9
$SHADEDIF
 70
    70
  9
$TILEMODE
 70
     1
  9
$MAXACTVP
 70
    64
  9
$PLIMCHECK
 70
     0
  9
$PEXTMIN
 10
1.0000000000000000E+20
 20
1.0000000000000000E+20
 30
1.0000000000000000E+20
  9
$PEXTMAX
 10
-1.0000000000000000E+20
 20
-1.0000000000000000E+20
 30
-1.0000000000000000E+20
  9
$PLIMMIN
 10
0.0
 20
0.0
  9
$PLIMMAX
 10
12.0
 20
9.0
  9
$UNITMODE
 70
     0
  9
$VISRETAIN
 70
     1
  9
$PLINEGEN
 70
     0
  9
$PSLTSCALE
 70
     1
  0
ENDSEC
  0
SECTION
  2
TABLES
  0
TABLE
  2
VPORT
 70
     1
  0
VPORT
  2
*ACTIVE
 70
     0
 10
0.0
 20
0.0
 11
1.0
 21
1.0
 12
219.8849617788735884
 22
2.5469174576972469
 13
0.0
 23
0.0
 14
1.0
 24
1.0
 15
0.0
 25
0.0
 16
0.0
 26
0.0
 36
5.1040778033513332
 17
3792.35791015625
 27
120.1806564331053977
 37
0.0
 40
120.5027167786678035
 41
2.005224660397074
 42
50.0
 43
0.0
 44
0.0
 50
0.0
 51
0.0
 71
     0
 72
   100
 73
     1
 74
     1
 75
     0
 76
     0
 77
     0
 78
     0
  0
ENDTAB
  0
TABLE
  2
LTYPE
 70
     2
  0
LTYPE
  2
CONTINUOUS
 70
     0
  3
Solid line
 72
    65
 73
     0
 40
0.0
  0
LTYPE
  2
PHANTOM2
 70
     0
  3
___ _ _ ___ _ _ ___ _ _ ___ _ _
 72
    65
 73
     6
 40
1.25
 49
0.625
 49
-0.125
 49
0.125
 49
-0.125
 49
0.125
 49
-0.125
  0
ENDTAB
  0
TABLE
  2
LAYER
 70
     2
  0
LAYER
  2
0
 70
     0
 62
   255
  6
CONTINUOUS
  0
LAYER
  2
DEFPOINTS
 70
     0
 62
     7
  6
CONTINUOUS
  0
ENDTAB
  0
TABLE
  2
STYLE
 70
     1
  0
STYLE
  2
STANDARD
 70
     0
 40
0.0
 41
0.8
 50
0.0
 71
     0
 42
0.2
  3
txt
  4

  0
ENDTAB
  0
TABLE
  2
VIEW
 70
     0
  0
ENDTAB
  0
TABLE
  2
UCS
 70
     0
  0
ENDTAB
  0
TABLE
  2
APPID
 70
     9
  0
APPID
  2
ACAD
 70
     0
  0
APPID
  2
ACAD_MLEADERVER
 70
     0
  0
APPID
  2
ACAD_EXEMPT_FROM_CAD_STANDARDS
 70
     0
  0
APPID
  2
ACAD_NAV_VCDISPLAY
 70
     0
  0
APPID
  2
ACAECLAYERSTANDARD
 70
     0
  0
APPID
  2
ACCMTRANSPARENCY
 70
     0
  0
APPID
  2
ACAD_DSTYLE_DIMJAG
 70
     0
  0
APPID
  2
ACAD_DSTYLE_DIMTALN
 70
     0
  0
APPID
  2
ACDBATTR
 70
     0
  0
ENDTAB
  0
TABLE
  2
DIMSTYLE
 70
     1
  0
DIMSTYLE
  2
STANDARD
 70
     0
  3

  4

  5

  6

  7

 40
1.0
 41
0.1875
 42
0.0625
 43
0.38
 44
0.125
 45
0.0
 46
0.0
 47
0.01
 48
0.01
140
0.15625
141
0.09
142
0.0
143
25.3999999999999986
144
1.0
145
0.0
146
1.0
147
0.09
 71
     1
 72
     0
 73
     1
 74
     1
 75
     0
 76
     0
 77
     0
 78
     4
170
     0
171
     2
172
     0
173
     0
174
     0
175
     0
176
     0
177
     0
178
     0
  0
ENDTAB
  0
ENDSEC
  0
SECTION
  2
BLOCKS
  0
BLOCK
  8
0
  2
$MODEL_SPACE
 70
     0
 10
0.0
 20
0.0
 30
0.0
  3
$MODEL_SPACE
  1

  0
ENDBLK
  5
21
  8
0
  0
BLOCK
 67
     1
  8
0
  2
$PAPER_SPACE
 70
     0
 10
0.0
 20
0.0
 30
0.0
  3
$PAPER_SPACE
  1

  0
ENDBLK
  5
1D
 67
     1
  8
0
  0
BLOCK
  8
0
  2
_FILLED
 70
     0
 10
0.0
 20
0.0
 30
0.0
  3
_FILLED
  1

  0
SOLID
  5
69B4
  8
0
  6
BYBLOCK
 62
     0
 10
0.0
 20
0.0
 30
0.0
 11
-1.0
 21
0.1666666667
 31
0.0
 12
-1.0
 22
-0.1666666667
 32
0.0
 13
-1.0
 23
-0.1666666667
 33
0.0
  0
ENDBLK
  5
69B5
  8
0
  6
BYBLOCK
 62
     0
  0
BLOCK
  8
0
  2
A$CDFAF6206
 70
     0
 10
0.0
 20
0.0
 30
0.0
  3
A$CDFAF6206
  1

  0
LINE
  5
6A0E
  8
0
 10
7.4646650085734834
 20
10.9287685970688493
 30
0.0
 11
7.4646650085734896
 21
10.8905784766688498
 31
0.0
  0
ARC
  5
6A0F
  8
0
 10
7.7269027075262349
 20
10.8926811525838598
 30
0.0
 40
0.2622461286616791
 50
180.4593995232625048
 51
217.0214027758331099
  0
LINE
  5
6A10
  8
0
 10
9.767814609867095
 20
10.9287685970688493
 30
0.0
 11
9.767814609867095
 21
10.8905433757650094
 31
0.0
  0
ARC
  5
6A11
  8
0
 10
9.5068669568548287
 20
10.8922438613003703
 30
0.0
 40
0.2609531936261092
 50
322.8847083717149076
 51
359.6266329125650145
  0
LINE
  5
6A12
  8
0
 10
7.517522606271406
 20
10.7347792678688396
 30
0.0
 11
9.7149570120691777
 21
10.7347792678688396
 31
0.0
  0
LINE
  5
6A13
  8
0
 10
7.4646650085734834
 20
10.9287685970688493
 30
0.0
 11
9.7678146123202936
 21
10.9287685970688493
 31
0.0
  0
ARC
  5
6A14
  8
0
 10
4.0826771419203629
 20
8.527951346868889
 30
0.0
 40
4.0826771653999172
 50
13.3117747050523896
 51
32.7200330051415591
  0
ARC
  5
6A15
  8
0
 10
4.0826771460567306
 20
8.5279513475907933
 30
0.0
 40
4.0826771612084691
 50
359.6656501984817851
 51
13.3117747085593798
  0
ARC
  5
6A16
  8
0
 10
13.1498041284835097
 20
8.5279508235212234
 30
0.0
 40
4.0826788382043553
 50
147.2799733478981068
 51
166.6882233021349862
  0
ARC
  5
6A17
  8
0
 10
13.1498064934207992
 20
8.5279506557033251
 30
0.0
 40
4.0826811782395342
 50
166.688228652086309
 51
180.3343397625230011
  0
LINE
  5
6A18
  8
0
 10
8.1652847935202928
 20
8.504127000268852
 30
0.0
 11
9.0671948248202892
 21
8.5041270002687881
 31
0.0
  0
LINE
  5
6A19
  8
0
 10
8.1652847935202786
 20
8.5041270002667204
 30
0.0
 11
8.1652847935202928
 21
8.3607006934688481
 31
0.0
  0
ARC
  5
6A1A
  8
0
 10
5.6196779630382627
 20
8.3631022096452732
 30
0.0
 40
2.545607963272567
 50
342.0511668832173768
 51
359.945947387132378
  0
LINE
  5
6A1B
  8
0
 10
9.0671948248202892
 20
8.5041270002687881
 30
0.0
 11
9.0671948248202892
 21
8.2885990108688503
 31
0.0
  0
ARC
  5
6A1C
  8
0
 10
9.4521885297801163
 20
7.9614488056228501
 30
0.0
 40
0.5052201595850959
 50
139.6436242991769916
 51
174.6757930071850069
  0
ARC
  5
6A1D
  8
0
 10
9.9238413395551746
 20
8.1492417579399508
 30
0.0
 40
0.9848265662939324
 50
188.2263441834095943
 51
209.5593615864376034
  0
ARC
  5
6A1E
  8
0
 10
8.0788764238271256
 20
7.5665710856463297
 30
0.0
 40
0.0393715937169877
 50
162.1669117288323037
 51
227.2023190037006088
  0
ARC
  5
6A1F
  8
0
 10
8.7223682141740682
 20
8.2079667397440517
 30
0.0
 40
0.947895137885075
 50
225.0018610752970858
 51
261.4598823366255829
  0
ARC
  5
6A20
  8
0
 10
8.6645157662702701
 20
8.1695128573935332
 30
0.0
 40
0.9027466462812931
 50
264.7303071214498118
 51
281.8608311947915013
  0
ARC
  5
6A21
  8
0
 10
8.6645157662698935
 20
8.1695128573999671
 30
0.0
 40
0.9027466462876658
 50
299.1741886792128753
 51
299.1743179154552195
  0
ARC
  5
6A22
  8
0
 10
9.0843330931590316
 20
7.4150554710086141
 30
0.0
 40
0.0393703053609601
 50
251.9700352025496954
 51
252.4698971938937859
  0
ARC
  5
6A23
  8
0
 10
9.0843330931590316
 20
7.4150554710086141
 30
0.0
 40
0.0393703053609601
 50
297.2453716727138726
 51
6.8376113572703074
  0
LINE
  5
6A24
  8
0
 10
9.0671948248202892
 20
7.663402160468852
 30
0.0
 11
9.1234233799329516
 21
7.419742732911689
 31
0.0
  0
ARC
  5
6A25
  8
0
 10
8.8843741880892395
 20
9.8961379890094676
 30
0.0
 40
2.5255097382132701
 50
263.792800240752797
 51
274.9514951129821156
  0
ARC
  5
6A26
  8
0
 10
8.8258167405968848
 20
9.2763025889666508
 30
0.0
 40
1.9029970832759311
 50
246.0108363320686067
 51
263.5276935074397215
  0
ARC
  5
6A27
  8
0
 10
8.607491361665744
 20
8.3225444804829642
 30
0.0
 40
1.064510137163637
 50
283.1717405874071005
 51
297.7022170607311864
  0
LINE
  5
6A28
  8
0
 10
9.0671948248202892
 20
8.2885990108688503
 30
0.0
 11
26.2014378595979593
 21
8.2885990108689942
 31
0.0
  0
LINE
  5
6A29
  8
0
 10
26.2014378595979913
 20
7.6634021604689053
 30
0.0
 11
9.0671948248202892
 21
7.6634021604688618
 31
0.0
  0
LINE
  5
6A2A
  8
0
 10
27.8039676758446994
 20
10.9287685970690802
 30
0.0
 11
27.8039676758446888
 21
10.8905784766690807
 31
0.0
  0
ARC
  5
6A2B
  8
0
 10
27.5417299768919399
 20
10.8926811525840801
 30
0.0
 40
0.2622461286616791
 50
322.9785972241680838
 51
359.5406004767386889
  0
LINE
  5
6A2C
  8
0
 10
25.5008180745510913
 20
10.9287685970690305
 30
0.0
 11
25.5008180745510913
 21
10.8905433757651799
 31
0.0
  0
ARC
  5
6A2D
  8
0
 10
25.7617657275633505
 20
10.8922438613005497
 30
0.0
 40
0.2609531936261092
 50
180.3733670874362929
 51
217.1152916282862861
  0
LINE
  5
6A2E
  8
0
 10
27.7511100781467803
 20
10.7347792678690706
 30
0.0
 11
25.5536756723490015
 21
10.7347792678690208
 31
0.0
  0
LINE
  5
6A2F
  8
0
 10
27.8039676758446888
 20
10.9287685970686006
 30
0.0
 11
25.5008180745510806
 21
10.9287685970686006
 31
0.0
  0
ARC
  5
6A30
  8
0
 10
31.1859555424978616
 20
8.5279513468691981
 30
0.0
 40
4.0826771653999172
 50
147.2799669948597057
 51
166.6882252949490066
  0
ARC
  5
6A31
  8
0
 10
31.185955538361501
 20
8.5279513475911024
 30
0.0
 40
4.0826771612084691
 50
166.6882252914419098
 51
180.3343498015194086
  0
ARC
  5
6A32
  8
0
 10
22.1188285559344706
 20
8.5279508235212251
 30
0.0
 40
4.0826788382046102
 50
13.3117766978667795
 51
32.7200266521023977
  0
ARC
  5
6A33
  8
0
 10
22.1188261909974315
 20
8.5279506557034264
 30
0.0
 40
4.0826811782395342
 50
359.665660237478221
 51
13.31177134791497
  0
LINE
  5
6A34
  8
0
 10
27.1033478908979397
 20
8.5041270002690652
 30
0.0
 11
26.2014378595979416
 21
8.5041270002689835
 31
0.0
  0
LINE
  5
6A35
  8
0
 10
27.1033478908979504
 20
8.5041270002669354
 30
0.0
 11
27.1033478908979397
 21
8.3607006934690649
 31
0.0
  0
ARC
  5
6A36
  8
0
 10
29.6489547213799689
 20
8.3631022096455467
 30
0.0
 40
2.545607963272567
 50
180.0540526128687873
 51
197.9488331167837032
  0
LINE
  5
6A37
  8
0
 10
26.2014378595979416
 20
8.5041270002689835
 30
0.0
 11
26.2014378595979487
 21
8.2885990108690457
 31
0.0
  0
ARC
  5
6A38
  8
0
 10
25.8164441546381305
 20
7.9614488056230366
 30
0.0
 40
0.5052201595850959
 50
5.324206992816312
 51
40.3563757008241879
  0
ARC
  5
6A39
  8
0
 10
25.3447913448601803
 20
8.149241757940846
 30
0.0
 40
0.9848265662968968
 50
330.4406384136033807
 51
351.7736558165743759
  0
ARC
  5
6A3A
  8
0
 10
27.1897562605911212
 20
7.5665710856465473
 30
0.0
 40
0.0393715937169877
 50
312.7976809963004143
 51
17.8330882711689185
  0
ARC
  5
6A3B
  8
0
 10
26.5462644702441715
 20
8.2079667397442542
 30
0.0
 40
0.947895137885075
 50
278.5401176633754972
 51
314.9981389247041079
  0
ARC
  5
6A3C
  8
0
 10
26.6041169181479695
 20
8.1695128573937392
 30
0.0
 40
0.9027466462812931
 50
258.139168805210204
 51
275.2696928785518935
  0
ARC
  5
6A3D
  8
0
 10
26.6041169181483497
 20
8.1695128574001732
 30
0.0
 40
0.9027466462876658
 50
240.8256820845460027
 51
240.8258113207880058
  0
ARC
  5
6A3E
  8
0
 10
26.1842995912592293
 20
7.4150554710088086
 30
0.0
 40
0.0393703053609601
 50
287.5301028061073794
 51
288.0299647974517825
  0
ARC
  5
6A3F
  8
0
 10
26.1842995912592293
 20
7.4150554710088086
 30
0.0
 40
0.0393703053609601
 50
173.1623886427310026
 51
242.7546283272870085
  0
LINE
  5
6A40
  8
0
 10
26.2014378595981192
 20
7.6634021604690448
 30
0.0
 11
26.1452093044853093
 21
7.4197427329118826
 31
0.0
  0
ARC
  5
6A41
  8
0
 10
26.384258496328961
 20
9.8961379890096666
 30
0.0
 40
2.5255097382132701
 50
265.0485048870193054
 51
276.2071997592482262
  0
ARC
  5
6A42
  8
0
 10
26.4428159438213299
 20
9.2763025889668516
 30
0.0
 40
1.9029970832759311
 50
276.4723064925619838
 51
293.9891636679327007
  0
ARC
  5
6A43
  8
0
 10
26.6611413227524885
 20
8.3225444804831703
 30
0.0
 40
1.064510137163637
 50
242.2977829392704052
 51
256.8282594125943774
  0
LINE
  5
6A44
  8
0
 62
     4
 10
17.9031473532159602
 20
10.9287685970686006
 30
0.0
 11
24.6329820359843588
 21
20.0952817181593808
 31
0.0
  0
LINE
  5
6A45
  8
0
 62
     4
 10
17.9031473532159602
 20
-0.0000000300842942
 30
0.0
 11
22.3963351323106608
 21
4.993614497796286
 31
0.0
  0
ENDBLK
  5
6A49
  8
0
  0
ENDSEC
  0
SECTION
  2
ENTITIES
  0
ATTDEF
  5
3930
  8
DEFPOINTS
 10
3997.2889805068989517
 20
118.2905703001725044
 30
0.0
 40
0.001
  1
K-75457IN-4
  3

  2
MODELNUMBER
 70
     0
1001
ACDBATTR
1070
     0
1070
     1
  0
ATTDEF
  5
3931
  8
DEFPOINTS
 10
3997.2889805068989517
 20
118.2889036335057966
 30
0.0
 40
0.001
  1
TOOBI
  3

  2
TRADENAME
 70
     0
1001
ACDBATTR
1070
     0
1070
     1
  0
ATTDEF
  5
3932
  8
DEFPOINTS
 10
3997.2889805068989517
 20
118.2872369668392025
 30
0.0
 40
0.001
  1
SHOWER VALVE TRIM
  3

  2
PRODUCT
 70
     0
1001
ACDBATTR
1070
     0
1070
     1
  0
ARC
  5
8C8D
  8
0
 10
3999.847198882001976
 20
113.2007027872808038
 30
0.0
 40
0.0205517471731909
 50
107.9119036128741982
 51
179.4977701020457914
  0
ARC
  5
8C8E
  8
0
 10
3999.9600214232059443
 20
112.3380997387269957
 30
0.0
 40
0.89016798305034
 50
90.7713215020213937
 51
97.6917582896499965
  0
ARC
  5
8C8F
  8
0
 10
4000.6144453562510535
 20
88.096363075155665
 30
0.0
 40
25.1406578134502503
 50
90.2462582915029259
 51
91.5189255338322027
  0
ARC
  5
8C90
  8
0
 10
4000.8255405691020314
 20
59.9346646739200892
 30
0.0
 40
53.303079460482131
 50
89.4398544817189958
 51
90.3430580483368146
  0
ARC
  5
8C91
  8
0
 10
4001.2316318780181064
 20
98.2486416312741113
 30
0.0
 40
14.9869965436048602
 50
88.0003310442814808
 51
89.5603020245776236
  0
ARC
  5
8C92
  8
0
 10
4001.7358510047151867
 20
112.6011033976919009
 30
0.0
 40
0.6256886188386658
 50
82.8673316720943092
 51
88.2843214205935141
  0
ARC
  5
8C93
  8
0
 10
4001.8127312533410986
 20
113.2001922854372964
 30
0.0
 40
0.0217727806499019
 50
2.1901982324143381
 51
87.8685215833212538
  0
ARC
  5
8C94
  8
0
 10
3999.8475753402499322
 20
113.161806545218397
 30
0.0
 40
0.0209294806169172
 50
180.8048122307938002
 51
260.8625365590144156
  0
ARC
  5
8C95
  8
0
 10
3999.8921813377519356
 20
113.4283441012134972
 30
0.0
 40
0.2911733573122305
 50
260.5254946103240741
 51
266.2660033025659914
  0
ARC
  5
8C96
  8
0
 10
3999.8464119147620295
 20
113.0242517163023024
 30
0.0
 40
0.1166588812288254
 50
7.3340604254203399
 51
76.7153499017069151
  0
ARC
  5
8C97
  8
0
 10
4000.8879610767230588
 20
113.1659178024397931
 30
0.0
 40
0.9344838545053683
 50
187.7969103707476108
 51
196.3484534680054878
  0
ARC
  5
8C98
  8
0
 10
3999.8789334531620625
 20
113.0655429739690021
 30
0.0
 40
0.012586055682987
 50
90.9085340242047977
 51
132.3541434045756944
  0
ARC
  5
8C99
  8
0
 10
3999.8793644714278344
 20
113.0652514581727957
 30
0.0
 40
0.0130924356989658
 50
132.8885793535635003
 51
170.2437412440349078
  0
ARC
  5
8C9A
  8
0
 10
3999.8936135834869674
 20
113.062503525949694
 30
0.0
 40
0.0276026887908828
 50
169.6343440311063944
 51
180.0803251262960032
  0
ARC
  5
8C9B
  8
0
 10
4000.0534214123408674
 20
113.0664413343662034
 30
0.0
 40
0.1874526728381792
 50
181.2155285897474926
 51
189.5933042161431956
  0
ARC
  5
8C9C
  8
0
 10
4000.1310919194938833
 20
113.0901361765611028
 30
0.0
 40
0.2681883066590415
 50
191.8198703800962051
 51
228.1127985699355918
  0
ARC
  5
8C9D
  8
0
 10
4000.5631906791049914
 20
113.6276634223782054
 30
0.0
 40
0.9575771575325338
 50
230.3396828254992954
 51
259.8764867783942805
  0
ARC
  5
8C9E
  8
0
 10
4000.8262732636330838
 20
114.6233960289607978
 30
0.0
 40
1.98582550014141
 50
257.4531449351327979
 51
270.1596602525841035
  0
ARC
  5
8C9F
  8
0
 10
4000.0146933021569566
 20
113.0641021771629937
 30
0.0
 40
0.0936476755855564
 50
171.3869194672693936
 51
182.1121481533481017
  0
ARC
  5
8CA0
  8
0
 10
4000.1200442275530804
 20
113.0617161348424986
 30
0.0
 40
0.1989378297850968
 50
180.3068451370396019
 51
208.2245775916613866
  0
ARC
  5
8CA1
  8
0
 10
4000.2493520972830083
 20
113.1371096995347045
 30
0.0
 40
0.3485668998795088
 50
209.0929702853431991
 51
232.3468785195782118
  0
ARC
  5
8CA2
  8
0
 10
4000.6114509480939887
 20
113.6701490089677975
 30
0.0
 40
0.9925496288021388
 50
234.5953328876589126
 51
258.1960717159716978
  0
ARC
  5
8CA3
  8
0
 10
4000.8210574255790561
 20
114.4682209785394065
 30
0.0
 40
1.817106381851503
 50
256.8742280240293212
 51
270.3303144820264947
  0
LINE
  5
8CA4
  8
0
 10
3999.878733885571819
 20
113.078127447356195
 30
0.0
 11
3999.9220997446718684
 21
113.0781270461561974
 31
0.0
  0
ARC
  5
8CA5
  8
0
 10
3999.95983246534297
 20
113.2798546839351985
 30
0.0
 40
0.2052261423680429
 50
259.4059344569042764
 51
267.6878279777080252
  0
LINE
  5
8CA6
  8
0
 10
3999.8266479243720823
 20
113.2008829326560999
 30
0.0
 11
3999.8266479243720823
 21
113.161512566356194
 31
0.0
  0
ARC
  5
8CA7
  8
0
 10
3999.8868918686030156
 20
111.9608607273594032
 30
0.0
 40
0.020905639227345
 50
180.8255800154479118
 51
251.3657979191206948
  0
ARC
  5
8CA8
  8
0
 10
4000.2427565240150216
 20
113.6811758467004978
 30
0.0
 40
1.7774906454064261
 50
258.2311265859810874
 51
264.0892777734509878
  0
ARC
  5
8CA9
  8
0
 10
4000.816529874265143
 20
118.134642801928905
 30
0.0
 40
6.2673841633394654
 50
263.064316048444482
 51
267.8057852048349901
  0
ARC
  5
8CAA
  8
0
 10
4000.4954905013078132
 20
109.6920764155901935
 30
0.0
 40
2.181272761332874
 50
86.5751024612893332
 51
87.8697691448304141
  0
ARC
  5
8CAB
  8
0
 10
4000.6547315654652266
 20
111.8642029432170943
 30
0.0
 40
0.0205039904196597
 50
210.0068849973496015
 51
259.7665393662982183
  0
ARC
  5
8CAC
  8
0
 10
4000.686612620543201
 20
112.1117740441570021
 30
0.0
 40
0.270095206025227
 50
262.4423794440693882
 51
268.1562341113566958
  0
ARC
  5
8CAD
  8
0
 10
4000.8295265543852111
 20
115.3138210728373991
 30
0.0
 40
3.4761512624992079
 50
267.5223189547901939
 51
270.0510494557718744
  0
ARC
  5
8CAE
  8
0
 10
4002.8990823863541664
 20
112.9118340588204035
 30
0.0
 40
2.4914898858610699
 50
204.7747503274977987
 51
204.8082147120543084
  0
ARC
  5
8CAF
  8
0
 10
4000.6185713307600054
 20
111.7335731274839929
 30
0.0
 40
0.1360718878917749
 50
85.0004562533726187
 51
86.9546174693798548
  0
ARC
  5
8CB0
  8
0
 10
4000.6235109777971957
 20
111.7837145047441965
 30
0.0
 40
0.0856925718796854
 50
83.0436807970368989
 51
85.3689637045879977
  0
ARC
  5
8CB1
  8
0
 10
4000.6322449884892194
 20
111.8532535310751967
 30
0.0
 40
0.0156096040848055
 50
75.900237644997091
 51
83.9527866168679253
  0
ARC
  5
8CB2
  8
0
 10
4000.6359573518698198
 20
111.8673689719515068
 30
0.0
 40
0.0010278679370826
 50
22.9796426977251116
 51
84.9595366496833435
  0
LINE
  5
8CB3
  8
0
 10
4000.6369758209511929
 20
111.853948814298704
 30
0.0
 11
4000.6258000569719115
 21
111.8694533418562003
 31
0.0
  0
ARC
  5
8CB4
  8
0
 10
4000.7743179116068859
 20
116.0189912610616005
 30
0.0
 40
4.1556517949828446
 50
268.1317849182821078
 51
270.7798280776755178
  0
LINE
  5
8CB5
  8
0
 10
3999.8659898359410363
 20
111.960580638881197
 30
0.0
 11
3999.8660109218221805
 21
113.0624648287060978
 31
0.0
  0
ARC
  5
8CB6
  8
0
 10
4001.8134628030811655
 20
113.1619734876528014
 30
0.0
 40
0.021114908607878
 50
279.4389081840560038
 51
1.869605023027602
  0
ARC
  5
8CB7
  8
0
 10
4001.7776768812759656
 20
113.3563820374092046
 30
0.0
 40
0.2187868288660829
 50
272.7715832982593724
 51
280.3343669826743962
  0
ARC
  5
8CB8
  8
0
 10
4001.8126636244260226
 20
113.0261516059689058
 30
0.0
 40
0.114335069557299
 50
102.3259513352431043
 51
173.0223568846512876
  0
ARC
  5
8CB9
  8
0
 10
4000.4751086846081307
 20
113.2403095340684018
 30
0.0
 40
1.2403413290925971
 50
344.2962365088391721
 51
350.708220835034524
  0
ARC
  5
8CBA
  8
0
 10
4001.7824608187788726
 20
113.0659741823682936
 30
0.0
 40
0.0121275023072542
 50
48.9979153689284814
 51
88.2556882673807479
  0
ARC
  5
8CBB
  8
0
 10
4001.7820440620771478
 20
113.0655267597533964
 30
0.0
 40
0.0127386114657088
 50
17.2740859667493289
 51
48.9035855997703166
  0
ARC
  5
8CBC
  8
0
 10
4001.7731925148868868
 20
113.0630053558305974
 30
0.0
 40
0.0219407350029851
 50
359.2794246047852198
 51
16.6976680298624309
  0
ARC
  5
8CBD
  8
0
 10
4001.6061974214208021
 20
113.0667702006609971
 30
0.0
 40
0.188977298845953
 50
350.551095256935298
 51
358.7747898647500051
  0
ARC
  5
8CBE
  8
0
 10
4001.5249636102071236
 20
113.0933562288864067
 30
0.0
 40
0.2737771174343946
 50
312.3872085828995182
 51
347.8526331318893767
  0
ARC
  5
8CBF
  8
0
 10
4001.104007124069085
 20
113.613972713313899
 30
0.0
 40
0.9429408146081851
 50
279.9022440883658192
 51
309.9531566385260248
  0
ARC
  5
8CC0
  8
0
 10
4000.8321824769509476
 20
114.6437960605573068
 30
0.0
 40
2.0062178567983948
 50
269.9892753457555727
 51
282.492832546807108
  0
ARC
  5
8CC1
  8
0
 10
4001.6459358067659196
 20
113.0644174593783049
 30
0.0
 40
0.0941298160929654
 50
357.9753561414236742
 51
8.3638394927822866
  0
ARC
  5
8CC2
  8
0
 10
4001.5211702325300394
 20
113.0704600394148969
 30
0.0
 40
0.2190370544520999
 50
332.5356353534152731
 51
357.5487352776358989
  0
ARC
  5
8CC3
  8
0
 10
4001.4105837444531062
 20
113.1382954358890061
 30
0.0
 40
0.3485668998795088
 50
307.7701311490483249
 51
331.0240393832680752
  0
ARC
  5
8CC4
  8
0
 10
4001.0380221126820288
 20
113.6870826677086939
 30
0.0
 40
1.011418394272664
 50
282.248644790842377
 51
305.4112246215967161
  0
ARC
  5
8CC5
  8
0
 10
4000.8380741744390434
 20
114.481566602273503
 30
0.0
 40
1.830433496168419
 50
269.7952531678128025
 51
283.0889066643732122
  0
LINE
  5
8CC6
  8
0
 10
4001.7828299712209628
 20
113.078096065006207
 30
0.0
 11
4001.7390644893707758
 21
113.078109455356099
 31
0.0
  0
ARC
  5
8CC7
  8
0
 10
4001.7014337201908347
 20
113.2785228384494047
 30
0.0
 40
0.2039156661758475
 50
272.1750921911008732
 51
280.6343637978656034
  0
LINE
  5
8CC8
  8
0
 10
4001.8344881282978349
 20
113.2010243727799974
 30
0.0
 11
4001.8345664714602208
 21
113.1626623609756024
 31
0.0
  0
ARC
  5
8CC9
  8
0
 10
4001.7725234199938313
 20
111.9617670873923032
 30
0.0
 40
0.0226323841088532
 50
279.1766021803226749
 51
356.8761751472570154
  0
ARC
  5
8CCA
  8
0
 10
4001.3988163687299675
 20
113.8502319675725971
 30
0.0
 40
1.947704643133763
 50
276.0145104684526132
 51
281.1701714416199138
  0
ARC
  5
8CCB
  8
0
 10
4000.8439484556452044
 20
118.1464011251909056
 30
0.0
 40
6.279187295890063
 50
272.208933498973181
 51
276.9421653455034971
  0
ARC
  5
8CCC
  8
0
 10
4001.1956890216310967
 20
109.0944696800698068
 30
0.0
 40
2.7795763840510208
 50
92.2622195849591833
 51
93.2906114201294088
  0
ARC
  5
8CCD
  8
0
 10
4001.0078046550370345
 20
111.8645634669756959
 30
0.0
 40
0.0205039904196597
 50
280.3504703023135107
 51
330.1101246712573243
  0
ARC
  5
8CCE
  8
0
 10
4000.9754180761060525
 20
112.112068944084001
 30
0.0
 40
0.270095206025227
 50
271.960775557257989
 51
277.6746302245506968
  0
ARC
  5
8CCF
  8
0
 10
4000.8286219149808858
 20
115.3138201491079968
 30
0.0
 40
3.4761512624992079
 50
270.0659602128433789
 51
272.5946907138169877
  0
ARC
  5
8CD0
  8
0
 10
4000.4162683289141569
 20
112.1276721434461052
 30
0.0
 40
0.6617190951621118
 50
336.747957656008623
 51
336.8719744061793904
  0
ARC
  5
8CD1
  8
0
 10
4001.0517734065570039
 20
111.6368899671430057
 30
0.0
 40
0.2330980634606216
 50
93.8455657955986595
 51
95.0026794874014513
  0
ARC
  5
8CD2
  8
0
 10
4001.032909156435835
 20
111.8334975162098033
 30
0.0
 40
0.0356325792591475
 50
92.3522132822570114
 51
97.4936681782759678
  0
ARC
  5
8CD3
  8
0
 10
4001.0293581641240053
 20
111.8554224389006038
 30
0.0
 40
0.0134480716495383
 50
94.6750873730726141
 51
108.1724738704829036
  0
ARC
  5
8CD4
  8
0
 10
4001.0258296421229716
 20
111.867291920622506
 30
0.0
 40
0.0011257128771379
 50
126.2498400736224937
 51
155.5701428683429128
  0
LINE
  5
8CD5
  8
0
 10
4001.0255813035328174
 20
111.8543456202669972
 30
0.0
 11
4001.0361401245440902
 21
111.8694631979383018
 31
0.0
  0
ARC
  5
8CD6
  8
0
 10
4000.8256710837918035
 20
119.1169532875396015
 30
0.0
 40
7.2532307834491396
 50
270.0411229009841918
 51
271.5687661114164939
  0
LINE
  5
8CD7
  8
0
 10
4001.7951221745720431
 20
111.9605337577561954
 30
0.0
 11
4001.7951315147711284
 21
113.0627294273562029
 31
0.0
  0
ARC
  5
8CD8
  8
0
 10
4000.8298846236721147
 20
84.3335768900472686
 30
0.0
 40
27.6438135809789287
 50
87.9989996091208013
 51
91.9982156253603449
  0
ARC
  5
8CD9
  8
0
 10
4000.8306134021740945
 20
85.9332212136404365
 30
0.0
 40
27.2257947301830399
 50
87.9238845788624985
 51
92.0762198315625113
  0
ARC
  5
8CDA
  8
0
 10
4000.7825069830278153
 20
113.2866636681269057
 30
0.0
 40
0.0393700290707884
 50
269.9999700829565086
 51
0.9999484455213501
  0
ARC
  5
8CDB
  8
0
 10
4000.8499197414839728
 20
113.2598780074318938
 30
0.0
 40
0.0196754594089988
 50
184.4170098460591873
 51
270.0185686043377018
  0
ARC
  5
8CDC
  8
0
 10
4001.797783901089133
 20
114.5292892695011062
 30
0.0
 40
1.316972503766525
 50
271.4250477946566775
 51
276.3605466216199034
  0
ARC
  5
8CDD
  8
0
 10
4001.932437247100097
 20
113.3002613607061022
 30
0.0
 40
0.0806261898534173
 50
278.018613197017487
 51
358.5994666402926896
  0
ARC
  5
8CDE
  8
0
 10
3993.354195482544128
 20
114.023124422380306
 30
0.0
 40
0.804974944951634
 50
180.1545442290764925
 51
268.7476126568290056
  0
LINE
  5
8CDF
  8
0
 10
3999.1613541820720457
 20
113.2180989786562009
 30
0.0
 11
3993.3366015137708018
 21
113.2183417720562062
 31
0.0
  0
ARC
  5
8CE0
  8
0
 10
3999.0929610424977909
 20
73.1007942597978371
 30
0.0
 40
40.1173630181156469
 50
88.9478042519980647
 51
89.9023205951683053
  0
LINE
  5
8CE1
  8
0
 10
3992.5492234658718189
 20
114.0209531615562071
 30
0.0
 11
3992.4769636617079414
 21
118.1606794658561057
 31
0.0
  0
LINE
  5
8CE2
  8
0
 10
3992.4769636617079414
 20
118.1606794658561057
 30
0.0
 11
3996.4459516660717782
 21
118.1606794658561057
 31
0.0
  0
LINE
  5
8CE3
  8
0
 10
3996.4459484467852235
 20
118.2653276277492012
 30
0.0
 11
3996.4606288840718662
 21
117.3027550164561035
 31
0.0
  0
LINE
  5
8CE4
  8
0
 10
3996.5245188226717801
 20
118.2866991238151968
 30
0.0
 11
3998.0500304239722027
 21
118.2867003336561993
 31
0.0
  0
LINE
  5
8CE5
  8
0
 10
4000.8218710449718856
 20
113.2873508205560995
 30
0.0
 11
4000.7368067770721609
 21
118.1606794658561057
 31
0.0
  0
LINE
  5
8CE6
  8
0
 10
4000.7447246201031703
 20
118.1606794658561057
 30
0.0
 11
3998.1266397357258029
 21
118.1606794658561057
 31
0.0
  0
LINE
  5
8CE7
  8
0
 10
4000.8303027195261166
 20
113.2583627013805057
 30
0.0
 11
4000.7446807927722148
 21
118.1631912193561931
 31
0.0
  0
ARC
  5
8CE8
  8
0
 10
4001.0187945058910373
 20
93.1113069079174664
 30
0.0
 40
25.0533839207686313
 50
87.5320621099445759
 51
90.6268962422815747
  0
LINE
  5
8CE9
  8
0
 10
4002.0976013294680342
 20
118.1414531663562002
 30
0.0
 11
4002.0130393508711677
 21
113.2982907369559058
 31
0.0
  0
LINE
  5
8CEA
  8
0
 10
4000.6777426631711023
 20
118.1606794658561057
 30
0.0
 11
4000.7635061317919281
 21
113.2472936390561955
 31
0.0
  0
LINE
  5
8CEB
  8
0
 10
4000.7825069830278153
 20
113.247293639056096
 30
0.0
 11
3993.3365050984721165
 21
113.2472936390561955
 31
0.0
  0
ARC
  5
8CEC
  8
0
 10
3993.3365050861261807
 20
114.0346951838644998
 30
0.0
 40
0.7874015448083548
 50
180.9999978544703936
 51
270.0000008983799944
  0
ARC
  5
8CED
  8
0
 10
3992.4247601837291768
 20
116.6059096073095986
 30
0.0
 40
0.0393700794453108
 50
45.2500005941064813
 51
90.4999997985258204
  0
ARC
  5
8CEE
  8
0
 10
3992.4408228365450668
 20
116.5899865206908999
 30
0.0
 40
0.039370078526496
 50
359.9999999494856979
 51
45.2499999566666986
  0
ARC
  5
8CEF
  8
0
 10
3992.4920039386720418
 20
116.5728276708561992
 30
0.0
 40
0.0118110236000026
 50
180.0
 51
269.4999999999823785
  0
LINE
  5
8CF0
  8
0
 10
3992.4524772990707788
 20
116.6338696622561031
 30
0.0
 11
3992.4685399514719393
 21
116.6179465747938053
 31
0.0
  0
LINE
  5
8CF1
  8
0
 10
3992.4801929150721662
 20
116.5899782537561009
 30
0.0
 11
3992.4801929150721662
 21
114.772409501256206
 31
0.0
  0
LINE
  5
8CF2
  8
0
 10
3992.4524772990707788
 20
114.7285263596562004
 30
0.0
 11
3992.4685399514719393
 21
114.7444494470561978
 31
0.0
  0
ARC
  5
8CF3
  8
0
 10
3992.4920310990810322
 20
114.7895571701051978
 30
0.0
 40
0.0118381892890227
 50
90.6303128813068639
 51
179.945885671085108
  0
ARC
  5
8CF4
  8
0
 10
3992.4247601838469564
 20
114.7564864139965977
 30
0.0
 40
0.0393700789322903
 50
269.500000024292774
 51
314.7499997869646222
  0
ARC
  5
8CF5
  8
0
 10
3992.440822836083953
 20
114.7724095013137031
 30
0.0
 40
0.0393700789879103
 50
314.7500002457425126
 51
359.999999916183981
  0
LINE
  5
8CF6
  8
0
 10
3992.4919008693550495
 20
114.8013789248285974
 30
0.0
 11
3992.5355877559181863
 21
114.8021414822697039
 31
0.0
  0
LINE
  5
8CF7
  8
0
 10
3992.5048884462457863
 20
116.5609037561217036
 30
0.0
 11
3992.4919008693718752
 21
116.5610170969836048
 31
0.0
  0
ARC
  5
8CF8
  8
0
 10
3991.8305866158470963
 20
116.6204101227334036
 30
0.0
 40
0.0196850394685022
 50
90.4999999185662602
 51
180.0055897903490063
  0
LINE
  5
8CF9
  8
0
 10
3991.8304148336787875
 20
116.6400944126561967
 30
0.0
 11
3992.4244166194721402
 21
116.6452781876641041
 31
0.0
  0
ARC
  5
8CFA
  8
0
 10
3991.8305866158721074
 20
114.7419858990561039
 30
0.0
 40
0.0196850394000002
 50
180.0
 51
269.4999999857557214
  0
LINE
  5
8CFB
  8
0
 10
3991.8304148336778781
 20
114.722301609156105
 30
0.0
 11
3992.4244166194721402
 21
114.7171178341481976
 31
0.0
  0
LINE
  5
8CFC
  8
0
 10
3991.8109015764721335
 20
114.7419858990561039
 30
0.0
 11
3991.8109015764721335
 21
116.620408202256101
 31
0.0
  0
ARC
  5
8CFD
  8
0
 10
4001.8251128940091803
 20
115.6811980109561944
 30
0.0
 40
10.0393700459204496
 50
175.9428648094566086
 51
184.0571351905433914
  0
LINE
  5
8CFE
  8
0
 10
3992.4524772989789199
 20
116.6338696621860009
 30
0.0
 11
3992.4524772990707788
 21
114.728526359717705
 31
0.0
  0
LINE
  5
8CFF
  8
0
 10
3991.8109015764721335
 20
115.6812014245061988
 30
0.0
 11
3992.4524772990707788
 21
115.6811980109560949
 31
0.0
  0
ARC
  5
8D00
  8
0
 10
3997.2874066909521389
 20
117.4365569294805027
 30
0.0
 40
0.8287226430331182
 50
180.9868526356765983
 51
359.012550324684014
  0
ARC
  5
8D01
  8
0
 10
3997.2912969403841998
 20
117.3212503342038957
 30
0.0
 40
0.8308739354174693
 50
181.2755138148554863
 51
6.9838004799784859
  0
ARC
  5
8D02
  8
0
 10
3998.0518679065858123
 20
115.734591081304103
 30
0.0
 40
2.5521099138327421
 50
89.0400488503320844
 51
90.0412521448333649
  0
ARC
  5
8D03
  8
0
 10
3998.093444063465995
 20
118.0502991562260036
 30
0.0
 40
0.2360466027605143
 50
86.3689405883644241
 51
89.7134116998755644
  0
ARC
  5
8D04
  8
0
 10
3998.1064628138728949
 20
118.2637406099231043
 30
0.0
 40
0.0222153294271738
 50
4.8747260648665982
 51
85.0148903443468242
  0
ARC
  5
8D05
  8
0
 10
3996.4695267444999445
 20
118.2640062433353023
 30
0.0
 40
0.0236152954662892
 50
129.6642185913846106
 51
176.7923622750143124
  0
ARC
  5
8D06
  8
0
 10
3996.4659824673340154
 20
118.2654136153284981
 30
0.0
 40
0.0203520836453667
 50
97.5526225923978814
 51
124.5051807251681026
  0
ARC
  5
8D07
  8
0
 10
3996.4785555432608817
 20
118.1180604511651069
 30
0.0
 40
0.1682211768655259
 50
90.5730220204614369
 51
95.2006038610856962
  0
ARC
  5
8D08
  8
0
 10
3996.5218230022160242
 20
115.923045278784997
 30
0.0
 40
2.363655382363016
 50
89.9346524162936163
 51
91.0896642965456778
  0
ARC
  5
8D09
  8
0
 10
4083.3532379932398726
 20
116.5714275712203971
 30
0.0
 40
85.2414782523337493
 50
178.861153609328511
 51
179.428086066506097
  0
ENDSEC
  0
EOF
