  0
SECTION
  2
HEADER
  9
$ACADVER
  1
AC1009
  9
$INSBASE
 10
3952.7939110893898942
 20
-14.2738363193937907
 30
0.0
  9
$EXTMIN
 10
3945.7938787073858293
 20
-14.2808292959888004
 30
0.0
  9
$EXTMAX
 10
3959.7939434713930495
 20
-1.7578363193937989
 30
0.0
  9
$LIMMIN
 10
0.0
 20
0.0
  9
$LIMMAX
 10
11.6929133858000007
 20
8.2677165353999982
  9
$ORTHOMODE
 70
     0
  9
$REGENMODE
 70
     1
  9
$FILLMODE
 70
     1
  9
$QTEXTMODE
 70
     0
  9
$MIRRTEXT
 70
     0
  9
$DRAGMODE
 70
     2
  9
$LTSCALE
 40
0.6431102362
  9
$OSMODE
 70
  4095
  9
$ATTMODE
 70
     1
  9
$TEXTSIZE
 40
0.2
  9
$TRACEWID
 40
0.05
  9
$TEXTSTYLE
  7
STANDARD
  9
$CLAYER
  8
0
  9
$CELTYPE
  6
BYLAYER
  9
$CECOLOR
 62
   256
  9
$DIMSCALE
 40
1.0
  9
$DIMASZ
 40
0.1875
  9
$DIMEXO
 40
0.0625
  9
$DIMDLI
 40
0.4443307087
  9
$DIMRND
 40
0.0
  9
$DIMDLE
 40
0.0
  9
$DIMEXE
 40
0.125
  9
$DIMTP
 40
0.01
  9
$DIMTM
 40
0.01
  9
$DIMTXT
 40
2.0
  9
$DIMCEN
 40
0.1052362205
  9
$DIMTSZ
 40
0.0
  9
$DIMTOL
 70
     1
  9
$DIMLIM
 70
     0
  9
$DIMTIH
 70
     1
  9
$DIMTOH
 70
     1
  9
$DIMSE1
 70
     0
  9
$DIMSE2
 70
     0
  9
$DIMTAD
 70
     0
  9
$DIMZIN
 70
     0
  9
$DIMBLK
  1

  9
$DIMASO
 70
     1
  9
$DIMSHO
 70
     1
  9
$DIMPOST
  1
\X
  9
$DIMAPOST
  1

  9
$DIMALT
 70
     1
  9
$DIMALTD
 70
     2
  9
$DIMALTF
 40
25.3999999999999986
  9
$DIMLFAC
 40
1.0
  9
$DIMTOFL
 70
     0
  9
$DIMTVP
 40
0.0
  9
$DIMTIX
 70
     0
  9
$DIMSOXD
 70
     0
  9
$DIMSAH
 70
     0
  9
$DIMBLK1
  1

  9
$DIMBLK2
  1

  9
$DIMSTYLE
  2
STANDARD
  9
$DIMCLRD
 70
     0
  9
$DIMCLRE
 70
     0
  9
$DIMCLRT
 70
     0
  9
$DIMTFAC
 40
1.0
  9
$DIMGAP
 40
0.09
  9
$LUNITS
 70
     2
  9
$LUPREC
 70
     4
  9
$SKETCHINC
 40
0.1
  9
$FILLETRAD
 40
0.0
  9
$AUNITS
 70
     0
  9
$AUPREC
 70
     0
  9
$MENU
  1
.
  9
$ELEVATION
 40
0.0
  9
$PELEVATION
 40
0.0
  9
$THICKNESS
 40
0.0
  9
$LIMCHECK
 70
     0
  9
$BLIPMODE
 70
     0
  9
$CHAMFERA
 40
0.0
  9
$CHAMFERB
 40
0.0
  9
$SKPOLY
 70
     0
  9
$TDCREATE
 40
2458060.468368056230247
  9
$TDUPDATE
 40
2459103.7060763891786337
  9
$TDINDWG
 40
0.4883172454
  9
$TDUSRTIMER
 40
0.4883172454
  9
$USRTIMER
 70
     1
  9
$ANGBASE
 50
0.0
  9
$ANGDIR
 70
     0
  9
$PDMODE
 70
     0
  9
$PDSIZE
 40
0.3125
  9
$PLINEWID
 40
0.0
  9
$COORDS
 70
     1
  9
$SPLFRAME
 70
     0
  9
$SPLINETYPE
 70
     6
  9
$SPLINESEGS
 70
     8
  9
$ATTDIA
 70
     1
  9
$ATTREQ
 70
     1
  9
$HANDLING
 70
     1
  9
$HANDSEED
  5
9103
  9
$SURFTAB1
 70
     6
  9
$SURFTAB2
 70
     6
  9
$SURFTYPE
 70
     6
  9
$SURFU
 70
     6
  9
$SURFV
 70
     6
  9
$UCSNAME
  2

  9
$UCSORG
 10
0.0
 20
0.0
 30
0.0
  9
$UCSXDIR
 10
1.0
 20
0.0
 30
0.0
  9
$UCSYDIR
 10
0.0
 20
1.0
 30
0.0
  9
$PUCSNAME
  2

  9
$PUCSORG
 10
0.0
 20
0.0
 30
0.0
  9
$PUCSXDIR
 10
1.0
 20
0.0
 30
0.0
  9
$PUCSYDIR
 10
0.0
 20
1.0
 30
0.0
  9
$USERI1
 70
     0
  9
$USERI2
 70
     0
  9
$USERI3
 70
     0
  9
$USERI4
 70
     0
  9
$USERI5
 70
     0
  9
$USERR1
 40
0.0
  9
$USERR2
 40
0.0
  9
$USERR3
 40
0.0
  9
$USERR4
 40
0.0
  9
$USERR5
 40
0.0
  9
$WORLDVIEW
 70
     1
  9
$SHADEDGE
 70
     3
  9
$SHADEDIF
 70
    70
  9
$TILEMODE
 70
     1
  9
$MAXACTVP
 70
    64
  9
$PLIMCHECK
 70
     0
  9
$PEXTMIN
 10
1.0000000000000000E+20
 20
1.0000000000000000E+20
 30
1.0000000000000000E+20
  9
$PEXTMAX
 10
-1.0000000000000000E+20
 20
-1.0000000000000000E+20
 30
-1.0000000000000000E+20
  9
$PLIMMIN
 10
0.0
 20
0.0
  9
$PLIMMAX
 10
12.0
 20
9.0
  9
$UNITMODE
 70
     0
  9
$VISRETAIN
 70
     1
  9
$PLINEGEN
 70
     0
  9
$PSLTSCALE
 70
     1
  0
ENDSEC
  0
SECTION
  2
TABLES
  0
TABLE
  2
VPORT
 70
     1
  0
VPORT
  2
*ACTIVE
 70
     0
 10
0.0
 20
0.0
 11
1.0
 21
1.0
 12
0.0
 22
0.0
 13
0.0
 23
0.0
 14
1.0
 24
1.0
 15
0.0
 25
0.0
 16
0.0
 26
0.0
 36
67.9763627645502879
 17
3952.7939453125
 27
-8.0193876551965442
 37
0.0
 40
18.7835727614367514
 41
2.8398203592814371
 42
50.0
 43
0.0
 44
0.0
 50
0.0
 51
0.0
 71
     0
 72
   100
 73
     1
 74
     1
 75
     0
 76
     0
 77
     0
 78
     0
  0
ENDTAB
  0
TABLE
  2
LTYPE
 70
     2
  0
LTYPE
  2
CONTINUOUS
 70
     0
  3
Solid line
 72
    65
 73
     0
 40
0.0
  0
LTYPE
  2
PHANTOM2
 70
     0
  3
___ _ _ ___ _ _ ___ _ _ ___ _ _
 72
    65
 73
     6
 40
1.25
 49
0.625
 49
-0.125
 49
0.125
 49
-0.125
 49
0.125
 49
-0.125
  0
ENDTAB
  0
TABLE
  2
LAYER
 70
     2
  0
LAYER
  2
0
 70
     0
 62
   255
  6
CONTINUOUS
  0
LAYER
  2
DEFPOINTS
 70
     0
 62
     7
  6
CONTINUOUS
  0
ENDTAB
  0
TABLE
  2
STYLE
 70
     1
  0
STYLE
  2
STANDARD
 70
     0
 40
0.0
 41
0.8
 50
0.0
 71
     0
 42
0.2
  3
txt
  4

  0
ENDTAB
  0
TABLE
  2
VIEW
 70
     0
  0
ENDTAB
  0
TABLE
  2
UCS
 70
     0
  0
ENDTAB
  0
TABLE
  2
APPID
 70
     9
  0
APPID
  2
ACAD
 70
     0
  0
APPID
  2
ACAD_MLEADERVER
 70
     0
  0
APPID
  2
ACAD_EXEMPT_FROM_CAD_STANDARDS
 70
     0
  0
APPID
  2
ACAD_NAV_VCDISPLAY
 70
     0
  0
APPID
  2
ACAECLAYERSTANDARD
 70
     0
  0
APPID
  2
ACCMTRANSPARENCY
 70
     0
  0
APPID
  2
ACAD_DSTYLE_DIMJAG
 70
     0
  0
APPID
  2
ACAD_DSTYLE_DIMTALN
 70
     0
  0
APPID
  2
ACDBATTR
 70
     0
  0
ENDTAB
  0
TABLE
  2
DIMSTYLE
 70
     1
  0
DIMSTYLE
  2
STANDARD
 70
     0
  3

  4

  5

  6

  7

 40
1.0
 41
0.1875
 42
0.0625
 43
0.38
 44
0.125
 45
0.0
 46
0.0
 47
0.01
 48
0.01
140
0.15625
141
0.09
142
0.0
143
25.3999999999999986
144
1.0
145
0.0
146
1.0
147
0.09
 71
     1
 72
     0
 73
     1
 74
     1
 75
     0
 76
     0
 77
     0
 78
     4
170
     0
171
     2
172
     0
173
     0
174
     0
175
     0
176
     0
177
     0
178
     0
  0
ENDTAB
  0
ENDSEC
  0
SECTION
  2
BLOCKS
  0
BLOCK
  8
0
  2
$MODEL_SPACE
 70
     0
 10
0.0
 20
0.0
 30
0.0
  3
$MODEL_SPACE
  1

  0
ENDBLK
  5
21
  8
0
  0
BLOCK
 67
     1
  8
0
  2
$PAPER_SPACE
 70
     0
 10
0.0
 20
0.0
 30
0.0
  3
$PAPER_SPACE
  1

  0
ENDBLK
  5
1D
 67
     1
  8
0
  0
BLOCK
  8
0
  2
_FILLED
 70
     0
 10
0.0
 20
0.0
 30
0.0
  3
_FILLED
  1

  0
SOLID
  5
69B4
  8
0
  6
BYBLOCK
 62
     0
 10
0.0
 20
0.0
 30
0.0
 11
-1.0
 21
0.1666666667
 31
0.0
 12
-1.0
 22
-0.1666666667
 32
0.0
 13
-1.0
 23
-0.1666666667
 33
0.0
  0
ENDBLK
  5
69B5
  8
0
  6
BYBLOCK
 62
     0
  0
BLOCK
  8
0
  2
A$CDFAF6206
 70
     0
 10
0.0
 20
0.0
 30
0.0
  3
A$CDFAF6206
  1

  0
LINE
  5
6A0E
  8
0
 10
7.4646650085734834
 20
10.9287685970688493
 30
0.0
 11
7.4646650085734896
 21
10.8905784766688498
 31
0.0
  0
ARC
  5
6A0F
  8
0
 10
7.7269027075262349
 20
10.8926811525838598
 30
0.0
 40
0.2622461286616791
 50
180.4593995232625048
 51
217.0214027758331099
  0
LINE
  5
6A10
  8
0
 10
9.767814609867095
 20
10.9287685970688493
 30
0.0
 11
9.767814609867095
 21
10.8905433757650094
 31
0.0
  0
ARC
  5
6A11
  8
0
 10
9.5068669568548287
 20
10.8922438613003703
 30
0.0
 40
0.2609531936261092
 50
322.8847083717149076
 51
359.6266329125650145
  0
LINE
  5
6A12
  8
0
 10
7.517522606271406
 20
10.7347792678688396
 30
0.0
 11
9.7149570120691777
 21
10.7347792678688396
 31
0.0
  0
LINE
  5
6A13
  8
0
 10
7.4646650085734834
 20
10.9287685970688493
 30
0.0
 11
9.7678146123202936
 21
10.9287685970688493
 31
0.0
  0
ARC
  5
6A14
  8
0
 10
4.0826771419203629
 20
8.527951346868889
 30
0.0
 40
4.0826771653999172
 50
13.3117747050523896
 51
32.7200330051415591
  0
ARC
  5
6A15
  8
0
 10
4.0826771460567306
 20
8.5279513475907933
 30
0.0
 40
4.0826771612084691
 50
359.6656501984817851
 51
13.3117747085593798
  0
ARC
  5
6A16
  8
0
 10
13.1498041284835097
 20
8.5279508235212234
 30
0.0
 40
4.0826788382043553
 50
147.2799733478981068
 51
166.6882233021349862
  0
ARC
  5
6A17
  8
0
 10
13.1498064934207992
 20
8.5279506557033251
 30
0.0
 40
4.0826811782395342
 50
166.688228652086309
 51
180.3343397625230011
  0
LINE
  5
6A18
  8
0
 10
8.1652847935202928
 20
8.504127000268852
 30
0.0
 11
9.0671948248202892
 21
8.5041270002687881
 31
0.0
  0
LINE
  5
6A19
  8
0
 10
8.1652847935202786
 20
8.5041270002667204
 30
0.0
 11
8.1652847935202928
 21
8.3607006934688481
 31
0.0
  0
ARC
  5
6A1A
  8
0
 10
5.6196779630382627
 20
8.3631022096452732
 30
0.0
 40
2.545607963272567
 50
342.0511668832173768
 51
359.945947387132378
  0
LINE
  5
6A1B
  8
0
 10
9.0671948248202892
 20
8.5041270002687881
 30
0.0
 11
9.0671948248202892
 21
8.2885990108688503
 31
0.0
  0
ARC
  5
6A1C
  8
0
 10
9.4521885297801163
 20
7.9614488056228501
 30
0.0
 40
0.5052201595850959
 50
139.6436242991769916
 51
174.6757930071850069
  0
ARC
  5
6A1D
  8
0
 10
9.9238413395551746
 20
8.1492417579399508
 30
0.0
 40
0.9848265662939324
 50
188.2263441834095943
 51
209.5593615864376034
  0
ARC
  5
6A1E
  8
0
 10
8.0788764238271256
 20
7.5665710856463297
 30
0.0
 40
0.0393715937169877
 50
162.1669117288323037
 51
227.2023190037006088
  0
ARC
  5
6A1F
  8
0
 10
8.7223682141740682
 20
8.2079667397440517
 30
0.0
 40
0.947895137885075
 50
225.0018610752970858
 51
261.4598823366255829
  0
ARC
  5
6A20
  8
0
 10
8.6645157662702701
 20
8.1695128573935332
 30
0.0
 40
0.9027466462812931
 50
264.7303071214498118
 51
281.8608311947915013
  0
ARC
  5
6A21
  8
0
 10
8.6645157662698935
 20
8.1695128573999671
 30
0.0
 40
0.9027466462876658
 50
299.1741886792128753
 51
299.1743179154552195
  0
ARC
  5
6A22
  8
0
 10
9.0843330931590316
 20
7.4150554710086141
 30
0.0
 40
0.0393703053609601
 50
251.9700352025496954
 51
252.4698971938937859
  0
ARC
  5
6A23
  8
0
 10
9.0843330931590316
 20
7.4150554710086141
 30
0.0
 40
0.0393703053609601
 50
297.2453716727138726
 51
6.8376113572703074
  0
LINE
  5
6A24
  8
0
 10
9.0671948248202892
 20
7.663402160468852
 30
0.0
 11
9.1234233799329516
 21
7.419742732911689
 31
0.0
  0
ARC
  5
6A25
  8
0
 10
8.8843741880892395
 20
9.8961379890094676
 30
0.0
 40
2.5255097382132701
 50
263.792800240752797
 51
274.9514951129821156
  0
ARC
  5
6A26
  8
0
 10
8.8258167405968848
 20
9.2763025889666508
 30
0.0
 40
1.9029970832759311
 50
246.0108363320686067
 51
263.5276935074397215
  0
ARC
  5
6A27
  8
0
 10
8.607491361665744
 20
8.3225444804829642
 30
0.0
 40
1.064510137163637
 50
283.1717405874071005
 51
297.7022170607311864
  0
LINE
  5
6A28
  8
0
 10
9.0671948248202892
 20
8.2885990108688503
 30
0.0
 11
26.2014378595979593
 21
8.2885990108689942
 31
0.0
  0
LINE
  5
6A29
  8
0
 10
26.2014378595979913
 20
7.6634021604689053
 30
0.0
 11
9.0671948248202892
 21
7.6634021604688618
 31
0.0
  0
LINE
  5
6A2A
  8
0
 10
27.8039676758446994
 20
10.9287685970690802
 30
0.0
 11
27.8039676758446888
 21
10.8905784766690807
 31
0.0
  0
ARC
  5
6A2B
  8
0
 10
27.5417299768919399
 20
10.8926811525840801
 30
0.0
 40
0.2622461286616791
 50
322.9785972241680838
 51
359.5406004767386889
  0
LINE
  5
6A2C
  8
0
 10
25.5008180745510913
 20
10.9287685970690305
 30
0.0
 11
25.5008180745510913
 21
10.8905433757651799
 31
0.0
  0
ARC
  5
6A2D
  8
0
 10
25.7617657275633505
 20
10.8922438613005497
 30
0.0
 40
0.2609531936261092
 50
180.3733670874362929
 51
217.1152916282862861
  0
LINE
  5
6A2E
  8
0
 10
27.7511100781467803
 20
10.7347792678690706
 30
0.0
 11
25.5536756723490015
 21
10.7347792678690208
 31
0.0
  0
LINE
  5
6A2F
  8
0
 10
27.8039676758446888
 20
10.9287685970686006
 30
0.0
 11
25.5008180745510806
 21
10.9287685970686006
 31
0.0
  0
ARC
  5
6A30
  8
0
 10
31.1859555424978616
 20
8.5279513468691981
 30
0.0
 40
4.0826771653999172
 50
147.2799669948597057
 51
166.6882252949490066
  0
ARC
  5
6A31
  8
0
 10
31.185955538361501
 20
8.5279513475911024
 30
0.0
 40
4.0826771612084691
 50
166.6882252914419098
 51
180.3343498015194086
  0
ARC
  5
6A32
  8
0
 10
22.1188285559344706
 20
8.5279508235212251
 30
0.0
 40
4.0826788382046102
 50
13.3117766978667795
 51
32.7200266521023977
  0
ARC
  5
6A33
  8
0
 10
22.1188261909974315
 20
8.5279506557034264
 30
0.0
 40
4.0826811782395342
 50
359.665660237478221
 51
13.31177134791497
  0
LINE
  5
6A34
  8
0
 10
27.1033478908979397
 20
8.5041270002690652
 30
0.0
 11
26.2014378595979416
 21
8.5041270002689835
 31
0.0
  0
LINE
  5
6A35
  8
0
 10
27.1033478908979504
 20
8.5041270002669354
 30
0.0
 11
27.1033478908979397
 21
8.3607006934690649
 31
0.0
  0
ARC
  5
6A36
  8
0
 10
29.6489547213799689
 20
8.3631022096455467
 30
0.0
 40
2.545607963272567
 50
180.0540526128687873
 51
197.9488331167837032
  0
LINE
  5
6A37
  8
0
 10
26.2014378595979416
 20
8.5041270002689835
 30
0.0
 11
26.2014378595979487
 21
8.2885990108690457
 31
0.0
  0
ARC
  5
6A38
  8
0
 10
25.8164441546381305
 20
7.9614488056230366
 30
0.0
 40
0.5052201595850959
 50
5.324206992816312
 51
40.3563757008241879
  0
ARC
  5
6A39
  8
0
 10
25.3447913448601803
 20
8.149241757940846
 30
0.0
 40
0.9848265662968968
 50
330.4406384136033807
 51
351.7736558165743759
  0
ARC
  5
6A3A
  8
0
 10
27.1897562605911212
 20
7.5665710856465473
 30
0.0
 40
0.0393715937169877
 50
312.7976809963004143
 51
17.8330882711689185
  0
ARC
  5
6A3B
  8
0
 10
26.5462644702441715
 20
8.2079667397442542
 30
0.0
 40
0.947895137885075
 50
278.5401176633754972
 51
314.9981389247041079
  0
ARC
  5
6A3C
  8
0
 10
26.6041169181479695
 20
8.1695128573937392
 30
0.0
 40
0.9027466462812931
 50
258.139168805210204
 51
275.2696928785518935
  0
ARC
  5
6A3D
  8
0
 10
26.6041169181483497
 20
8.1695128574001732
 30
0.0
 40
0.9027466462876658
 50
240.8256820845460027
 51
240.8258113207880058
  0
ARC
  5
6A3E
  8
0
 10
26.1842995912592293
 20
7.4150554710088086
 30
0.0
 40
0.0393703053609601
 50
287.5301028061073794
 51
288.0299647974517825
  0
ARC
  5
6A3F
  8
0
 10
26.1842995912592293
 20
7.4150554710088086
 30
0.0
 40
0.0393703053609601
 50
173.1623886427310026
 51
242.7546283272870085
  0
LINE
  5
6A40
  8
0
 10
26.2014378595981192
 20
7.6634021604690448
 30
0.0
 11
26.1452093044853093
 21
7.4197427329118826
 31
0.0
  0
ARC
  5
6A41
  8
0
 10
26.384258496328961
 20
9.8961379890096666
 30
0.0
 40
2.5255097382132701
 50
265.0485048870193054
 51
276.2071997592482262
  0
ARC
  5
6A42
  8
0
 10
26.4428159438213299
 20
9.2763025889668516
 30
0.0
 40
1.9029970832759311
 50
276.4723064925619838
 51
293.9891636679327007
  0
ARC
  5
6A43
  8
0
 10
26.6611413227524885
 20
8.3225444804831703
 30
0.0
 40
1.064510137163637
 50
242.2977829392704052
 51
256.8282594125943774
  0
LINE
  5
6A44
  8
0
 62
     4
 10
17.9031473532159602
 20
10.9287685970686006
 30
0.0
 11
24.6329820359843588
 21
20.0952817181593808
 31
0.0
  0
LINE
  5
6A45
  8
0
 62
     4
 10
17.9031473532159602
 20
-0.0000000300842942
 30
0.0
 11
22.3963351323106608
 21
4.993614497796286
 31
0.0
  0
ENDBLK
  5
6A49
  8
0
  0
ENDSEC
  0
SECTION
  2
ENTITIES
  0
ATTDEF
  5
3930
  8
DEFPOINTS
 10
3952.7929292348280796
 20
-14.2774959626554594
 30
0.0
 40
0.001
  1
K-7547W-4
  3

  2
MODELNUMBER
 70
     0
1001
ACDBATTR
1070
     0
1070
     1
  0
ATTDEF
  5
3931
  8
DEFPOINTS
 10
3952.7929292348280796
 20
-14.2791626293221299
 30
0.0
 40
0.001
  1
PURIST
  3

  2
TRADENAME
 70
     0
1001
ACDBATTR
1070
     0
1070
     1
  0
ATTDEF
  5
3932
  8
DEFPOINTS
 10
3952.7929292348280796
 20
-14.2808292959887897
 30
0.0
 40
0.001
  1
KITCHEN SINK FAUCET
  3

  2
PRODUCT
 70
     0
1001
ACDBATTR
1070
     0
1070
     1
  0
ARC
  5
8C5B
  8
0
 10
3952.7939110893898942
 20
-2.2578363193937991
 30
0.0
 40
0.5
 50
0.0
 51
180.0
  0
LINE
  5
8C5C
  8
0
 10
3953.2939110893889847
 20
-2.2578363193937991
 30
0.0
 11
3953.2939110893889847
 21
-10.4795520491937992
 31
0.0
  0
LINE
  5
8C5D
  8
0
 10
3952.2939110893898942
 20
-2.2578363193937991
 30
0.0
 11
3952.2939110893898942
 21
-10.4795520231938006
 31
0.0
  0
LINE
  5
8C5E
  8
0
 10
3952.3239110893891848
 20
-4.2628363193937977
 30
0.0
 11
3953.2639092194899604
 21
-4.2628363193937977
 31
0.0
  0
ARC
  5
8C5F
  8
0
 10
3953.2639092194899604
 20
-4.2328344494355221
 30
0.0
 40
0.0300018699582765
 50
270.0
 51
359.9964288653553126
  0
ARC
  5
8C60
  8
0
 10
3952.3239110894601254
 20
-4.2328363192230336
 30
0.0
 40
0.0300000001707636
 50
180.0046785012683017
 51
269.9999998648781911
  0
LINE
  5
8C61
  8
0
 10
3957.7589110893891302
 20
-14.2738363193937907
 30
0.0
 11
3955.8289031006179357
 21
-14.2738363193937907
 31
0.0
  0
LINE
  5
8C62
  8
0
 10
3957.7589110893891302
 20
-14.0938363193937999
 30
0.0
 11
3955.8289110893911129
 21
-14.0938363193937999
 31
0.0
  0
LINE
  5
8C63
  8
0
 10
3957.7889110893888756
 20
-14.1238363193937992
 30
0.0
 11
3957.7889110893888756
 21
-14.2438363193938002
 31
0.0
  0
ARC
  5
8C64
  8
0
 10
3957.7589110893891302
 20
-14.2438363193938002
 30
0.0
 40
0.0300000000000011
 50
270.0
 51
0.0000000000016284
  0
ARC
  5
8C65
  8
0
 10
3957.7589110893891302
 20
-14.1238363193937992
 30
0.0
 40
0.0299999999999994
 50
0.0
 51
90.0
  0
LINE
  5
8C66
  8
0
 10
3955.7989110893890938
 20
-14.1238363193937992
 30
0.0
 11
3955.7989110893890938
 21
-14.2438363193938002
 31
0.0
  0
ARC
  5
8C67
  8
0
 10
3955.828911090452948
 20
-14.2438363193938002
 30
0.0
 40
0.0300000010639572
 50
180.0
 51
269.9847405379371139
  0
ARC
  5
8C68
  8
0
 10
3955.8289150769887783
 20
-14.1238403069929603
 30
0.0
 40
0.0300039878641439
 50
90.0076147380230935
 51
179.9923852587801889
  0
LINE
  5
8C69
  8
0
 10
3949.5189110894521036
 20
-12.21083674739495
 30
0.0
 11
3956.0689110893749785
 21
-12.2108367507949591
 31
0.0
  0
ARC
  5
8C6A
  8
0
 10
3956.0689110893081306
 20
-12.3408934018862109
 30
0.0
 40
0.1300566510912411
 50
0.0548566417799994
 51
89.9999999702711193
  0
LINE
  5
8C6B
  8
0
 10
3956.1989676807897922
 20
-12.3407688818937906
 30
0.0
 11
3956.1989110893891848
 21
-12.5388363193938002
 31
0.0
  0
ARC
  5
8C6C
  8
0
 10
3956.2388933588908912
 20
-12.5388477430413907
 30
0.0
 40
0.0399822711331879
 50
179.9836295742020127
 51
245.6032221196915089
  0
ARC
  5
8C6D
  8
0
 10
3956.2360612970651346
 20
-12.6104208182829698
 30
0.0
 40
0.0377294256561065
 50
111.2633041856394982
 51
169.9493361328891865
  0
ARC
  5
8C6E
  8
0
 10
3955.9714110893892212
 20
-13.8638363193937995
 30
0.0
 40
0.2300000000000004
 50
270.0
 51
351.5441625024803898
  0
ARC
  5
8C6F
  8
0
 10
3957.6164110962440645
 20
-13.8638363125392594
 30
0.0
 40
0.2300000068545346
 50
188.4554724538818107
 51
269.9999982924526876
  0
ARC
  5
8C70
  8
0
 10
3957.3517120903570685
 20
-12.6104606065472904
 30
0.0
 40
0.0377842124345346
 50
10.0972175574702696
 51
68.6896262649096485
  0
ARC
  5
8C71
  8
0
 10
3957.3489110893901852
 20
-12.5388363193938002
 30
0.0
 40
0.0400000000000009
 50
294.4131483061029257
 51
0.0000000000024427
  0
LINE
  5
8C72
  8
0
 10
3957.3889110893901488
 20
-12.5388363193938002
 30
0.0
 11
3957.3889110893901488
 21
-9.6288363193937982
 31
0.0
  0
ARC
  5
8C73
  8
0
 10
3957.3389110893899669
 20
-9.6288363193937982
 30
0.0
 40
0.0499999999999989
 50
0.0000000000012213
 51
90.0000054096127968
  0
LINE
  5
8C74
  8
0
 10
3957.3389110846687799
 20
-9.5788363193937975
 30
0.0
 11
3956.2443055921899031
 21
-9.5788364227413645
 31
0.0
  0
ARC
  5
8C75
  8
0
 10
3956.2490123411530476
 20
-9.6288767802892004
 30
0.0
 40
0.0501012680086144
 50
92.8255465721755257
 51
179.9537193375884954
  0
LINE
  5
8C76
  8
0
 10
3956.1989110894887745
 20
-9.6288363193937982
 30
0.0
 11
3956.1989106584878755
 21
-10.8908363194088107
 31
0.0
  0
ARC
  5
8C77
  8
0
 10
3956.0688539281441081
 20
-10.8908362749915408
 30
0.0
 40
0.130056730344267
 50
270.0548715661428218
 51
359.9999804322152954
  0
ARC
  5
8C78
  8
0
 10
3953.4240089884538065
 20
-10.8907954246095002
 30
0.0
 40
0.1300975579189776
 50
180.018051310865701
 51
269.9568846869555045
  0
LINE
  5
8C79
  8
0
 10
3953.2939114369910385
 20
-10.8908364124700707
 30
0.0
 11
3953.2939114369910385
 21
-10.5778261329938008
 31
0.0
  0
ARC
  5
8C7A
  8
0
 10
3959.7839503059922208
 20
-8.5608365772968185
 30
0.0
 40
0.0099997421003066
 50
270.0
 51
357.9218779635639862
  0
ARC
  5
8C7B
  8
0
 10
3959.7839546917580265
 20
-8.0508251042459236
 30
0.0
 40
0.0099887859315159
 50
0.064331187933814
 51
90.0266361296113757
  0
LINE
  5
8C7C
  8
0
 10
3959.7839500480899915
 20
-8.0408363193938008
 30
0.0
 11
3956.0538552211901333
 21
-8.0408363193938008
 31
0.0
  0
ARC
  5
8C7D
  8
0
 10
3956.0538552211901333
 20
-8.0508363223908077
 30
0.0
 40
0.0100000029970078
 50
90.0
 51
180.0443589737392927
  0
LINE
  5
8C7E
  8
0
 10
3956.043855221189915
 20
-8.0508363193937988
 30
0.0
 11
3956.043855221189915
 21
-8.5608285742938008
 31
0.0
  0
ARC
  5
8C7F
  8
0
 10
3956.0538629692891845
 20
-8.5608285742938008
 30
0.0
 40
0.0100077480993299
 50
179.9999999999917861
 51
269.9556410262471786
  0
LINE
  5
8C80
  8
0
 10
3956.0538552211901333
 20
-8.5708363193938002
 30
0.0
 11
3956.5535254573901511
 21
-8.5708363193937984
 31
0.0
  0
ARC
  5
8C81
  8
0
 10
3956.553460260015072
 20
-8.5656553371773505
 30
0.0
 40
0.0051813924214219
 50
270.7209708628427052
 51
311.5122273502478834
  0
ARC
  5
8C82
  8
0
 10
3958.162107071356786
 20
-10.3239649297457898
 30
0.0
 40
2.377967897140647
 50
130.1270035369074947
 51
132.4569050952873965
  0
ARC
  5
8C83
  8
0
 10
3957.0255247978270745
 20
-8.9559851810538689
 30
0.0
 40
0.5996093425560353
 50
119.2437968995665045
 51
131.3301490258203899
  0
ARC
  5
8C84
  8
0
 10
3956.8113715225040323
 20
-8.5872358761085543
 30
0.0
 40
0.1733680367158253
 50
106.0932155444131979
 51
117.0239277277722039
  0
ARC
  5
8C85
  8
0
 10
3956.7939021403308288
 20
-8.5240024164507098
 30
0.0
 40
0.1077726078627139
 50
73.5114679816558549
 51
106.4885320183440029
  0
ARC
  5
8C86
  8
0
 10
3956.7372541756749342
 20
-8.6797520873528402
 30
0.0
 40
0.2733824511506131
 50
52.3285312457702219
 51
71.3914911493035333
  0
ARC
  5
8C87
  8
0
 10
3956.0313062151080885
 20
-9.6296275852797848
 30
0.0
 40
1.4568254913367911
 50
47.2896777991802111
 51
53.1828986461913473
  0
ARC
  5
8C88
  8
0
 10
3955.1649182604801354
 20
-10.6212806066669607
 30
0.0
 40
2.7733825276959072
 50
47.7143144521185931
 51
48.0337402965591309
  0
LINE
  5
8C89
  8
0
 10
3959.7839503059922208
 20
-8.5708363193937984
 30
0.0
 11
3957.0342967488900285
 21
-8.5708363193937984
 31
0.0
  0
ARC
  5
8C8A
  8
0
 10
3957.0343618949259508
 20
-8.5656554637866922
 30
0.0
 40
0.0051812651763527
 50
228.4731702234309125
 51
269.279579185911075
  0
LINE
  5
8C8B
  8
0
 10
3956.234061083789129
 20
-8.9388363193937987
 30
0.0
 11
3957.3537520568888795
 21
-8.9388363193937987
 31
0.0
  0
ARC
  5
8C8C
  8
0
 10
3957.3537520568888795
 20
-8.9688454381866052
 30
0.0
 40
0.0300091187928069
 50
0.517259067713856
 51
90.0
  0
LINE
  5
8C8D
  8
0
 10
3957.3889110893901488
 20
-12.6038363193937997
 30
0.0
 11
3957.3889110893901488
 21
-13.8976556861921505
 31
0.0
  0
LINE
  5
8C8E
  8
0
 10
3956.1989108739890071
 20
-12.6038363193937997
 30
0.0
 11
3956.1989108739890071
 21
-13.8976571414891499
 31
0.0
  0
LINE
  5
8C8F
  8
0
 10
3956.2289613403800104
 20
-9.5539060775858253
 30
0.0
 11
3957.358860837920929
 21
-9.5539060775858253
 31
0.0
  0
ARC
  5
8C90
  8
0
 10
3956.2292215593220135
 20
-9.5239015574252797
 30
0.0
 40
0.0300056485342783
 50
180.0107627342271996
 51
269.5031057558829843
  0
LINE
  5
8C91
  8
0
 10
3956.1992159113169691
 20
-9.5239071938407616
 30
0.0
 11
3956.2040622260979035
 21
-8.9685745233296679
 31
0.0
  0
ARC
  5
8C92
  8
0
 10
3957.3586030319152087
 20
-9.5239072514410488
 30
0.0
 40
0.0299999338999489
 50
270.4923803481668756
 51
0.5000161250732582
  0
ARC
  5
8C93
  8
0
 10
3956.2340656028909507
 20
-8.9688408781134097
 30
0.0
 40
0.0300045590599305
 50
90.0086295366774038
 51
179.4913704496132993
  0
LINE
  5
8C94
  8
0
 10
3957.388601823434783
 20
-9.5236454475101944
 30
0.0
 11
3957.3837599527819293
 21
-8.9685745233288472
 31
0.0
  0
LINE
  5
8C95
  8
0
 10
3957.3654436255401379
 20
-12.5752598728783695
 30
0.0
 11
3956.2223785532401052
 21
-12.5752598728783695
 31
0.0
  0
LINE
  5
8C96
  8
0
 10
3956.2389110894891928
 20
-9.5588363193937962
 30
0.0
 11
3957.3415651773889294
 21
-9.5588363193937962
 31
0.0
  0
LINE
  5
8C97
  8
0
 10
3957.3415651773889294
 20
-9.5588363193937962
 30
0.0
 11
3957.3410326412890754
 21
-9.5739672040937975
 31
0.0
  0
ARC
  5
8C98
  8
0
 10
3957.3359886924299644
 20
-9.5737896807759242
 30
0.0
 40
0.005047071886497
 50
269.2492426186249759
 51
269.2494871226991791
  0
ARC
  5
8C99
  8
0
 10
3957.3359886924299644
 20
-9.5737896807759242
 30
0.0
 40
0.005047071886497
 50
270.7505236965167228
 51
357.9842895906136846
  0
LINE
  5
8C9A
  8
0
 10
3956.2389110894891928
 20
-9.5588363193937962
 30
0.0
 11
3956.2393073055891364
 21
-9.5739672040937975
 31
0.0
  0
ARC
  5
8C9B
  8
0
 10
3956.2443053561919442
 20
-9.5738366677982576
 30
0.0
 40
0.0049997549486753
 50
181.4960790777994077
 51
270.0027044679674759
  0
ARC
  5
8C9C
  8
0
 10
3956.3421016080878871
 20
-9.5713201527649048
 30
0.0
 40
0.0178495060644988
 50
44.3783864399667323
 51
77.3184894283215698
  0
ARC
  5
8C9D
  8
0
 10
3957.2440009205470233
 20
-9.5684432992738273
 30
0.0
 40
0.0146162632048696
 50
95.9613276733248739
 51
138.9072289491921879
  0
ARC
  5
8C9E
  8
0
 10
3956.3161264258887968
 20
-8.6888363193937952
 30
0.0
 40
0.2500000000000027
 50
270.0
 51
359.4512653763541721
  0
LINE
  5
8C9F
  8
0
 10
3956.5661149605698483
 20
-8.6912305892666293
 30
0.0
 11
3956.5661149605698483
 21
-8.5611431854567783
 31
0.0
  0
LINE
  5
8CA0
  8
0
 10
3957.0217052721891378
 20
-8.6910179532297285
 30
0.0
 11
3957.0217052721891378
 21
-8.5611853083670084
 31
0.0
  0
ARC
  5
8CA1
  8
0
 10
3957.271839508712219
 20
-8.688774546967986
 30
0.0
 40
0.2501442966620446
 50
180.5138611408418967
 51
268.5282127890765764
  0
LINE
  5
8CA2
  8
0
 10
3956.1989676793291437
 20
-12.3407673653880394
 30
0.0
 11
3956.7939110894899386
 21
-11.6158363193938001
 31
0.0
  0
LINE
  5
8CA3
  8
0
 10
3956.7939110894899386
 20
-11.6158363193938001
 30
0.0
 11
3956.1989110894887745
 21
-10.8908363193938005
 31
0.0
  0
LINE
  5
8CA4
  8
0
 10
3952.2939110894899386
 20
-10.5778261329938008
 30
0.0
 11
3952.2939110894899386
 21
-10.8908361804561196
 31
0.0
  0
ARC
  5
8CA5
  8
0
 10
3952.163814232443201
 20
-10.8907961185340696
 30
0.0
 40
0.1300968632146711
 50
270.0426566376676192
 51
359.98235638406112
  0
LINE
  5
8CA6
  8
0
 10
3953.2739110896459351
 20
-10.5078363203507603
 30
0.0
 11
3952.3139110891338532
 21
-10.5078363203507603
 31
0.0
  0
LINE
  5
8CA7
  8
0
 10
3947.8289110893902034
 20
-14.2738363193937996
 30
0.0
 11
3949.7589190781609432
 21
-14.2738363193937996
 31
0.0
  0
LINE
  5
8CA8
  8
0
 10
3947.8289110893902034
 20
-14.0938363193937999
 30
0.0
 11
3949.7589110893882207
 21
-14.0938363193937999
 31
0.0
  0
LINE
  5
8CA9
  8
0
 10
3947.7989110893890938
 20
-14.1238363193937992
 30
0.0
 11
3947.7989110893890938
 21
-14.2438363193938002
 31
0.0
  0
ARC
  5
8CAA
  8
0
 10
3947.8289110893902034
 20
-14.2438363193938002
 30
0.0
 40
0.0300000000000011
 50
179.9999999999984084
 51
270.0
  0
ARC
  5
8CAB
  8
0
 10
3947.8289110893902034
 20
-14.1238363193937992
 30
0.0
 40
0.0299999999999994
 50
90.0
 51
180.0
  0
LINE
  5
8CAC
  8
0
 10
3949.788911089389785
 20
-14.1238363193937992
 30
0.0
 11
3949.788911089389785
 21
-14.2438363193938002
 31
0.0
  0
ARC
  5
8CAD
  8
0
 10
3949.7589110883259309
 20
-14.2438363193938002
 30
0.0
 40
0.0300000010639572
 50
270.0152594620628861
 51
359.9999999999997726
  0
ARC
  5
8CAE
  8
0
 10
3949.7589071017901006
 20
-14.1238403069929603
 30
0.0
 40
0.0300039878641439
 50
0.0076147412197252
 51
89.9923852619769065
  0
ARC
  5
8CAF
  8
0
 10
3949.5189110894721125
 20
-12.3408934018862109
 30
0.0
 40
0.1300566510912411
 50
90.0000000297288665
 51
179.9451433582200082
  0
LINE
  5
8CB0
  8
0
 10
3949.3888544979890867
 20
-12.3407688818937995
 30
0.0
 11
3949.3889110893887846
 21
-12.5388363193938002
 31
0.0
  0
ARC
  5
8CB1
  8
0
 10
3949.3489288198879876
 20
-12.5388477430413996
 30
0.0
 40
0.0399822711331879
 50
294.3967778803084911
 51
0.0163704257979909
  0
ARC
  5
8CB2
  8
0
 10
3949.3517608817141991
 20
-12.6104208182829698
 30
0.0
 40
0.0377294256561065
 50
10.0506638671108099
 51
68.7366958143604734
  0
ARC
  5
8CB3
  8
0
 10
3949.616411089389203
 20
-13.8638363193937995
 30
0.0
 40
0.2300000000000004
 50
188.4558374975194113
 51
270.0
  0
ARC
  5
8CB4
  8
0
 10
3947.9714110825348143
 20
-13.8638363125392701
 30
0.0
 40
0.2300000068545346
 50
270.0000017075473124
 51
351.5445275461178767
  0
ARC
  5
8CB5
  8
0
 10
3948.2361100884218104
 20
-12.6104606065472904
 30
0.0
 40
0.0377842124345346
 50
111.3103737350902946
 51
169.9027824425297126
  0
ARC
  5
8CB6
  8
0
 10
3948.2389110893891484
 20
-12.5388363193938002
 30
0.0
 40
0.0400000000000009
 50
179.9999999999974989
 51
245.586851693896989
  0
LINE
  5
8CB7
  8
0
 10
3948.1989110893891848
 20
-12.5388363193938002
 30
0.0
 11
3948.1989110893891848
 21
-9.6288363193938018
 31
0.0
  0
ARC
  5
8CB8
  8
0
 10
3948.2489110893898214
 20
-9.6288363193938018
 30
0.0
 40
0.0499999999999989
 50
89.9999945903872032
 51
179.9999999999988063
  0
LINE
  5
8CB9
  8
0
 10
3948.2443035064488868
 20
-9.5788363189587749
 30
0.0
 11
3949.3412795848639689
 21
-9.5788364225301628
 31
0.0
  0
ARC
  5
8CBA
  8
0
 10
3949.3388098376258313
 20
-9.6288767802892021
 30
0.0
 40
0.0501012680086144
 50
0.0462806624115241
 51
87.1744534278244885
  0
LINE
  5
8CBB
  8
0
 10
3949.3889110892901044
 20
-9.6288363193938018
 30
0.0
 11
3949.3889115202910034
 21
-10.8908363194088107
 31
0.0
  0
ARC
  5
8CBC
  8
0
 10
3949.5189682506352256
 20
-10.8908362749915408
 30
0.0
 40
0.130056730344267
 50
180.0000195677845056
 51
269.9451284338571213
  0
ARC
  5
8CBD
  8
0
 10
3945.8038718727871128
 20
-8.5608365772968256
 30
0.0
 40
0.0099997421003066
 50
182.0781220351736067
 51
270.0
  0
ARC
  5
8CBE
  8
0
 10
3945.8038674870222167
 20
-8.0508251042459413
 30
0.0
 40
0.0099887859315257
 50
89.9733638703886243
 51
179.9356688030948987
  0
LINE
  5
8CBF
  8
0
 10
3945.8038721306888874
 20
-8.0408363193938044
 30
0.0
 11
3949.5339669575892003
 21
-8.0408363193938044
 31
0.0
  0
ARC
  5
8CC0
  8
0
 10
3949.5339669575892003
 20
-8.0508363223908113
 30
0.0
 40
0.0100000029970078
 50
359.9556410262607073
 51
90.0
  0
LINE
  5
8CC1
  8
0
 10
3949.5439669575898733
 20
-8.0508363193938024
 30
0.0
 11
3949.5439669575898733
 21
-8.5608285742938008
 31
0.0
  0
ARC
  5
8CC2
  8
0
 10
3949.5339592094901491
 20
-8.5608285742938008
 30
0.0
 40
0.0100077480993299
 50
270.0443589737528214
 51
0.0000000000081422
  0
LINE
  5
8CC3
  8
0
 10
3949.5339669575892003
 20
-8.5708363193938002
 30
0.0
 11
3949.0342967213891825
 21
-8.5708363193938002
 31
0.0
  0
ARC
  5
8CC4
  8
0
 10
3949.0343619187638069
 20
-8.5656553371773541
 30
0.0
 40
0.0051813924214219
 50
228.4877726497520882
 51
269.2790291371572948
  0
ARC
  5
8CC5
  8
0
 10
3947.4257151074220928
 20
-10.3239649297457898
 30
0.0
 40
2.377967897140647
 50
47.5430949047126177
 51
49.8729964630925267
  0
ARC
  5
8CC6
  8
0
 10
3948.5622973809518044
 20
-8.9559851810538724
 30
0.0
 40
0.5996093425560353
 50
48.6698509741795888
 51
60.7562031004335026
  0
ARC
  5
8CC7
  8
0
 10
3948.7764506562748466
 20
-8.5872358761085579
 30
0.0
 40
0.1733680367158253
 50
62.9760722722277606
 51
73.906784455586731
  0
ARC
  5
8CC8
  8
0
 10
3948.7939200384471405
 20
-8.5240024164507133
 30
0.0
 40
0.1077726078627139
 50
73.5114679816559828
 51
106.4885320183441024
  0
ARC
  5
8CC9
  8
0
 10
3948.8505680031039446
 20
-8.6797520873528455
 30
0.0
 40
0.2733824511506131
 50
108.6085088506964951
 51
127.6714687542297071
  0
ARC
  5
8CCA
  8
0
 10
3949.5565159636707904
 20
-9.6296275852797883
 30
0.0
 40
1.4568254913367911
 50
126.8171013538085958
 51
132.7103222008198884
  0
ARC
  5
8CCB
  8
0
 10
3950.4229039182991983
 20
-10.6212806066669607
 30
0.0
 40
2.7733825276959072
 50
131.9662597034410112
 51
132.2856855478812008
  0
LINE
  5
8CCC
  8
0
 10
3945.8038718727871128
 20
-8.5708363193938055
 30
0.0
 11
3948.5535254298902146
 21
-8.5708363193938002
 31
0.0
  0
ARC
  5
8CCD
  8
0
 10
3948.5534602838538376
 20
-8.5656554637866975
 30
0.0
 40
0.0051812651763527
 50
270.720420814088925
 51
311.5268297765690022
  0
LINE
  5
8CCE
  8
0
 10
3949.3537610949902046
 20
-8.9388363193938005
 30
0.0
 11
3948.2340701218899994
 21
-8.9388363193938005
 31
0.0
  0
ARC
  5
8CCF
  8
0
 10
3948.2340701218899994
 20
-8.9688454381866087
 30
0.0
 40
0.0300091187928069
 50
90.0
 51
179.4827409322861058
  0
LINE
  5
8CD0
  8
0
 10
3948.1989110893891848
 20
-12.6038363193937997
 30
0.0
 11
3948.1989110893891848
 21
-13.8976556861921594
 31
0.0
  0
LINE
  5
8CD1
  8
0
 10
3949.3889113047898718
 20
-12.6038363193937997
 30
0.0
 11
3949.3889113047898718
 21
-13.8976571414891499
 31
0.0
  0
LINE
  5
8CD2
  8
0
 10
3949.3588608383988685
 20
-9.5539060775858289
 30
0.0
 11
3948.2289613408579498
 21
-9.5539060775858289
 31
0.0
  0
ARC
  5
8CD3
  8
0
 10
3949.3586006194559559
 20
-9.5239015574252832
 30
0.0
 40
0.0300056485342783
 50
270.4968942441170157
 51
359.9892372657727151
  0
LINE
  5
8CD4
  8
0
 10
3949.3886062674610002
 20
-9.5239071938407633
 30
0.0
 11
3949.3837599526809754
 21
-8.9685745233296679
 31
0.0
  0
ARC
  5
8CD5
  8
0
 10
3948.2292191468650344
 20
-9.5239072514410523
 30
0.0
 40
0.0299999338999489
 50
179.4999838749268974
 51
269.5076196518331244
  0
ARC
  5
8CD6
  8
0
 10
3949.3537565758879282
 20
-8.9688408781134115
 30
0.0
 40
0.0300045590599305
 50
0.5086295503866802
 51
89.9913704633226246
  0
LINE
  5
8CD7
  8
0
 10
3948.1992203553431864
 20
-9.5236454475101961
 30
0.0
 11
3948.2040622259969496
 21
-8.9685745233288507
 31
0.0
  0
LINE
  5
8CD8
  8
0
 10
3948.2223785532391958
 20
-12.5752598728783695
 30
0.0
 11
3949.3654436255401379
 21
-12.5752598728783695
 31
0.0
  0
LINE
  5
8CD9
  8
0
 10
3949.3415651773898389
 20
-9.5588363193938015
 30
0.0
 11
3948.2389121255891951
 21
-9.5588363193937962
 31
0.0
  0
LINE
  5
8CDA
  8
0
 10
3948.2389121255891951
 20
-9.5588363193937962
 30
0.0
 11
3948.2393073055900459
 21
-9.5739672040937993
 31
0.0
  0
ARC
  5
8CDB
  8
0
 10
3948.2518334863489144
 20
-9.5737896807759277
 30
0.0
 40
0.005047071886497
 50
270.7505128773008209
 51
270.7507573813749104
  0
ARC
  5
8CDC
  8
0
 10
3948.2443055921708037
 20
-9.5738363194395451
 30
0.0
 40
0.0049999999542534
 50
181.4999990131601919
 51
269.9760993829390259
  0
LINE
  5
8CDD
  8
0
 10
3949.3415651773898389
 20
-9.5588363193938015
 30
0.0
 11
3949.3410326412890754
 21
-9.5739672040937975
 31
0.0
  0
ARC
  5
8CDE
  8
0
 10
3949.3359475702891359
 20
-9.5737466308497048
 30
0.0
 40
0.0050898526144501
 50
269.7184793346420975
 51
357.5162591279059257
  0
ARC
  5
8CDF
  8
0
 10
3949.2457205706909917
 20
-9.5713201527649083
 30
0.0
 40
0.0178495060644988
 50
102.6815105716784018
 51
135.6216135600332109
  0
ARC
  5
8CE0
  8
0
 10
3948.3438212582309461
 20
-9.5684432992738309
 30
0.0
 40
0.0146162632048696
 50
41.0927710508077979
 51
84.0386723266751261
  0
ARC
  5
8CE1
  8
0
 10
3949.2716957528891726
 20
-8.6888363193938005
 30
0.0
 40
0.2500000000000027
 50
180.5487346236456858
 51
270.0
  0
LINE
  5
8CE2
  8
0
 10
3949.0217072182090305
 20
-8.6912305892673558
 30
0.0
 11
3949.0217072182090305
 21
-8.5611431854567819
 31
0.0
  0
LINE
  5
8CE3
  8
0
 10
3948.5661169065901959
 20
-8.6910179532288794
 30
0.0
 11
3948.5661169065901959
 21
-8.5611853083670102
 31
0.0
  0
ARC
  5
8CE4
  8
0
 10
3948.3159826700671147
 20
-8.6887745469679878
 30
0.0
 40
0.2501442966620446
 50
271.4717872109234236
 51
359.4861388591577906
  0
LINE
  5
8CE5
  8
0
 10
3949.3888544994510994
 20
-12.3407673653880394
 30
0.0
 11
3948.7939110892889403
 21
-11.6158363193938001
 31
0.0
  0
LINE
  5
8CE6
  8
0
 10
3948.7939110892889403
 20
-11.6158363193938001
 30
0.0
 11
3949.3889110892901044
 21
-10.8908363193938005
 31
0.0
  0
LINE
  5
8CE7
  8
0
 10
3956.0689784820901878
 20
-11.0208929456938005
 30
0.0
 11
3953.4239110895077829
 21
-11.0208929456938005
 31
0.0
  0
LINE
  5
8CE8
  8
0
 10
3952.1639110893888756
 20
-11.0208929456938005
 30
0.0
 11
3949.5188436966868721
 21
-11.0208929456938005
 31
0.0
  0
ARC
  5
8CE9
  8
0
 10
3954.0115613613611458
 20
-8.5004662318139665
 30
0.0
 40
3.1251179733821379
 50
233.7559592971032885
 51
240.6890433531617077
  0
ARC
  5
8CEA
  8
0
 10
3952.9267005347442137
 20
-10.4327995550560608
 30
0.0
 40
0.909077566430761
 50
240.6890433531617077
 51
251.1958619815833913
  0
ARC
  5
8CEB
  8
0
 10
3952.7960112127311731
 20
-10.8166060526753807
 30
0.0
 40
0.503630743156778
 50
251.1958619815833913
 51
296.1502565149493194
  0
ARC
  5
8CEC
  8
0
 10
3951.8727410101450914
 20
-8.9361538199627581
 30
0.0
 40
2.5985122353889061
 50
296.1502565149493194
 51
306.6514440791746097
  0
ARC
  5
8CEE
  8
0
 10
3953.2639110893901488
 20
-10.4795520491937992
 30
0.0
 40
0.029999999999999
 50
289.4712211529990782
 51
0.0000000000008142
  0
ARC
  5
8CEF
  8
0
 10
3952.3239110893891848
 20
-10.4795520491937708
 30
0.0
 40
0.0300000000000337
 50
179.9999503437138912
 51
250.5287788469738928
  0
ARC
  5
8CF0
  8
0
 10
3952.343911089195899
 20
-10.5778261132665605
 30
0.0
 40
0.0499999997060432
 50
101.5369595764594948
 51
180.0000226057501038
  0
LINE
  5
8CF1
  8
0
 10
3952.3339110887891366
 20
-10.5288363187937897
 30
0.0
 11
3953.2539110901529966
 21
-10.5288363187937897
 31
0.0
  0
ARC
  5
8CF2
  8
0
 10
3953.2439106659198842
 20
-10.5778268140285903
 30
0.0
 40
0.0500007710757239
 50
0.0007803963534513
 51
78.4627253279494852
  0
LINE
  5
8CF3
  8
0
 10
3953.2403630925891775
 20
-10.5078363203507603
 30
0.0
 11
3953.2403630925891775
 21
-10.5188363193938006
 31
0.0
  0
LINE
  5
8CF4
  8
0
 10
3953.2403630925891775
 20
-10.5188363193938006
 30
0.0
 11
3952.3474110897891478
 21
-10.5188363193938006
 31
0.0
  0
LINE
  5
8CF5
  8
0
 10
3952.3474110897891478
 20
-10.5188363193938006
 30
0.0
 11
3952.3474590862902005
 21
-10.5078363203937997
 31
0.0
  0
LINE
  5
8CF6
  8
0
 10
3952.3974110900890082
 20
-10.5288363187938003
 30
0.0
 11
3952.4074110893889156
 21
-10.5188363193938006
 31
0.0
  0
LINE
  5
8CF7
  8
0
 10
3953.1904110887890056
 20
-10.5288363187938003
 30
0.0
 11
3953.1804110893899633
 21
-10.5188363193938006
 31
0.0
  0
LINE
  5
8CF8
  8
0
 10
3959.7939434713930495
 20
-8.5611991891447712
 30
0.0
 11
3959.7939434713930495
 21
-8.0508138889284329
 31
0.0
  0
LINE
  5
8CF9
  8
0
 10
3945.7938787073858293
 20
-8.5611991891445598
 30
0.0
 11
3945.7938787073858293
 21
-8.0508138889273742
 31
0.0
  0
ENDSEC
  0
EOF
