  0
SECTION
  2
HEADER
  9
$ACADVER
  1
AC1009
  9
$INSBASE
 10
4026.9352399503068227
 20
-81.8259543997522769
 30
0.0
  9
$EXTMIN
 10
4018.0552399503071683
 20
-81.8311807282056378
 30
0.0
  9
$EXTMAX
 10
4027.9302399503071683
 20
-69.3099543997523
 30
0.0
  9
$LIMMIN
 10
0.0
 20
0.0
  9
$LIMMAX
 10
11.6929133858000007
 20
8.2677165353999982
  9
$ORTHOMODE
 70
     0
  9
$REGENMODE
 70
     1
  9
$FILLMODE
 70
     1
  9
$QTEXTMODE
 70
     0
  9
$MIRRTEXT
 70
     0
  9
$DRAGMODE
 70
     2
  9
$LTSCALE
 40
0.6431102362
  9
$OSMODE
 70
  4095
  9
$ATTMODE
 70
     1
  9
$TEXTSIZE
 40
0.2
  9
$TRACEWID
 40
0.05
  9
$TEXTSTYLE
  7
STANDARD
  9
$CLAYER
  8
0
  9
$CELTYPE
  6
BYLAYER
  9
$CECOLOR
 62
   256
  9
$DIMSCALE
 40
1.0
  9
$DIMASZ
 40
0.1875
  9
$DIMEXO
 40
0.0625
  9
$DIMDLI
 40
0.4443307087
  9
$DIMRND
 40
0.0
  9
$DIMDLE
 40
0.0
  9
$DIMEXE
 40
0.125
  9
$DIMTP
 40
0.01
  9
$DIMTM
 40
0.01
  9
$DIMTXT
 40
2.0
  9
$DIMCEN
 40
0.1052362205
  9
$DIMTSZ
 40
0.0
  9
$DIMTOL
 70
     1
  9
$DIMLIM
 70
     0
  9
$DIMTIH
 70
     1
  9
$DIMTOH
 70
     1
  9
$DIMSE1
 70
     0
  9
$DIMSE2
 70
     0
  9
$DIMTAD
 70
     0
  9
$DIMZIN
 70
     0
  9
$DIMBLK
  1

  9
$DIMASO
 70
     1
  9
$DIMSHO
 70
     1
  9
$DIMPOST
  1
\X
  9
$DIMAPOST
  1

  9
$DIMALT
 70
     1
  9
$DIMALTD
 70
     2
  9
$DIMALTF
 40
25.3999999999999986
  9
$DIMLFAC
 40
1.0
  9
$DIMTOFL
 70
     0
  9
$DIMTVP
 40
0.0
  9
$DIMTIX
 70
     0
  9
$DIMSOXD
 70
     0
  9
$DIMSAH
 70
     0
  9
$DIMBLK1
  1

  9
$DIMBLK2
  1

  9
$DIMSTYLE
  2
STANDARD
  9
$DIMCLRD
 70
     0
  9
$DIMCLRE
 70
     0
  9
$DIMCLRT
 70
     0
  9
$DIMTFAC
 40
1.0
  9
$DIMGAP
 40
0.09
  9
$LUNITS
 70
     2
  9
$LUPREC
 70
     4
  9
$SKETCHINC
 40
0.1
  9
$FILLETRAD
 40
0.0
  9
$AUNITS
 70
     0
  9
$AUPREC
 70
     0
  9
$MENU
  1
.
  9
$ELEVATION
 40
0.0
  9
$PELEVATION
 40
0.0
  9
$THICKNESS
 40
0.0
  9
$LIMCHECK
 70
     0
  9
$BLIPMODE
 70
     0
  9
$CHAMFERA
 40
0.0
  9
$CHAMFERB
 40
0.0
  9
$SKPOLY
 70
     0
  9
$TDCREATE
 40
2458060.468368056230247
  9
$TDUPDATE
 40
2459103.7061689808033407
  9
$TDINDWG
 40
0.491858912
  9
$TDUSRTIMER
 40
0.491858912
  9
$USRTIMER
 70
     1
  9
$ANGBASE
 50
0.0
  9
$ANGDIR
 70
     0
  9
$PDMODE
 70
     0
  9
$PDSIZE
 40
0.3125
  9
$PLINEWID
 40
0.0
  9
$COORDS
 70
     1
  9
$SPLFRAME
 70
     0
  9
$SPLINETYPE
 70
     6
  9
$SPLINESEGS
 70
     8
  9
$ATTDIA
 70
     1
  9
$ATTREQ
 70
     1
  9
$HANDLING
 70
     1
  9
$HANDSEED
  5
9A05
  9
$SURFTAB1
 70
     6
  9
$SURFTAB2
 70
     6
  9
$SURFTYPE
 70
     6
  9
$SURFU
 70
     6
  9
$SURFV
 70
     6
  9
$UCSNAME
  2

  9
$UCSORG
 10
0.0
 20
0.0
 30
0.0
  9
$UCSXDIR
 10
1.0
 20
0.0
 30
0.0
  9
$UCSYDIR
 10
0.0
 20
1.0
 30
0.0
  9
$PUCSNAME
  2

  9
$PUCSORG
 10
0.0
 20
0.0
 30
0.0
  9
$PUCSXDIR
 10
1.0
 20
0.0
 30
0.0
  9
$PUCSYDIR
 10
0.0
 20
1.0
 30
0.0
  9
$USERI1
 70
     0
  9
$USERI2
 70
     0
  9
$USERI3
 70
     0
  9
$USERI4
 70
     0
  9
$USERI5
 70
     0
  9
$USERR1
 40
0.0
  9
$USERR2
 40
0.0
  9
$USERR3
 40
0.0
  9
$USERR4
 40
0.0
  9
$USERR5
 40
0.0
  9
$WORLDVIEW
 70
     1
  9
$SHADEDGE
 70
     3
  9
$SHADEDIF
 70
    70
  9
$TILEMODE
 70
     1
  9
$MAXACTVP
 70
    64
  9
$PLIMCHECK
 70
     0
  9
$PEXTMIN
 10
1.0000000000000000E+20
 20
1.0000000000000000E+20
 30
1.0000000000000000E+20
  9
$PEXTMAX
 10
-1.0000000000000000E+20
 20
-1.0000000000000000E+20
 30
-1.0000000000000000E+20
  9
$PLIMMIN
 10
0.0
 20
0.0
  9
$PLIMMAX
 10
12.0
 20
9.0
  9
$UNITMODE
 70
     0
  9
$VISRETAIN
 70
     1
  9
$PLINEGEN
 70
     0
  9
$PSLTSCALE
 70
     1
  0
ENDSEC
  0
SECTION
  2
TABLES
  0
TABLE
  2
VPORT
 70
     1
  0
VPORT
  2
*ACTIVE
 70
     0
 10
0.0
 20
0.0
 11
1.0
 21
1.0
 12
0.0
 22
0.0
 13
0.0
 23
0.0
 14
1.0
 24
1.0
 15
0.0
 25
0.0
 16
0.0
 26
0.0
 36
57.7098796226984305
 17
4022.9926757812490905
 27
-75.5705662552160788
 37
0.0
 40
15.9466861547352092
 41
2.8398203592814371
 42
50.0
 43
0.0
 44
0.0
 50
0.0
 51
0.0
 71
     0
 72
   100
 73
     1
 74
     1
 75
     0
 76
     0
 77
     0
 78
     0
  0
ENDTAB
  0
TABLE
  2
LTYPE
 70
     2
  0
LTYPE
  2
CONTINUOUS
 70
     0
  3
Solid line
 72
    65
 73
     0
 40
0.0
  0
LTYPE
  2
PHANTOM2
 70
     0
  3
___ _ _ ___ _ _ ___ _ _ ___ _ _
 72
    65
 73
     6
 40
1.25
 49
0.625
 49
-0.125
 49
0.125
 49
-0.125
 49
0.125
 49
-0.125
  0
ENDTAB
  0
TABLE
  2
LAYER
 70
     2
  0
LAYER
  2
0
 70
     0
 62
   255
  6
CONTINUOUS
  0
LAYER
  2
DEFPOINTS
 70
     0
 62
     7
  6
CONTINUOUS
  0
ENDTAB
  0
TABLE
  2
STYLE
 70
     1
  0
STYLE
  2
STANDARD
 70
     0
 40
0.0
 41
0.8
 50
0.0
 71
     0
 42
0.2
  3
txt
  4

  0
ENDTAB
  0
TABLE
  2
VIEW
 70
     0
  0
ENDTAB
  0
TABLE
  2
UCS
 70
     0
  0
ENDTAB
  0
TABLE
  2
APPID
 70
     9
  0
APPID
  2
ACAD
 70
     0
  0
APPID
  2
ACAD_MLEADERVER
 70
     0
  0
APPID
  2
ACAD_EXEMPT_FROM_CAD_STANDARDS
 70
     0
  0
APPID
  2
ACAD_NAV_VCDISPLAY
 70
     0
  0
APPID
  2
ACAECLAYERSTANDARD
 70
     0
  0
APPID
  2
ACCMTRANSPARENCY
 70
     0
  0
APPID
  2
ACAD_DSTYLE_DIMJAG
 70
     0
  0
APPID
  2
ACAD_DSTYLE_DIMTALN
 70
     0
  0
APPID
  2
ACDBATTR
 70
     0
  0
ENDTAB
  0
TABLE
  2
DIMSTYLE
 70
     1
  0
DIMSTYLE
  2
STANDARD
 70
     0
  3

  4

  5

  6

  7

 40
1.0
 41
0.1875
 42
0.0625
 43
0.38
 44
0.125
 45
0.0
 46
0.0
 47
0.01
 48
0.01
140
0.15625
141
0.09
142
0.0
143
25.3999999999999986
144
1.0
145
0.0
146
1.0
147
0.09
 71
     1
 72
     0
 73
     1
 74
     1
 75
     0
 76
     0
 77
     0
 78
     4
170
     0
171
     2
172
     0
173
     0
174
     0
175
     0
176
     0
177
     0
178
     0
  0
ENDTAB
  0
ENDSEC
  0
SECTION
  2
BLOCKS
  0
BLOCK
  8
0
  2
$MODEL_SPACE
 70
     0
 10
0.0
 20
0.0
 30
0.0
  3
$MODEL_SPACE
  1

  0
ENDBLK
  5
21
  8
0
  0
BLOCK
 67
     1
  8
0
  2
$PAPER_SPACE
 70
     0
 10
0.0
 20
0.0
 30
0.0
  3
$PAPER_SPACE
  1

  0
ENDBLK
  5
1D
 67
     1
  8
0
  0
BLOCK
  8
0
  2
_FILLED
 70
     0
 10
0.0
 20
0.0
 30
0.0
  3
_FILLED
  1

  0
SOLID
  5
69B4
  8
0
  6
BYBLOCK
 62
     0
 10
0.0
 20
0.0
 30
0.0
 11
-1.0
 21
0.1666666667
 31
0.0
 12
-1.0
 22
-0.1666666667
 32
0.0
 13
-1.0
 23
-0.1666666667
 33
0.0
  0
ENDBLK
  5
69B5
  8
0
  6
BYBLOCK
 62
     0
  0
BLOCK
  8
0
  2
A$CDFAF6206
 70
     0
 10
0.0
 20
0.0
 30
0.0
  3
A$CDFAF6206
  1

  0
LINE
  5
6A0E
  8
0
 10
7.4646650085734834
 20
10.9287685970688493
 30
0.0
 11
7.4646650085734896
 21
10.8905784766688498
 31
0.0
  0
ARC
  5
6A0F
  8
0
 10
7.7269027075262349
 20
10.8926811525838598
 30
0.0
 40
0.2622461286616791
 50
180.4593995232625048
 51
217.0214027758331099
  0
LINE
  5
6A10
  8
0
 10
9.767814609867095
 20
10.9287685970688493
 30
0.0
 11
9.767814609867095
 21
10.8905433757650094
 31
0.0
  0
ARC
  5
6A11
  8
0
 10
9.5068669568548287
 20
10.8922438613003703
 30
0.0
 40
0.2609531936261092
 50
322.8847083717149076
 51
359.6266329125650145
  0
LINE
  5
6A12
  8
0
 10
7.517522606271406
 20
10.7347792678688396
 30
0.0
 11
9.7149570120691777
 21
10.7347792678688396
 31
0.0
  0
LINE
  5
6A13
  8
0
 10
7.4646650085734834
 20
10.9287685970688493
 30
0.0
 11
9.7678146123202936
 21
10.9287685970688493
 31
0.0
  0
ARC
  5
6A14
  8
0
 10
4.0826771419203629
 20
8.527951346868889
 30
0.0
 40
4.0826771653999172
 50
13.3117747050523896
 51
32.7200330051415591
  0
ARC
  5
6A15
  8
0
 10
4.0826771460567306
 20
8.5279513475907933
 30
0.0
 40
4.0826771612084691
 50
359.6656501984817851
 51
13.3117747085593798
  0
ARC
  5
6A16
  8
0
 10
13.1498041284835097
 20
8.5279508235212234
 30
0.0
 40
4.0826788382043553
 50
147.2799733478981068
 51
166.6882233021349862
  0
ARC
  5
6A17
  8
0
 10
13.1498064934207992
 20
8.5279506557033251
 30
0.0
 40
4.0826811782395342
 50
166.688228652086309
 51
180.3343397625230011
  0
LINE
  5
6A18
  8
0
 10
8.1652847935202928
 20
8.504127000268852
 30
0.0
 11
9.0671948248202892
 21
8.5041270002687881
 31
0.0
  0
LINE
  5
6A19
  8
0
 10
8.1652847935202786
 20
8.5041270002667204
 30
0.0
 11
8.1652847935202928
 21
8.3607006934688481
 31
0.0
  0
ARC
  5
6A1A
  8
0
 10
5.6196779630382627
 20
8.3631022096452732
 30
0.0
 40
2.545607963272567
 50
342.0511668832173768
 51
359.945947387132378
  0
LINE
  5
6A1B
  8
0
 10
9.0671948248202892
 20
8.5041270002687881
 30
0.0
 11
9.0671948248202892
 21
8.2885990108688503
 31
0.0
  0
ARC
  5
6A1C
  8
0
 10
9.4521885297801163
 20
7.9614488056228501
 30
0.0
 40
0.5052201595850959
 50
139.6436242991769916
 51
174.6757930071850069
  0
ARC
  5
6A1D
  8
0
 10
9.9238413395551746
 20
8.1492417579399508
 30
0.0
 40
0.9848265662939324
 50
188.2263441834095943
 51
209.5593615864376034
  0
ARC
  5
6A1E
  8
0
 10
8.0788764238271256
 20
7.5665710856463297
 30
0.0
 40
0.0393715937169877
 50
162.1669117288323037
 51
227.2023190037006088
  0
ARC
  5
6A1F
  8
0
 10
8.7223682141740682
 20
8.2079667397440517
 30
0.0
 40
0.947895137885075
 50
225.0018610752970858
 51
261.4598823366255829
  0
ARC
  5
6A20
  8
0
 10
8.6645157662702701
 20
8.1695128573935332
 30
0.0
 40
0.9027466462812931
 50
264.7303071214498118
 51
281.8608311947915013
  0
ARC
  5
6A21
  8
0
 10
8.6645157662698935
 20
8.1695128573999671
 30
0.0
 40
0.9027466462876658
 50
299.1741886792128753
 51
299.1743179154552195
  0
ARC
  5
6A22
  8
0
 10
9.0843330931590316
 20
7.4150554710086141
 30
0.0
 40
0.0393703053609601
 50
251.9700352025496954
 51
252.4698971938937859
  0
ARC
  5
6A23
  8
0
 10
9.0843330931590316
 20
7.4150554710086141
 30
0.0
 40
0.0393703053609601
 50
297.2453716727138726
 51
6.8376113572703074
  0
LINE
  5
6A24
  8
0
 10
9.0671948248202892
 20
7.663402160468852
 30
0.0
 11
9.1234233799329516
 21
7.419742732911689
 31
0.0
  0
ARC
  5
6A25
  8
0
 10
8.8843741880892395
 20
9.8961379890094676
 30
0.0
 40
2.5255097382132701
 50
263.792800240752797
 51
274.9514951129821156
  0
ARC
  5
6A26
  8
0
 10
8.8258167405968848
 20
9.2763025889666508
 30
0.0
 40
1.9029970832759311
 50
246.0108363320686067
 51
263.5276935074397215
  0
ARC
  5
6A27
  8
0
 10
8.607491361665744
 20
8.3225444804829642
 30
0.0
 40
1.064510137163637
 50
283.1717405874071005
 51
297.7022170607311864
  0
LINE
  5
6A28
  8
0
 10
9.0671948248202892
 20
8.2885990108688503
 30
0.0
 11
26.2014378595979593
 21
8.2885990108689942
 31
0.0
  0
LINE
  5
6A29
  8
0
 10
26.2014378595979913
 20
7.6634021604689053
 30
0.0
 11
9.0671948248202892
 21
7.6634021604688618
 31
0.0
  0
LINE
  5
6A2A
  8
0
 10
27.8039676758446994
 20
10.9287685970690802
 30
0.0
 11
27.8039676758446888
 21
10.8905784766690807
 31
0.0
  0
ARC
  5
6A2B
  8
0
 10
27.5417299768919399
 20
10.8926811525840801
 30
0.0
 40
0.2622461286616791
 50
322.9785972241680838
 51
359.5406004767386889
  0
LINE
  5
6A2C
  8
0
 10
25.5008180745510913
 20
10.9287685970690305
 30
0.0
 11
25.5008180745510913
 21
10.8905433757651799
 31
0.0
  0
ARC
  5
6A2D
  8
0
 10
25.7617657275633505
 20
10.8922438613005497
 30
0.0
 40
0.2609531936261092
 50
180.3733670874362929
 51
217.1152916282862861
  0
LINE
  5
6A2E
  8
0
 10
27.7511100781467803
 20
10.7347792678690706
 30
0.0
 11
25.5536756723490015
 21
10.7347792678690208
 31
0.0
  0
LINE
  5
6A2F
  8
0
 10
27.8039676758446888
 20
10.9287685970686006
 30
0.0
 11
25.5008180745510806
 21
10.9287685970686006
 31
0.0
  0
ARC
  5
6A30
  8
0
 10
31.1859555424978616
 20
8.5279513468691981
 30
0.0
 40
4.0826771653999172
 50
147.2799669948597057
 51
166.6882252949490066
  0
ARC
  5
6A31
  8
0
 10
31.185955538361501
 20
8.5279513475911024
 30
0.0
 40
4.0826771612084691
 50
166.6882252914419098
 51
180.3343498015194086
  0
ARC
  5
6A32
  8
0
 10
22.1188285559344706
 20
8.5279508235212251
 30
0.0
 40
4.0826788382046102
 50
13.3117766978667795
 51
32.7200266521023977
  0
ARC
  5
6A33
  8
0
 10
22.1188261909974315
 20
8.5279506557034264
 30
0.0
 40
4.0826811782395342
 50
359.665660237478221
 51
13.31177134791497
  0
LINE
  5
6A34
  8
0
 10
27.1033478908979397
 20
8.5041270002690652
 30
0.0
 11
26.2014378595979416
 21
8.5041270002689835
 31
0.0
  0
LINE
  5
6A35
  8
0
 10
27.1033478908979504
 20
8.5041270002669354
 30
0.0
 11
27.1033478908979397
 21
8.3607006934690649
 31
0.0
  0
ARC
  5
6A36
  8
0
 10
29.6489547213799689
 20
8.3631022096455467
 30
0.0
 40
2.545607963272567
 50
180.0540526128687873
 51
197.9488331167837032
  0
LINE
  5
6A37
  8
0
 10
26.2014378595979416
 20
8.5041270002689835
 30
0.0
 11
26.2014378595979487
 21
8.2885990108690457
 31
0.0
  0
ARC
  5
6A38
  8
0
 10
25.8164441546381305
 20
7.9614488056230366
 30
0.0
 40
0.5052201595850959
 50
5.324206992816312
 51
40.3563757008241879
  0
ARC
  5
6A39
  8
0
 10
25.3447913448601803
 20
8.149241757940846
 30
0.0
 40
0.9848265662968968
 50
330.4406384136033807
 51
351.7736558165743759
  0
ARC
  5
6A3A
  8
0
 10
27.1897562605911212
 20
7.5665710856465473
 30
0.0
 40
0.0393715937169877
 50
312.7976809963004143
 51
17.8330882711689185
  0
ARC
  5
6A3B
  8
0
 10
26.5462644702441715
 20
8.2079667397442542
 30
0.0
 40
0.947895137885075
 50
278.5401176633754972
 51
314.9981389247041079
  0
ARC
  5
6A3C
  8
0
 10
26.6041169181479695
 20
8.1695128573937392
 30
0.0
 40
0.9027466462812931
 50
258.139168805210204
 51
275.2696928785518935
  0
ARC
  5
6A3D
  8
0
 10
26.6041169181483497
 20
8.1695128574001732
 30
0.0
 40
0.9027466462876658
 50
240.8256820845460027
 51
240.8258113207880058
  0
ARC
  5
6A3E
  8
0
 10
26.1842995912592293
 20
7.4150554710088086
 30
0.0
 40
0.0393703053609601
 50
287.5301028061073794
 51
288.0299647974517825
  0
ARC
  5
6A3F
  8
0
 10
26.1842995912592293
 20
7.4150554710088086
 30
0.0
 40
0.0393703053609601
 50
173.1623886427310026
 51
242.7546283272870085
  0
LINE
  5
6A40
  8
0
 10
26.2014378595981192
 20
7.6634021604690448
 30
0.0
 11
26.1452093044853093
 21
7.4197427329118826
 31
0.0
  0
ARC
  5
6A41
  8
0
 10
26.384258496328961
 20
9.8961379890096666
 30
0.0
 40
2.5255097382132701
 50
265.0485048870193054
 51
276.2071997592482262
  0
ARC
  5
6A42
  8
0
 10
26.4428159438213299
 20
9.2763025889668516
 30
0.0
 40
1.9029970832759311
 50
276.4723064925619838
 51
293.9891636679327007
  0
ARC
  5
6A43
  8
0
 10
26.6611413227524885
 20
8.3225444804831703
 30
0.0
 40
1.064510137163637
 50
242.2977829392704052
 51
256.8282594125943774
  0
LINE
  5
6A44
  8
0
 62
     4
 10
17.9031473532159602
 20
10.9287685970686006
 30
0.0
 11
24.6329820359843588
 21
20.0952817181593808
 31
0.0
  0
LINE
  5
6A45
  8
0
 62
     4
 10
17.9031473532159602
 20
-0.0000000300842942
 30
0.0
 11
22.3963351323106608
 21
4.993614497796286
 31
0.0
  0
ENDBLK
  5
6A49
  8
0
  0
ENDSEC
  0
SECTION
  2
ENTITIES
  0
ATTDEF
  5
3930
  8
DEFPOINTS
 10
4026.9426614794278976
 20
-81.8278473948722791
 30
0.0
 40
0.001
  1
K-7547W-4
  3

  2
MODELNUMBER
 70
     0
1001
ACDBATTR
1070
     0
1070
     1
  0
ATTDEF
  5
3931
  8
DEFPOINTS
 10
4026.9426614794278976
 20
-81.8295140615389442
 30
0.0
 40
0.001
  1
PURIST
  3

  2
TRADENAME
 70
     0
1001
ACDBATTR
1070
     0
1070
     1
  0
ATTDEF
  5
3932
  8
DEFPOINTS
 10
4026.9426614794278976
 20
-81.8311807282055952
 30
0.0
 40
0.001
  1
KITCHEN SINK FAUCET
  3

  2
PRODUCT
 70
     0
1001
ACDBATTR
1070
     0
1070
     1
  0
LINE
  5
9603
  8
0
 10
4025.9702399503062225
 20
-81.8259543997522769
 30
0.0
 11
4027.9002285484998538
 21
-81.8259543997522769
 31
0.0
  0
LINE
  5
9604
  8
0
 10
4025.9702399503062225
 20
-81.6459543997522843
 30
0.0
 11
4027.9002399503069682
 21
-81.6459543997522843
 31
0.0
  0
CIRCLE
  5
9605
  8
0
 10
4026.9352399503068227
 20
-75.8579543997523018
 30
0.0
 40
0.2650000000000006
  0
LINE
  5
9606
  8
0
 10
4020.1802399503058041
 20
-69.3099543997523
 30
0.0
 11
4025.3102399503059132
 21
-69.3099543997523
 31
0.0
  0
LINE
  5
9607
  8
0
 10
4018.0852399503060042
 20
-71.8149543997522954
 30
0.0
 11
4019.0252399503069682
 21
-71.8149543997522954
 31
0.0
  0
LINE
  5
9608
  8
0
 10
4018.0552399503071683
 20
-71.7849543997522943
 30
0.0
 11
4018.0552399503071683
 21
-71.4349543997523
 31
0.0
  0
ARC
  5
9609
  8
0
 10
4020.1802399503058041
 20
-71.4349543997523
 30
0.0
 40
2.1249999999999991
 50
90.0
 51
180.0
  0
ARC
  5
960A
  8
0
 10
4020.1802399503058041
 20
-71.4349543997523
 30
0.0
 40
1.1249999999999989
 50
90.0
 51
180.0
  0
ARC
  5
960B
  8
0
 10
4025.3102399503059132
 20
-71.4349543997523
 30
0.0
 40
2.125
 50
0.0
 51
90.0
  0
ARC
  5
960C
  8
0
 10
4025.3102399503059132
 20
-71.4349543997523
 30
0.0
 40
1.1249999999999989
 50
0.0
 51
90.0
  0
LINE
  5
960D
  8
0
 10
4020.1802399503058041
 20
-70.3099543997523
 30
0.0
 11
4025.3102399503059132
 21
-70.3099543997523
 31
0.0
  0
LINE
  5
960E
  8
0
 10
4019.0552399503071683
 20
-71.7849543997522943
 30
0.0
 11
4019.0552399503071683
 21
-71.4349543997523
 31
0.0
  0
LINE
  5
960F
  8
0
 10
4026.4352399503059132
 20
-76.4909543997522974
 30
0.0
 11
4026.4352399503059132
 21
-71.4349543997523
 31
0.0
  0
LINE
  5
9610
  8
0
 10
4027.4352399503059132
 20
-76.4400293223523022
 30
0.0
 11
4027.4352399503059132
 21
-71.4349543997523
 31
0.0
  0
ARC
  5
9611
  8
0
 10
4019.0252399503069682
 20
-71.7849543997523085
 30
0.0
 40
0.0299999999999869
 50
270.0
 51
0.0000000000236124
  0
ARC
  5
9612
  8
0
 10
4018.0852399503060042
 20
-71.7849543997522943
 30
0.0
 40
0.0300000000000011
 50
180.0000000000032117
 51
270.0
  0
LINE
  5
9613
  8
0
 10
4026.3856344528949194
 20
-77.1309544514260779
 30
0.0
 11
4027.4848454475059043
 21
-77.1309544514260779
 31
0.0
  0
LINE
  5
9614
  8
0
 10
4027.4950900907401774
 20
-76.4909543997522974
 30
0.0
 11
4026.3753898834561369
 21
-76.4909543997522974
 31
0.0
  0
LINE
  5
9615
  8
0
 10
4027.5067724894261119
 20
-80.1273779532368735
 30
0.0
 11
4026.3637074111870788
 21
-80.1273779532368735
 31
0.0
  0
LINE
  5
9616
  8
0
 10
4027.5277399503070228
 20
-80.1559543997522752
 30
0.0
 11
4027.5277399503070228
 21
-81.4159543997522945
 31
0.0
  0
ARC
  5
9617
  8
0
 10
4027.757739950307041
 20
-81.4159543997522945
 30
0.0
 40
0.2299999999999969
 50
180.0000000000007958
 51
270.0
  0
LINE
  5
9618
  8
0
 10
4026.3427399503070774
 20
-80.1559543997522752
 30
0.0
 11
4026.3427399503070774
 21
-81.4159543997522945
 31
0.0
  0
ARC
  5
9619
  8
0
 10
4026.1127399503070592
 20
-81.4159543997522945
 30
0.0
 40
0.2300000000000004
 50
270.0
 51
0.0
  0
ARC
  5
961A
  8
0
 10
4027.9002399503069682
 20
-81.6759543997522854
 30
0.0
 40
0.0300000000000042
 50
0.0000157890510208
 51
90.0
  0
LINE
  5
961B
  8
0
 10
4027.9302399503071683
 20
-81.6759543914851776
 30
0.0
 11
4027.9302282004059634
 21
-81.7959543997522758
 31
0.0
  0
ARC
  5
961C
  8
0
 10
4027.9002252626078189
 20
-81.7959514619898442
 30
0.0
 40
0.030002937942387
 50
270.0062749894664194
 51
359.9943898364085726
  0
ARC
  5
961D
  8
0
 10
4025.9702399503062225
 20
-81.6759543997522854
 30
0.0
 40
0.0300000000000023
 50
90.0
 51
179.9999999999756142
  0
LINE
  5
961E
  8
0
 10
4025.9402399503069319
 20
-81.6759543997522854
 30
0.0
 11
4025.9402399503069319
 21
-81.7959543997522758
 31
0.0
  0
ARC
  5
961F
  8
0
 10
4025.9702399503062225
 20
-81.7959543997522758
 30
0.0
 40
0.0300000000000011
 50
179.9999999999959073
 51
270.0
  0
ARC
  5
9620
  8
0
 10
4027.4978169867022189
 20
-80.1559293691101402
 30
0.0
 40
0.0299229740738068
 50
359.9520719325035998
 51
72.5853289919566009
  0
ARC
  5
9621
  8
0
 10
4027.4902399283209888
 20
-80.090954385587267
 30
0.0
 40
0.0400000219853741
 50
294.4131705050924097
 51
359.9999797100925889
  0
LINE
  5
9622
  8
0
 10
4027.5302399503070774
 20
-80.0909543997522917
 30
0.0
 11
4027.5302409808118682
 21
-77.1809543997524798
 31
0.0
  0
ARC
  5
9623
  8
0
 10
4027.4802410000170312
 20
-77.1809543820461954
 30
0.0
 40
0.0499999807957852
 50
359.9999797100933847
 51
89.918829296417556
  0
ARC
  5
9624
  8
0
 10
4026.3726629139109718
 20
-80.1559293691101402
 30
0.0
 40
0.0299229740738035
 50
107.4146710080440954
 51
180.0479280675077973
  0
ARC
  5
9625
  8
0
 10
4026.3802399722922019
 20
-80.090954385587267
 30
0.0
 40
0.0400000219853625
 50
180.000020289896014
 51
245.5868294949096082
  0
LINE
  5
9626
  8
0
 10
4026.3402399503061133
 20
-80.0909543997522917
 30
0.0
 11
4026.3402389198017772
 21
-77.1809543997524798
 31
0.0
  0
ARC
  5
9627
  8
0
 10
4026.3902389021068302
 20
-77.1809543820461954
 30
0.0
 40
0.0499999823049034
 50
90.082382325435546
 51
180.0000202898976056
  0
LINE
  5
9628
  8
0
 10
4027.4999771263519506
 20
-77.1109543997523019
 30
0.0
 11
4026.3705027742589664
 21
-77.1109543997523019
 31
0.0
  0
LINE
  5
9629
  8
0
 10
4027.4902399503062043
 20
-77.1109543997523019
 30
0.0
 11
4027.4898437341062163
 21
-77.1260852844523015
 31
0.0
  0
ARC
  5
962A
  8
0
 10
4027.484845357354061
 20
-77.1259543602975555
 30
0.0
 40
0.0050000911293311
 50
270.001033061187627
 51
358.4995755559551185
  0
LINE
  5
962B
  8
0
 10
4026.3802399503069864
 20
-77.1109543997523019
 30
0.0
 11
4026.3806361664810538
 21
-77.1260852844984583
 31
0.0
  0
ARC
  5
962C
  8
0
 10
4026.3856345431800037
 20
-77.1259543603537594
 30
0.0
 40
0.0050000910731282
 50
181.5004243458124904
 51
269.9989678637164161
  0
ARC
  5
962D
  8
0
 10
4027.4999724446661276
 20
-77.080952375750627
 30
0.0
 40
0.0300020243669434
 50
270.0089407613803019
 51
0.4984536845429259
  0
LINE
  5
962E
  8
0
 10
4027.5299733337019461
 20
-77.0806913716927511
 30
0.0
 11
4027.5250888136988578
 21
-76.5206926036873512
 31
0.0
  0
ARC
  5
962F
  8
0
 10
4027.4950898601491645
 20
-76.5209544964495194
 30
0.0
 40
0.0300000966981076
 50
0.5001830722747667
 51
89.9995596061067715
  0
ARC
  5
9630
  8
0
 10
4026.370509246347865
 20
-77.0809481073665239
 30
0.0
 40
0.03000629308375
 50
179.5096937100715024
 51
269.9876418092293875
  0
LINE
  5
9631
  8
0
 10
4026.3405029489567823
 20
-77.0809486049027868
 30
0.0
 11
4026.3453910869138781
 21
-76.5206926036873512
 31
0.0
  0
ARC
  5
9632
  8
0
 10
4026.3753898834561369
 20
-76.5209543380654367
 30
0.0
 40
0.0299999383131968
 50
90.0
 51
179.5001167898105052
  0
LINE
  5
9633
  8
0
 10
4027.4352399503059132
 20
-76.4400293223523022
 30
0.0
 11
4027.426089987215164
 21
-76.4909543997522974
 31
0.0
  0
LINE
  5
9634
  8
0
 10
4026.8452399503071319
 20
-77.1109543997523019
 30
0.0
 11
4026.8441917947070579
 21
-77.1309543997522979
 31
0.0
  0
LINE
  5
9635
  8
0
 10
4027.0252399503069682
 20
-77.1109543997523019
 30
0.0
 11
4027.0262881059070423
 21
-77.1309543997522979
 31
0.0
  0
CIRCLE
  5
9636
  8
0
 10
4026.9352399503068227
 20
-75.8579543997523018
 30
0.0
 40
0.2349468024999997
  0
ARC
  5
9637
  8
0
 10
4026.4574552854001013
 20
-76.2409543984337716
 30
0.0
 40
0.2500000013185191
 50
270.0000002995554951
 51
359.5000057375345932
  0
LINE
  5
9638
  8
0
 10
4026.707445767702211
 20
-76.243136007285969
 30
0.0
 11
4026.707445767702211
 21
-75.9933604940454757
 31
0.0
  0
ARC
  5
9639
  8
0
 10
4027.4130918402670432
 20
-76.240791198905967
 30
0.0
 40
0.2501632100274401
 50
180.5370537975630896
 51
269.9844770776533096
  0
LINE
  5
963A
  8
0
 10
4027.1629396198068207
 20
-76.2431360336520356
 30
0.0
 11
4027.1629396198068207
 21
-75.9935193676075329
 31
0.0
  0
ENDSEC
  0
EOF
