  0
SECTION
  2
HEADER
  9
$ACADVER
  1
AC1009
  9
$INSBASE
 10
4394.4644568079411329
 20
230.0651209618995097
 30
0.0
  9
$EXTMIN
 10
4390.6241423203018712
 20
226.5168850687381052
 30
-0.0015258207003583
  9
$EXTMAX
 10
4398.3254592248631525
 20
233.6236609866375034
 30
0.0000000349246037
  9
$LIMMIN
 10
0.0
 20
0.0
  9
$LIMMAX
 10
11.6929133858000007
 20
8.2677165353999982
  9
$ORTHOMODE
 70
     0
  9
$REGENMODE
 70
     1
  9
$FILLMODE
 70
     1
  9
$QTEXTMODE
 70
     0
  9
$MIRRTEXT
 70
     0
  9
$DRAGMODE
 70
     2
  9
$LTSCALE
 40
0.6431102362
  9
$OSMODE
 70
     7
  9
$ATTMODE
 70
     1
  9
$TEXTSIZE
 40
0.2
  9
$TRACEWID
 40
0.05
  9
$TEXTSTYLE
  7
STANDARD
  9
$CLAYER
  8
0
  9
$CELTYPE
  6
BYLAYER
  9
$CECOLOR
 62
   256
  9
$DIMSCALE
 40
1.0
  9
$DIMASZ
 40
0.1875
  9
$DIMEXO
 40
0.0625
  9
$DIMDLI
 40
0.4443307087
  9
$DIMRND
 40
0.0
  9
$DIMDLE
 40
0.0
  9
$DIMEXE
 40
0.125
  9
$DIMTP
 40
0.01
  9
$DIMTM
 40
0.01
  9
$DIMTXT
 40
2.0
  9
$DIMCEN
 40
0.1052362205
  9
$DIMTSZ
 40
0.0
  9
$DIMTOL
 70
     1
  9
$DIMLIM
 70
     0
  9
$DIMTIH
 70
     1
  9
$DIMTOH
 70
     1
  9
$DIMSE1
 70
     0
  9
$DIMSE2
 70
     0
  9
$DIMTAD
 70
     0
  9
$DIMZIN
 70
     0
  9
$DIMBLK
  1

  9
$DIMASO
 70
     1
  9
$DIMSHO
 70
     1
  9
$DIMPOST
  1
\X
  9
$DIMAPOST
  1

  9
$DIMALT
 70
     1
  9
$DIMALTD
 70
     2
  9
$DIMALTF
 40
25.3999999999999986
  9
$DIMLFAC
 40
1.0
  9
$DIMTOFL
 70
     0
  9
$DIMTVP
 40
0.0
  9
$DIMTIX
 70
     0
  9
$DIMSOXD
 70
     0
  9
$DIMSAH
 70
     0
  9
$DIMBLK1
  1

  9
$DIMBLK2
  1

  9
$DIMSTYLE
  2
STANDARD
  9
$DIMCLRD
 70
     0
  9
$DIMCLRE
 70
     0
  9
$DIMCLRT
 70
     0
  9
$DIMTFAC
 40
1.0
  9
$DIMGAP
 40
0.09
  9
$LUNITS
 70
     2
  9
$LUPREC
 70
     4
  9
$SKETCHINC
 40
0.1
  9
$FILLETRAD
 40
0.0
  9
$AUNITS
 70
     0
  9
$AUPREC
 70
     0
  9
$MENU
  1
.
  9
$ELEVATION
 40
0.0
  9
$PELEVATION
 40
0.0
  9
$THICKNESS
 40
0.0
  9
$LIMCHECK
 70
     0
  9
$BLIPMODE
 70
     0
  9
$CHAMFERA
 40
0.0
  9
$CHAMFERB
 40
0.0
  9
$SKPOLY
 70
     0
  9
$TDCREATE
 40
2458060.468368056230247
  9
$TDUPDATE
 40
2459498.9455787041224539
  9
$TDINDWG
 40
0.6625649306
  9
$TDUSRTIMER
 40
0.6625649306
  9
$USRTIMER
 70
     1
  9
$ANGBASE
 50
0.0
  9
$ANGDIR
 70
     0
  9
$PDMODE
 70
     0
  9
$PDSIZE
 40
0.3125
  9
$PLINEWID
 40
0.0
  9
$COORDS
 70
     1
  9
$SPLFRAME
 70
     0
  9
$SPLINETYPE
 70
     6
  9
$SPLINESEGS
 70
     8
  9
$ATTDIA
 70
     1
  9
$ATTREQ
 70
     1
  9
$HANDLING
 70
     1
  9
$HANDSEED
  5
13B0F
  9
$SURFTAB1
 70
     6
  9
$SURFTAB2
 70
     6
  9
$SURFTYPE
 70
     6
  9
$SURFU
 70
     6
  9
$SURFV
 70
     6
  9
$UCSNAME
  2

  9
$UCSORG
 10
0.0
 20
0.0
 30
0.0
  9
$UCSXDIR
 10
1.0
 20
0.0
 30
0.0
  9
$UCSYDIR
 10
0.0
 20
1.0
 30
0.0
  9
$PUCSNAME
  2

  9
$PUCSORG
 10
0.0
 20
0.0
 30
0.0
  9
$PUCSXDIR
 10
1.0
 20
0.0
 30
0.0
  9
$PUCSYDIR
 10
0.0
 20
1.0
 30
0.0
  9
$USERI1
 70
     0
  9
$USERI2
 70
     0
  9
$USERI3
 70
     0
  9
$USERI4
 70
     0
  9
$USERI5
 70
     0
  9
$USERR1
 40
0.0
  9
$USERR2
 40
0.0
  9
$USERR3
 40
0.0
  9
$USERR4
 40
0.0
  9
$USERR5
 40
0.0
  9
$WORLDVIEW
 70
     1
  9
$SHADEDGE
 70
     3
  9
$SHADEDIF
 70
    70
  9
$TILEMODE
 70
     1
  9
$MAXACTVP
 70
    64
  9
$PLIMCHECK
 70
     0
  9
$PEXTMIN
 10
1.0000000000000000E+20
 20
1.0000000000000000E+20
 30
1.0000000000000000E+20
  9
$PEXTMAX
 10
-1.0000000000000000E+20
 20
-1.0000000000000000E+20
 30
-1.0000000000000000E+20
  9
$PLIMMIN
 10
0.0
 20
0.0
  9
$PLIMMAX
 10
12.0
 20
9.0
  9
$UNITMODE
 70
     0
  9
$VISRETAIN
 70
     1
  9
$PLINEGEN
 70
     0
  9
$PSLTSCALE
 70
     1
  0
ENDSEC
  0
SECTION
  2
TABLES
  0
TABLE
  2
VPORT
 70
     1
  0
VPORT
  2
*ACTIVE
 70
     0
 10
0.0
 20
0.0
 11
1.0
 21
1.0
 12
232.918404288207995
 22
3.9594408133323209
 13
0.0
 23
0.0
 14
1.0
 24
1.0
 15
0.0
 25
0.0
 16
0.0
 26
0.0
 36
202.37134017897489
 17
4161.556396484375
 27
226.1108322143554972
 37
0.0
 40
7.1568876392100051
 41
2.218457943925233
 42
50.0
 43
0.0
 44
0.0
 50
0.0
 51
0.0
 71
     0
 72
   100
 73
     1
 74
     1
 75
     0
 76
     0
 77
     0
 78
     0
  0
ENDTAB
  0
TABLE
  2
LTYPE
 70
     2
  0
LTYPE
  2
CONTINUOUS
 70
     0
  3
Solid line
 72
    65
 73
     0
 40
0.0
  0
LTYPE
  2
PHANTOM2
 70
     0
  3
___ _ _ ___ _ _ ___ _ _ ___ _ _
 72
    65
 73
     6
 40
1.25
 49
0.625
 49
-0.125
 49
0.125
 49
-0.125
 49
0.125
 49
-0.125
  0
ENDTAB
  0
TABLE
  2
LAYER
 70
     2
  0
LAYER
  2
0
 70
     0
 62
   255
  6
CONTINUOUS
  0
LAYER
  2
DEFPOINTS
 70
     0
 62
     7
  6
CONTINUOUS
  0
ENDTAB
  0
TABLE
  2
STYLE
 70
     1
  0
STYLE
  2
STANDARD
 70
     0
 40
0.0
 41
0.8
 50
0.0
 71
     0
 42
0.2
  3
txt
  4

  0
ENDTAB
  0
TABLE
  2
VIEW
 70
     0
  0
ENDTAB
  0
TABLE
  2
UCS
 70
     0
  0
ENDTAB
  0
TABLE
  2
APPID
 70
    10
  0
APPID
  2
ACAD
 70
     0
  0
APPID
  2
ACAD_MLEADERVER
 70
     0
  0
APPID
  2
ACAD_EXEMPT_FROM_CAD_STANDARDS
 70
     0
  0
APPID
  2
ACAD_NAV_VCDISPLAY
 70
     0
  0
APPID
  2
ACAECLAYERSTANDARD
 70
     0
  0
APPID
  2
ACCMTRANSPARENCY
 70
     0
  0
APPID
  2
ACAD_DSTYLE_DIMJAG
 70
     0
  0
APPID
  2
ACAD_DSTYLE_DIMTALN
 70
     0
  0
APPID
  2
ACDBATTR
 70
     0
  0
APPID
  2
DCO15
 70
     0
  0
ENDTAB
  0
TABLE
  2
DIMSTYLE
 70
     1
  0
DIMSTYLE
  2
STANDARD
 70
     0
  3

  4

  5

  6

  7

 40
1.0
 41
0.1875
 42
0.0625
 43
0.38
 44
0.125
 45
0.0
 46
0.0
 47
0.01
 48
0.01
140
0.15625
141
0.09
142
0.0
143
25.3999999999999986
144
1.0
145
0.0
146
1.0
147
0.09
 71
     1
 72
     0
 73
     1
 74
     1
 75
     0
 76
     0
 77
     0
 78
     4
170
     0
171
     2
172
     0
173
     0
174
     0
175
     0
176
     0
177
     0
178
     0
  0
ENDTAB
  0
ENDSEC
  0
SECTION
  2
BLOCKS
  0
BLOCK
  8
0
  2
$MODEL_SPACE
 70
     0
 10
0.0
 20
0.0
 30
0.0
  3
$MODEL_SPACE
  1

  0
ENDBLK
  5
21
  8
0
  0
BLOCK
 67
     1
  8
0
  2
$PAPER_SPACE
 70
     0
 10
0.0
 20
0.0
 30
0.0
  3
$PAPER_SPACE
  1

  0
ENDBLK
  5
1D
 67
     1
  8
0
  0
ENDSEC
  0
SECTION
  2
ENTITIES
  0
ATTDEF
  5
12CA7
  8
DEFPOINTS
 10
4394.4644763960623095
 20
230.0684689642496039
 30
0.0
 40
0.001
  1
K-75525T-4
  3

  2
MODELNUMBER
 70
     0
1001
ACDBATTR
1070
     0
1070
     1
  0
ATTDEF
  5
12CA8
  8
DEFPOINTS
 10
4394.4644763960623095
 20
230.0668022975829956
 30
0.0
 40
0.001
  1
ELLISTONE
  3

  2
TRADENAME
 70
     0
1001
ACDBATTR
1070
     0
1070
     1
  0
ATTDEF
  5
12CA9
  8
DEFPOINTS
 10
4394.4644763960623095
 20
230.065135630916302
 30
0.0
 40
0.001
  1
VALVE TRIM
  3

  2
PRODUCT
 70
     0
1001
ACDBATTR
1070
     0
1070
     1
  0
ARC
  5
13A19
  8
0
 10
4394.4644568079411329
 20
230.0651209618995097
 30
0.0
 40
3.5433070866
 50
278.9490180659892076
 51
261.0509819340109061
  0
ARC
  5
13A1A
  8
0
 10
4394.4644568079411329
 20
230.0651209618995097
 30
0.0
 40
3.5433070866
 50
266.17744627067691
 51
273.82255372932309
  0
ARC
  5
13A1C
  8
0
 10
4394.4644568079411329
 20
231.1084280485995066
 30
0.0
 40
0.9645654392000002
 50
290.3063923783673204
 51
249.6936076216327081
  0
ARC
  5
13A1D
  8
0
 10
4394.4644568079411329
 20
231.1084280485995066
 30
0.0
 40
0.4127228999133195
 50
278.2264924373376971
 51
261.7735075626621892
  0
ARC
  5
13A1E
  8
0
 10
4394.4088633127439607
 20
230.6252104193297896
 30
0.0
 40
0.075918801876288
 50
83.685950572027906
 51
88.2523792712579365
  0
ARC
  5
13A1F
  8
0
 10
4394.4103023180950913
 20
230.6723736061032923
 30
0.0
 40
0.0287336673205978
 50
88.2523792712579365
 51
97.4334915030334798
  0
ARC
  5
13A20
  8
0
 10
4394.4068174929916495
 20
230.6990830254030129
 30
0.0
 40
0.0017978717070893
 50
97.4334915030332667
 51
141.9507232010973894
  0
LINE
  5
13A21
  8
0
 10
4394.4054017032422053
 20
230.7001911237994989
 30
0.0
 11
4394.4054017032422053
 21
230.6999519945624115
 31
0.0
  0
ARC
  5
13A22
  8
0
 10
4394.5200503031392145
 20
230.6252104193297896
 30
0.0
 40
0.075918801876288
 50
91.7476207287420493
 51
96.314049427972094
  0
ARC
  5
13A23
  8
0
 10
4394.5186112977871744
 20
230.6723736061032923
 30
0.0
 40
0.0287336673205978
 50
82.5665084969665344
 51
91.7476207287420493
  0
ARC
  5
13A24
  8
0
 10
4394.5220961228897067
 20
230.6990830254030129
 30
0.0
 40
0.0017978717070893
 50
38.0492767989025822
 51
82.5665084969667333
  0
LINE
  5
13A25
  8
0
 10
4394.5235119126418795
 20
230.7001911237994989
 30
0.0
 11
4394.5235119126418795
 21
230.6999519945624115
 31
0.0
  0
ARC
  5
13A26
  8
0
 10
4394.464456807492752
 20
231.1383296363302975
 30
0.0
 40
0.4402034761307726
 50
263.8389610339860951
 51
276.1610390843101754
  0
CIRCLE
  5
13A27
  8
0
 10
4394.4644568079411329
 20
231.1084280485995066
 30
0.0
 40
0.4133858334846981
  0
ARC
  5
13A28
  8
0
 10
4394.4573361684169868
 20
231.1321660727830931
 30
0.0
 40
0.5283825678187948
 50
182.5421007811881111
 51
196.0915660458470029
  0
ARC
  5
13A29
  8
0
 10
4395.3581020366918892
 20
231.4114872710698023
 30
0.0
 40
1.4713957054851741
 50
196.8201174120549126
 51
203.2178586918421104
  0
ARC
  5
13A2A
  8
0
 10
4392.439809099494596
 20
230.1208270596814884
 30
0.0
 40
1.719736618119486
 50
18.9955219690147388
 51
24.4059799419459402
  0
ARC
  5
13A2B
  8
0
 10
4393.1513742904598985
 20
230.3556690737121073
 30
0.0
 40
0.970527737286617
 50
3.3069128098512262
 51
19.5597305194503797
  0
ARC
  5
13A2C
  8
0
 10
4390.8291099836078502
 20
230.1582302348116968
 30
0.0
 40
3.3009184609757329
 50
358.649776177883723
 51
4.4031330455853697
  0
ARC
  5
13A2D
  8
0
 10
4383.754245858325703
 20
230.3259048748645057
 30
0.0
 40
10.3777692371243901
 50
356.986665886388721
 51
358.6447061318971805
  0
ARC
  5
13A2E
  8
0
 10
4335.0569775995309101
 20
232.2968311604888925
 30
0.0
 40
59.1142752101872304
 50
356.872442633309106
 51
357.5602066990223875
  0
ARC
  5
13A2F
  8
0
 10
4382.4823009673827983
 20
229.8547774543114031
 30
0.0
 40
11.6273091287012402
 50
351.8891763599531259
 51
356.1378756228322118
  0
ARC
  5
13A30
  8
0
 10
4374.3179237026479313
 20
230.9225003127421019
 30
0.0
 40
19.8608879803128602
 50
350.4860035059447227
 51
352.1628210997814108
  0
ARC
  5
13A31
  8
0
 10
4393.9821503543416839
 20
227.6251716896171899
 30
0.0
 40
0.0778914672896529
 50
169.2328522716422867
 51
234.5466212927204026
  0
ARC
  5
13A32
  8
0
 10
4394.0246694038796704
 20
227.6848839133861873
 30
0.0
 40
0.151195077304342
 50
234.5466212927204026
 51
262.1457719981661967
  0
ARC
  5
13A33
  8
0
 10
4394.4715774474661885
 20
231.1321660727830931
 30
0.0
 40
0.5283825678187966
 50
343.9084339541528834
 51
357.4578992188119173
  0
ARC
  5
13A34
  8
0
 10
4393.5708115791903765
 20
231.4114872710698023
 30
0.0
 40
1.4713957054851741
 50
336.7821413081563833
 51
343.1798825879449737
  0
ARC
  5
13A35
  8
0
 10
4396.4891045163903982
 20
230.1208270596814884
 30
0.0
 40
1.719736618119486
 50
155.5940200580540136
 51
161.0044780309852115
  0
ARC
  5
13A36
  8
0
 10
4395.7775393254223673
 20
230.3556690737121073
 30
0.0
 40
0.970527737286617
 50
160.4402694805496026
 51
176.6930871901487023
  0
ARC
  5
13A37
  8
0
 10
4398.0998036322762346
 20
230.1582302348116968
 30
0.0
 40
3.3009184609757329
 50
175.5968669544130023
 51
181.3502238221163054
  0
ARC
  5
13A38
  8
0
 10
4405.1746677575565627
 20
230.3259048748645057
 30
0.0
 40
10.3777692371243901
 50
181.3552938681011142
 51
183.0133341136113074
  0
ARC
  5
13A39
  8
0
 10
4453.8719360163522651
 20
232.2968311604888925
 30
0.0
 40
59.1142752101872304
 50
182.4397933009776125
 51
183.1275573666908087
  0
ARC
  5
13A3A
  8
0
 10
4406.446612648498558
 20
229.8547774543114031
 30
0.0
 40
11.6273091287012402
 50
183.8621243771661966
 51
188.1108236400469025
  0
ARC
  5
13A3B
  8
0
 10
4414.6109899132361534
 20
230.9225003127421019
 30
0.0
 40
19.8608879803128602
 50
187.8371789002185039
 51
189.5139964940553057
  0
ARC
  5
13A3C
  8
0
 10
4394.9467632615424009
 20
227.6251716896171899
 30
0.0
 40
0.0778914672896529
 50
305.4533787072795121
 51
10.7671477283577008
  0
ARC
  5
13A3D
  8
0
 10
4394.9042442120016858
 20
227.6848839133861873
 30
0.0
 40
0.151195077304342
 50
277.8542280018338033
 51
305.4533787072787163
  0
ARC
  5
13A3E
  8
0
 10
4394.4644568079411329
 20
230.0550649687081943
 30
0.0
 40
2.5616791628626561
 50
259.645100236052599
 51
280.354899763947401
  0
CIRCLE
  5
13A3F
  8
0
 10
4394.4644568079411329
 20
230.0651209618995097
 30
0.0
 40
3.2712343310981811
  0
ARC
  5
13A40
  8
0
 10
4394.4644568079411329
 20
231.1084280485995066
 30
0.0
 40
0.9842519685000006
 50
289.8690679780825121
 51
250.1309320219174026
  0
LINE
  5
13A41
  8
0
 10
4395.0156379103418658
 20
226.5691214236994995
 30
0.0
 11
4395.0156379103418658
 21
226.5649460373697934
 31
0.0
  0
LINE
  5
13A42
  8
0
 10
4394.7006772803842978
 20
226.5338303667249988
 30
0.0
 11
4394.7006772803842978
 21
226.5296966594501953
 31
0.0
  0
ARC
  5
13A43
  8
0
 10
4394.4644568106496081
 20
230.0651209316093002
 30
0.0
 40
3.5391825558965651
 50
273.8270150870998805
 51
278.9595329193875273
  0
LINE
  5
13A44
  8
0
 10
4393.9132757055422189
 20
226.5691214236994995
 30
0.0
 11
4393.9132757055422189
 21
226.5649460373697934
 31
0.0
  0
LINE
  5
13A45
  8
0
 10
4394.2282363354988775
 20
226.5338303667249988
 30
0.0
 11
4394.2282363354988775
 21
226.5296966594501953
 31
0.0
  0
ARC
  5
13A46
  8
0
 10
4394.4644568052317481
 20
230.0651209316093002
 30
0.0
 40
3.5391825558965651
 50
261.0404670806124727
 51
266.1729849129001195
  0
ARC
  5
13A47
  8
0
 10
4394.4644568079411329
 20
231.1087304706115901
 30
0.0
 40
0.5349832263082011
 50
0.0
 51
180.0
  0
ENDSEC
  0
EOF
