  0
SECTION
  2
HEADER
  9
$ACADVER
  1
AC1009
  9
$INSBASE
 10
4397.8440530378638869
 20
235.1923241348920044
 30
0.0
  9
$EXTMIN
 10
4394.1434486753623787
 20
230.2709759639764115
 30
-0.0000000000000058
  9
$EXTMAX
 10
4401.5169547388941282
 20
235.2092415236533895
 30
0.0000000000000104
  9
$LIMMIN
 10
0.0
 20
0.0
  9
$LIMMAX
 10
11.6929133858000007
 20
8.2677165353999982
  9
$ORTHOMODE
 70
     0
  9
$REGENMODE
 70
     1
  9
$FILLMODE
 70
     1
  9
$QTEXTMODE
 70
     0
  9
$MIRRTEXT
 70
     0
  9
$DRAGMODE
 70
     2
  9
$LTSCALE
 40
0.6431102362
  9
$OSMODE
 70
     7
  9
$ATTMODE
 70
     1
  9
$TEXTSIZE
 40
0.2
  9
$TRACEWID
 40
0.05
  9
$TEXTSTYLE
  7
STANDARD
  9
$CLAYER
  8
0
  9
$CELTYPE
  6
BYLAYER
  9
$CECOLOR
 62
   256
  9
$DIMSCALE
 40
1.0
  9
$DIMASZ
 40
0.1875
  9
$DIMEXO
 40
0.0625
  9
$DIMDLI
 40
0.4443307087
  9
$DIMRND
 40
0.0
  9
$DIMDLE
 40
0.0
  9
$DIMEXE
 40
0.125
  9
$DIMTP
 40
0.01
  9
$DIMTM
 40
0.01
  9
$DIMTXT
 40
2.0
  9
$DIMCEN
 40
0.1052362205
  9
$DIMTSZ
 40
0.0
  9
$DIMTOL
 70
     1
  9
$DIMLIM
 70
     0
  9
$DIMTIH
 70
     1
  9
$DIMTOH
 70
     1
  9
$DIMSE1
 70
     0
  9
$DIMSE2
 70
     0
  9
$DIMTAD
 70
     0
  9
$DIMZIN
 70
     0
  9
$DIMBLK
  1

  9
$DIMASO
 70
     1
  9
$DIMSHO
 70
     1
  9
$DIMPOST
  1
\X
  9
$DIMAPOST
  1

  9
$DIMALT
 70
     1
  9
$DIMALTD
 70
     2
  9
$DIMALTF
 40
25.3999999999999986
  9
$DIMLFAC
 40
1.0
  9
$DIMTOFL
 70
     0
  9
$DIMTVP
 40
0.0
  9
$DIMTIX
 70
     0
  9
$DIMSOXD
 70
     0
  9
$DIMSAH
 70
     0
  9
$DIMBLK1
  1

  9
$DIMBLK2
  1

  9
$DIMSTYLE
  2
STANDARD
  9
$DIMCLRD
 70
     0
  9
$DIMCLRE
 70
     0
  9
$DIMCLRT
 70
     0
  9
$DIMTFAC
 40
1.0
  9
$DIMGAP
 40
0.09
  9
$LUNITS
 70
     2
  9
$LUPREC
 70
     4
  9
$SKETCHINC
 40
0.1
  9
$FILLETRAD
 40
0.0
  9
$AUNITS
 70
     0
  9
$AUPREC
 70
     0
  9
$MENU
  1
.
  9
$ELEVATION
 40
0.0
  9
$PELEVATION
 40
0.0
  9
$THICKNESS
 40
0.0
  9
$LIMCHECK
 70
     0
  9
$BLIPMODE
 70
     0
  9
$CHAMFERA
 40
0.0
  9
$CHAMFERB
 40
0.0
  9
$SKPOLY
 70
     0
  9
$TDCREATE
 40
2458060.468368056230247
  9
$TDUPDATE
 40
2459498.9457291672006249
  9
$TDINDWG
 40
0.6640001156999999
  9
$TDUSRTIMER
 40
0.6640001156999999
  9
$USRTIMER
 70
     1
  9
$ANGBASE
 50
0.0
  9
$ANGDIR
 70
     0
  9
$PDMODE
 70
     0
  9
$PDSIZE
 40
0.3125
  9
$PLINEWID
 40
0.0
  9
$COORDS
 70
     1
  9
$SPLFRAME
 70
     0
  9
$SPLINETYPE
 70
     6
  9
$SPLINESEGS
 70
     8
  9
$ATTDIA
 70
     1
  9
$ATTREQ
 70
     1
  9
$HANDLING
 70
     1
  9
$HANDSEED
  5
13C23
  9
$SURFTAB1
 70
     6
  9
$SURFTAB2
 70
     6
  9
$SURFTYPE
 70
     6
  9
$SURFU
 70
     6
  9
$SURFV
 70
     6
  9
$UCSNAME
  2

  9
$UCSORG
 10
0.0
 20
0.0
 30
0.0
  9
$UCSXDIR
 10
1.0
 20
0.0
 30
0.0
  9
$UCSYDIR
 10
0.0
 20
1.0
 30
0.0
  9
$PUCSNAME
  2

  9
$PUCSORG
 10
0.0
 20
0.0
 30
0.0
  9
$PUCSXDIR
 10
1.0
 20
0.0
 30
0.0
  9
$PUCSYDIR
 10
0.0
 20
1.0
 30
0.0
  9
$USERI1
 70
     0
  9
$USERI2
 70
     0
  9
$USERI3
 70
     0
  9
$USERI4
 70
     0
  9
$USERI5
 70
     0
  9
$USERR1
 40
0.0
  9
$USERR2
 40
0.0
  9
$USERR3
 40
0.0
  9
$USERR4
 40
0.0
  9
$USERR5
 40
0.0
  9
$WORLDVIEW
 70
     1
  9
$SHADEDGE
 70
     3
  9
$SHADEDIF
 70
    70
  9
$TILEMODE
 70
     1
  9
$MAXACTVP
 70
    64
  9
$PLIMCHECK
 70
     0
  9
$PEXTMIN
 10
1.0000000000000000E+20
 20
1.0000000000000000E+20
 30
1.0000000000000000E+20
  9
$PEXTMAX
 10
-1.0000000000000000E+20
 20
-1.0000000000000000E+20
 30
-1.0000000000000000E+20
  9
$PLIMMIN
 10
0.0
 20
0.0
  9
$PLIMMAX
 10
12.0
 20
9.0
  9
$UNITMODE
 70
     0
  9
$VISRETAIN
 70
     1
  9
$PLINEGEN
 70
     0
  9
$PSLTSCALE
 70
     1
  0
ENDSEC
  0
SECTION
  2
TABLES
  0
TABLE
  2
VPORT
 70
     1
  0
VPORT
  2
*ACTIVE
 70
     0
 10
0.0
 20
0.0
 11
1.0
 21
1.0
 12
236.2738052227533103
 22
6.629276529459446
 13
0.0
 23
0.0
 14
1.0
 24
1.0
 15
0.0
 25
0.0
 16
0.0
 26
0.0
 36
202.37134017897489
 17
4161.556396484375
 27
226.1108322143554972
 37
0.0
 40
4.9732352304851162
 41
2.218457943925233
 42
50.0
 43
0.0
 44
0.0
 50
0.0
 51
0.0
 71
     0
 72
   100
 73
     1
 74
     1
 75
     0
 76
     0
 77
     0
 78
     0
  0
ENDTAB
  0
TABLE
  2
LTYPE
 70
     2
  0
LTYPE
  2
CONTINUOUS
 70
     0
  3
Solid line
 72
    65
 73
     0
 40
0.0
  0
LTYPE
  2
PHANTOM2
 70
     0
  3
___ _ _ ___ _ _ ___ _ _ ___ _ _
 72
    65
 73
     6
 40
1.25
 49
0.625
 49
-0.125
 49
0.125
 49
-0.125
 49
0.125
 49
-0.125
  0
ENDTAB
  0
TABLE
  2
LAYER
 70
     2
  0
LAYER
  2
0
 70
     0
 62
   255
  6
CONTINUOUS
  0
LAYER
  2
DEFPOINTS
 70
     0
 62
     7
  6
CONTINUOUS
  0
ENDTAB
  0
TABLE
  2
STYLE
 70
     1
  0
STYLE
  2
STANDARD
 70
     0
 40
0.0
 41
0.8
 50
0.0
 71
     0
 42
0.2
  3
txt
  4

  0
ENDTAB
  0
TABLE
  2
VIEW
 70
     0
  0
ENDTAB
  0
TABLE
  2
UCS
 70
     0
  0
ENDTAB
  0
TABLE
  2
APPID
 70
    10
  0
APPID
  2
ACAD
 70
     0
  0
APPID
  2
ACAD_MLEADERVER
 70
     0
  0
APPID
  2
ACAD_EXEMPT_FROM_CAD_STANDARDS
 70
     0
  0
APPID
  2
ACAD_NAV_VCDISPLAY
 70
     0
  0
APPID
  2
ACAECLAYERSTANDARD
 70
     0
  0
APPID
  2
ACCMTRANSPARENCY
 70
     0
  0
APPID
  2
ACAD_DSTYLE_DIMJAG
 70
     0
  0
APPID
  2
ACAD_DSTYLE_DIMTALN
 70
     0
  0
APPID
  2
ACDBATTR
 70
     0
  0
APPID
  2
DCO15
 70
     0
  0
ENDTAB
  0
TABLE
  2
DIMSTYLE
 70
     1
  0
DIMSTYLE
  2
STANDARD
 70
     0
  3

  4

  5

  6

  7

 40
1.0
 41
0.1875
 42
0.0625
 43
0.38
 44
0.125
 45
0.0
 46
0.0
 47
0.01
 48
0.01
140
0.15625
141
0.09
142
0.0
143
25.3999999999999986
144
1.0
145
0.0
146
1.0
147
0.09
 71
     1
 72
     0
 73
     1
 74
     1
 75
     0
 76
     0
 77
     0
 78
     4
170
     0
171
     2
172
     0
173
     0
174
     0
175
     0
176
     0
177
     0
178
     0
  0
ENDTAB
  0
ENDSEC
  0
SECTION
  2
BLOCKS
  0
BLOCK
  8
0
  2
$MODEL_SPACE
 70
     0
 10
0.0
 20
0.0
 30
0.0
  3
$MODEL_SPACE
  1

  0
ENDBLK
  5
21
  8
0
  0
BLOCK
 67
     1
  8
0
  2
$PAPER_SPACE
 70
     0
 10
0.0
 20
0.0
 30
0.0
  3
$PAPER_SPACE
  1

  0
ENDBLK
  5
1D
 67
     1
  8
0
  0
ENDSEC
  0
SECTION
  2
ENTITIES
  0
ATTDEF
  5
12CA7
  8
DEFPOINTS
 10
4397.8440548791368201
 20
235.1956658425789897
 30
0.0
 40
0.001
  1
K-75525T-4
  3

  2
MODELNUMBER
 70
     0
1001
ACDBATTR
1070
     0
1070
     1
  0
ATTDEF
  5
12CA8
  8
DEFPOINTS
 10
4397.8440548791368201
 20
235.1939991759122961
 30
0.0
 40
0.001
  1
ELLISTONE
  3

  2
TRADENAME
 70
     0
1001
ACDBATTR
1070
     0
1070
     1
  0
ATTDEF
  5
12CA9
  8
DEFPOINTS
 10
4397.8440548791368201
 20
235.1923325092456878
 30
0.0
 40
0.001
  1
VALVE TRIM
  3

  2
PRODUCT
 70
     0
1001
ACDBATTR
1070
     0
1070
     1
  0
LINE
  5
13B03
  8
0
 10
4401.3873601244649763
 20
235.1923241348920044
 30
0.0
 11
4394.3007459512646165
 21
235.1923241348920044
 31
0.0
  0
LINE
  5
13B05
  8
0
 10
4394.428552015268906
 20
234.798623347491997
 30
0.0
 11
4401.2595540604597772
 21
234.798623347491997
 31
0.0
  0
LINE
  5
13B06
  8
0
 10
4394.6904398717197182
 20
234.6017729537919934
 30
0.0
 11
4400.9976662040098745
 21
234.6017729537919934
 31
0.0
  0
LINE
  5
13B07
  8
0
 10
4394.3007459512646165
 20
235.1923241348920044
 30
0.0
 11
4394.3105137284301236
 21
234.9126115959932122
 31
0.0
  0
ARC
  5
13B08
  8
0
 10
4394.428552015268906
 20
234.9167335839005943
 30
0.0
 40
0.1181102364086525
 50
182.0000000492048002
 51
269.9999999005736981
  0
ARC
  5
13B09
  8
0
 10
4394.4748010695439007
 20
234.7001981507715982
 30
0.0
 40
0.098425196720359
 50
5.2159085493359214
 51
90.0000001043246272
  0
ARC
  5
13B0A
  8
0
 10
4394.6904398717197182
 20
234.7198831901517053
 30
0.0
 40
0.1181102363596913
 50
185.2159085925040927
 51
269.999999924857093
  0
LINE
  5
13B0B
  8
0
 10
4401.3873601244649763
 20
235.1923241348920044
 30
0.0
 11
4401.3775923473012881
 21
234.9126115959932122
 31
0.0
  0
ARC
  5
13B0C
  8
0
 10
4401.2595540604597772
 20
234.9167335839005943
 30
0.0
 40
0.1181102364086525
 50
270.0000000994263019
 51
357.9999999507934945
  0
ARC
  5
13B0D
  8
0
 10
4401.2133050061847825
 20
234.7001981507715982
 30
0.0
 40
0.098425196720359
 50
89.9999998956753586
 51
174.784091450664107
  0
ARC
  5
13B0E
  8
0
 10
4400.9976662040098745
 20
234.7198831901517053
 30
0.0
 40
0.1181102363596913
 50
270.000000075142907
 51
354.7840914074959073
  0
LINE
  5
13B0F
  8
0
 10
4397.4306672043803701
 20
231.1372060246920057
 30
0.0
 11
4398.2574388713501321
 21
231.1372060246920057
 31
0.0
  0
LINE
  5
13B10
  8
0
 10
4398.7279815456649885
 20
232.7994203836919951
 30
0.0
 11
4396.9601245300664232
 21
232.7994203836919951
 31
0.0
  0
LINE
  5
13B11
  8
0
 10
4398.8086184770645559
 20
233.1844501191920074
 30
0.0
 11
4396.8794875986650368
 21
233.1844501191920074
 31
0.0
  0
LINE
  5
13B12
  8
0
 10
4398.7850078903338726
 20
233.3025603553919893
 30
0.0
 11
4396.9031071025256097
 21
233.3025603553919893
 31
0.0
  0
LINE
  5
13B13
  8
0
 10
4398.8086184770645559
 20
233.873426497091998
 30
0.0
 11
4396.8794875986650368
 21
233.873426497091998
 31
0.0
  0
ARC
  5
13B14
  8
0
 10
4397.4352671458827899
 20
231.1332690167627959
 30
0.0
 40
0.003937007932223
 50
90.0
 51
188.8806586888238996
  0
LINE
  5
13B15
  8
0
 10
4397.4313773346639209
 20
231.1326612337919926
 30
0.0
 11
4397.4339328524638404
 21
231.1163059201919907
 31
0.0
  0
ARC
  5
13B16
  8
0
 10
4397.4922800200556594
 20
231.1254226653065871
 30
0.0
 40
0.0590551183847839
 50
188.8806593215068119
 51
261.0318631695403155
  0
ARC
  5
13B17
  8
0
 10
4397.8440530379139091
 20
233.3544523016759911
 30
0.0
 40
2.315671473883973
 50
261.0318633502266721
 51
278.9681366497733279
  0
ARC
  5
13B18
  8
0
 10
4397.3319048334324179
 20
231.0877169160559106
 30
0.0
 40
0.1104679944097916
 50
26.6151175203898589
 51
59.1274700418316002
  0
ARC
  5
13B19
  8
0
 10
4398.7156743061314046
 20
232.8368173747713001
 30
0.0
 40
0.0393700785719284
 50
288.2162229954603845
 51
350.0740706363707773
  0
ARC
  5
13B1A
  8
0
 10
4390.5675177197863377
 20
234.2625317520738975
 30
0.0
 40
8.3113176872720675
 50
350.0752025414399782
 51
352.5470220177243732
  0
ARC
  5
13B1B
  8
0
 10
4399.0582959429648326
 20
231.228225257410088
 30
0.0
 40
1.7491485034395859
 50
171.8584943365925142
 51
179.8498436093773023
  0
ARC
  5
13B1C
  8
0
 10
4398.9517749435372025
 20
231.2369963706676117
 30
0.0
 40
1.642471422699084
 50
160.9320375683510065
 51
171.6351455600006943
  0
ARC
  5
13B1D
  8
0
 10
4384.7982599323086106
 20
236.1292290092293911
 30
0.0
 40
13.3327056167515501
 50
340.9320375683510065
 51
341.867885166287806
  0
ARC
  5
13B1E
  8
0
 10
4396.2143315672074095
 20
232.3907979293354913
 30
0.0
 40
1.320105627064218
 50
341.867885166287806
 51
349.4249838496841107
  0
ARC
  5
13B1F
  8
0
 10
4397.0886709426686139
 20
232.2535975155624044
 30
0.0
 40
0.4361884580563376
 50
346.0615303005071723
 51
45.7200092102933695
  0
ARC
  5
13B20
  8
0
 10
4396.8721114436730204
 20
232.0249217089204876
 30
0.0
 40
0.7511143160420928
 50
46.0717161021917789
 51
62.8041432754468616
  0
ARC
  5
13B21
  8
0
 10
4396.4213292242466196
 20
231.14763833552351
 30
0.0
 40
1.7374361329911601
 50
62.8041432754468616
 51
71.9341754272088991
  0
ARC
  5
13B22
  8
0
 10
4396.9722803513195686
 20
232.8366864235287039
 30
0.0
 40
0.0391984912401113
 50
189.7743612723593003
 51
251.9341754272084017
  0
ARC
  5
13B23
  8
0
 10
4405.1205883528637059
 20
234.2625317516155974
 30
0.0
 40
8.3113176841589933
 50
187.4529779818957991
 51
189.924791918566001
  0
ARC
  5
13B24
  8
0
 10
4397.8440530378638869
 20
233.7750013002923026
 30
0.0
 40
1.047615898100545
 50
325.6845170850180011
 51
333.1942116684887765
  0
ARC
  5
13B25
  8
0
 10
4398.7849979160992007
 20
233.3261824042517105
 30
0.0
 40
0.0236220509654872
 50
270.0241927154896757
 51
359.3564619269624245
  0
LINE
  5
13B26
  8
0
 10
4398.8086184770645559
 20
233.3259170903025961
 30
0.0
 11
4398.8086184770645559
 21
233.873426497091998
 31
0.0
  0
LINE
  5
13B27
  8
0
 10
4398.8086184770645559
 20
233.877175903521902
 30
0.0
 11
4398.8086184770645559
 21
234.6017729537919934
 31
0.0
  0
ARC
  5
13B28
  8
0
 10
4398.7968089400083045
 20
233.8773635058686864
 30
0.0
 40
0.0118110270574802
 50
340.5287806131456136
 51
359.0898950050655003
  0
LINE
  5
13B29
  8
0
 10
4396.8794875986650368
 20
233.3261773161453903
 30
0.0
 11
4396.8794875986650368
 21
233.873426497091998
 31
0.0
  0
LINE
  5
13B2A
  8
0
 10
4396.8794875986650368
 20
233.8771759089675868
 30
0.0
 11
4396.8794875986650368
 21
234.6017729537919934
 31
0.0
  0
ARC
  5
13B2B
  8
0
 10
4397.8440530378647964
 20
233.7750013002921037
 30
0.0
 40
1.0476158981001631
 50
206.8057883315111951
 51
214.3127343300151892
  0
ARC
  5
13B2C
  8
0
 10
4396.9031071025256097
 20
233.326179859367187
 30
0.0
 40
0.0236195039987192
 50
180.0061693067625868
 51
270.0
  0
ARC
  5
13B2D
  8
0
 10
4396.8912971323652528
 20
233.8773635049919903
 30
0.0
 40
0.0118110235999841
 50
180.9100745867629882
 51
199.4712208060180103
  0
ARC
  5
13B2E
  8
0
 10
4397.333462098588825
 20
231.2156339765728887
 30
0.0
 40
0.022892204658248
 50
195.0669991300287052
 51
244.5161367211368884
  0
ARC
  5
13B2F
  8
0
 10
4397.3459584313613959
 20
231.2445136299789965
 30
0.0
 40
0.0543507537849288
 50
245.7234252611829106
 51
261.6813089877887819
  0
ARC
  5
13B30
  8
0
 10
4397.4573314695699082
 20
231.8788562404392053
 30
0.0
 40
0.6983756570460705
 50
260.1695034606509012
 51
261.6912419231744025
  0
ARC
  5
13B31
  8
0
 10
4397.1587523504140336
 20
229.8820505768877069
 30
0.0
 40
1.3206358501186171
 50
79.9774921457761536
 51
81.3922380806365169
  0
ARC
  5
13B32
  8
0
 10
4397.3924330915278915
 20
231.2290760396907956
 30
0.0
 40
0.0833632799722981
 50
177.4332721550453016
 51
193.451999163373813
  0
ARC
  5
13B33
  8
0
 10
4396.8829157760574162
 20
231.089611464371302
 30
0.0
 40
0.6269488350173824
 50
354.8900803706416127
 51
357.5767977877575277
  0
ARC
  5
13B34
  8
0
 10
4396.6004248931021721
 20
231.1291761511594132
 30
0.0
 40
0.9119521932315162
 50
350.8836981549816869
 51
353.9949451634988122
  0
ARC
  5
13B35
  8
0
 10
4420.2330955189136148
 20
227.2235482130134869
 30
0.0
 40
23.0412844693250705
 50
170.6052950640510915
 51
170.8463888305157923
  0
ARC
  5
13B36
  8
0
 10
4396.2472338920388211
 20
231.074834730055187
 30
0.0
 40
1.251869048519094
 50
346.4336564980583262
 51
351.4631209467265762
  0
ARC
  5
13B37
  8
0
 10
4396.9895301432252381
 20
230.8957158593599104
 30
0.0
 40
0.4882675199945384
 50
307.6383784631925096
 51
346.4336564980583262
  0
ARC
  5
13B38
  8
0
 10
4397.2889027298142537
 20
230.506956514063603
 30
0.0
 40
0.0024268257910473
 50
119.6204506503977996
 51
165.8771012159953102
  0
ARC
  5
13B39
  8
0
 10
4397.6477488624814214
 20
230.4353229963126921
 30
0.0
 40
0.3683499737552665
 50
168.6922412946717031
 51
170.7549086527436089
  0
ARC
  5
13B3A
  8
0
 10
4397.3336986556050761
 20
230.488787521012199
 30
0.0
 40
0.0498435386297264
 50
173.4173879346598994
 51
214.0977505050315131
  0
ARC
  5
13B3B
  8
0
 10
4397.3961426507621582
 20
230.5439153137029962
 30
0.0
 40
0.1328842709711846
 50
218.6919834673265086
 51
235.9703830910644911
  0
ARC
  5
13B3C
  8
0
 10
4397.8995626580353928
 20
231.3323374357237014
 30
0.0
 40
1.068282278457366
 50
237.2581977147569035
 51
246.5109908242339998
  0
ARC
  5
13B3D
  8
0
 10
4398.4250629692251096
 20
230.1047172800911085
 30
0.0
 40
1.216685865642666
 50
140.7404989875014962
 51
152.0956838572965069
  0
ARC
  5
13B3E
  8
0
 10
4397.9030020739519387
 20
230.368630917123113
 30
0.0
 40
0.6319115585670858
 50
151.0897224758886921
 51
167.3005213129465005
  0
ARC
  5
13B3F
  8
0
 10
4398.2528389298449838
 20
231.1332690167627959
 30
0.0
 40
0.003937007932223
 50
351.1193413111760719
 51
90.0
  0
LINE
  5
13B40
  8
0
 10
4398.2567287410638528
 20
231.1326612337919926
 30
0.0
 11
4398.2541732232639333
 21
231.1163059201919907
 31
0.0
  0
ARC
  5
13B41
  8
0
 10
4398.1958260556730238
 20
231.1254226653065871
 30
0.0
 40
0.0590551183847839
 50
278.9681368304596845
 51
351.1193406784930744
  0
ARC
  5
13B42
  8
0
 10
4398.3562012422980843
 20
231.0877169160559106
 30
0.0
 40
0.1104679944097916
 50
120.8725299581683998
 51
153.3848824796100985
  0
ARC
  5
13B43
  8
0
 10
4396.6298101327656696
 20
231.228225257410088
 30
0.0
 40
1.7491485034395859
 50
0.1501563906227134
 51
8.1415056634074396
  0
ARC
  5
13B44
  8
0
 10
4396.7363311321932997
 20
231.2369963706676117
 30
0.0
 40
1.642471422699084
 50
8.3648544399992932
 51
19.0679624316490006
  0
ARC
  5
13B45
  8
0
 10
4410.8898461434218916
 20
236.1292290092293911
 30
0.0
 40
13.3327056167515501
 50
198.132114833712194
 51
199.0679624316489935
  0
ARC
  5
13B46
  8
0
 10
4399.4737745085240022
 20
232.3907979293354913
 30
0.0
 40
1.320105627064218
 50
190.5750161503158893
 51
198.132114833712194
  0
ARC
  5
13B47
  8
0
 10
4398.5994351330609788
 20
232.2535975155624044
 30
0.0
 40
0.4361884580563376
 50
134.2799907897066021
 51
193.9384696994927992
  0
ARC
  5
13B48
  8
0
 10
4398.8159946320556628
 20
232.0249217089204876
 30
0.0
 40
0.7511143160420928
 50
117.1958567245539058
 51
133.9282838978081998
  0
ARC
  5
13B49
  8
0
 10
4399.2667768514820636
 20
231.14763833552351
 30
0.0
 40
1.7374361329911601
 50
108.0658245727911009
 51
117.1958567245539058
  0
ARC
  5
13B4A
  8
0
 10
4398.3546439771407677
 20
231.2156339765728887
 30
0.0
 40
0.022892204658248
 50
295.4838632788631116
 51
344.9330008699711811
  0
ARC
  5
13B4B
  8
0
 10
4398.3421476443700158
 20
231.2445136299789965
 30
0.0
 40
0.0543507537849288
 50
278.3186910122112181
 51
294.2765747388169757
  0
ARC
  5
13B4C
  8
0
 10
4398.230774606160594
 20
231.8788562404392053
 30
0.0
 40
0.6983756570460705
 50
278.3087580768257112
 51
279.8304965393490988
  0
ARC
  5
13B4D
  8
0
 10
4398.5293537253146496
 20
229.8820505768877069
 30
0.0
 40
1.3206358501186171
 50
98.6077619193634831
 51
100.0225078542238037
  0
ARC
  5
13B4E
  8
0
 10
4398.2956729841998822
 20
231.2290760396907956
 30
0.0
 40
0.0833632799722981
 50
346.5480008366262155
 51
2.5667278449546558
  0
ARC
  5
13B4F
  8
0
 10
4398.805190299673086
 20
231.089611464371302
 30
0.0
 40
0.6269488350173824
 50
182.4232022122425008
 51
185.1099196293583873
  0
ARC
  5
13B50
  8
0
 10
4399.0876811826274206
 20
231.1291761511594132
 30
0.0
 40
0.9119521932315162
 50
186.0050548365011878
 51
189.1163018450166078
  0
ARC
  5
13B51
  8
0
 10
4375.4550105568168874
 20
227.2235482130134869
 30
0.0
 40
23.0412844693250705
 50
9.1536111694841455
 51
9.3947049359489156
  0
ARC
  5
13B52
  8
0
 10
4399.4408721836907716
 20
231.074834730055187
 30
0.0
 40
1.251869048519094
 50
188.5368790532733101
 51
193.5663435019417022
  0
ARC
  5
13B53
  8
0
 10
4398.6985759325043546
 20
230.8957158593599104
 30
0.0
 40
0.4882675199945384
 50
193.5663435019417022
 51
232.3616215368074052
  0
ARC
  5
13B54
  8
0
 10
4398.399203345915339
 20
230.506956514063603
 30
0.0
 40
0.0024268257910473
 50
14.1228987840047004
 51
60.3795493496021578
  0
ARC
  5
13B55
  8
0
 10
4398.0403572132499903
 20
230.4353229963126921
 30
0.0
 40
0.3683499737552665
 50
9.2450913472564018
 51
11.3077587053283306
  0
ARC
  5
13B56
  8
0
 10
4398.3544074201254261
 20
230.488787521012199
 30
0.0
 40
0.0498435386297264
 50
325.9022494949684869
 51
6.582612065340105
  0
ARC
  5
13B57
  8
0
 10
4398.2919634249656156
 20
230.5439153137029962
 30
0.0
 40
0.1328842709711846
 50
304.0296169089355089
 51
321.3080165326734914
  0
ARC
  5
13B58
  8
0
 10
4397.7885434176951094
 20
231.3323374357237014
 30
0.0
 40
1.068282278457366
 50
293.4890091757660002
 51
302.741802285243125
  0
ARC
  5
13B59
  8
0
 10
4397.2630431065053926
 20
230.1047172800911085
 30
0.0
 40
1.216685865642666
 50
27.9043161427034896
 51
39.2595010124984825
  0
ARC
  5
13B5A
  8
0
 10
4397.7851040017767446
 20
230.368630917123113
 30
0.0
 40
0.6319115585670858
 50
12.6994786870534604
 51
28.9102775241112617
  0
ARC
  5
13B5B
  8
0
 10
4397.8440530378638869
 20
231.167840997209197
 30
0.0
 40
0.8954118573051703
 50
245.5732685631679999
 51
294.4267314368319148
  0
ENDSEC
  0
EOF
