  0
SECTION
  2
HEADER
  9
$ACADVER
  1
AC1009
  9
$INSBASE
 10
4415.6374939723082207
 20
217.2301994550194877
 30
0.0
  9
$EXTMIN
 10
4410.7175989773204492
 20
213.6868923684195067
 30
0.0
  9
$EXTMAX
 10
4415.6482971448185708
 20
220.7735065416194971
 30
0.0
  9
$LIMMIN
 10
0.0
 20
0.0
  9
$LIMMAX
 10
11.6929133858000007
 20
8.2677165353999982
  9
$ORTHOMODE
 70
     0
  9
$REGENMODE
 70
     1
  9
$FILLMODE
 70
     1
  9
$QTEXTMODE
 70
     0
  9
$MIRRTEXT
 70
     0
  9
$DRAGMODE
 70
     2
  9
$LTSCALE
 40
0.6431102362
  9
$OSMODE
 70
     7
  9
$ATTMODE
 70
     1
  9
$TEXTSIZE
 40
0.2
  9
$TRACEWID
 40
0.05
  9
$TEXTSTYLE
  7
STANDARD
  9
$CLAYER
  8
0
  9
$CELTYPE
  6
BYLAYER
  9
$CECOLOR
 62
   256
  9
$DIMSCALE
 40
1.0
  9
$DIMASZ
 40
0.1875
  9
$DIMEXO
 40
0.0625
  9
$DIMDLI
 40
0.4443307087
  9
$DIMRND
 40
0.0
  9
$DIMDLE
 40
0.0
  9
$DIMEXE
 40
0.125
  9
$DIMTP
 40
0.01
  9
$DIMTM
 40
0.01
  9
$DIMTXT
 40
2.0
  9
$DIMCEN
 40
0.1052362205
  9
$DIMTSZ
 40
0.0
  9
$DIMTOL
 70
     1
  9
$DIMLIM
 70
     0
  9
$DIMTIH
 70
     1
  9
$DIMTOH
 70
     1
  9
$DIMSE1
 70
     0
  9
$DIMSE2
 70
     0
  9
$DIMTAD
 70
     0
  9
$DIMZIN
 70
     0
  9
$DIMBLK
  1

  9
$DIMASO
 70
     1
  9
$DIMSHO
 70
     1
  9
$DIMPOST
  1
\X
  9
$DIMAPOST
  1

  9
$DIMALT
 70
     1
  9
$DIMALTD
 70
     2
  9
$DIMALTF
 40
25.3999999999999986
  9
$DIMLFAC
 40
1.0
  9
$DIMTOFL
 70
     0
  9
$DIMTVP
 40
0.0
  9
$DIMTIX
 70
     0
  9
$DIMSOXD
 70
     0
  9
$DIMSAH
 70
     0
  9
$DIMBLK1
  1

  9
$DIMBLK2
  1

  9
$DIMSTYLE
  2
STANDARD
  9
$DIMCLRD
 70
     0
  9
$DIMCLRE
 70
     0
  9
$DIMCLRT
 70
     0
  9
$DIMTFAC
 40
1.0
  9
$DIMGAP
 40
0.09
  9
$LUNITS
 70
     2
  9
$LUPREC
 70
     4
  9
$SKETCHINC
 40
0.1
  9
$FILLETRAD
 40
0.0
  9
$AUNITS
 70
     0
  9
$AUPREC
 70
     0
  9
$MENU
  1
.
  9
$ELEVATION
 40
0.0
  9
$PELEVATION
 40
0.0
  9
$THICKNESS
 40
0.0
  9
$LIMCHECK
 70
     0
  9
$BLIPMODE
 70
     0
  9
$CHAMFERA
 40
0.0
  9
$CHAMFERB
 40
0.0
  9
$SKPOLY
 70
     0
  9
$TDCREATE
 40
2458060.468368056230247
  9
$TDUPDATE
 40
2459498.9454513899981976
  9
$TDINDWG
 40
0.6670440972
  9
$TDUSRTIMER
 40
0.6670440972
  9
$USRTIMER
 70
     1
  9
$ANGBASE
 50
0.0
  9
$ANGDIR
 70
     0
  9
$PDMODE
 70
     0
  9
$PDSIZE
 40
0.3125
  9
$PLINEWID
 40
0.0
  9
$COORDS
 70
     1
  9
$SPLFRAME
 70
     0
  9
$SPLINETYPE
 70
     6
  9
$SPLINESEGS
 70
     8
  9
$ATTDIA
 70
     1
  9
$ATTREQ
 70
     1
  9
$HANDLING
 70
     1
  9
$HANDSEED
  5
13E52
  9
$SURFTAB1
 70
     6
  9
$SURFTAB2
 70
     6
  9
$SURFTYPE
 70
     6
  9
$SURFU
 70
     6
  9
$SURFV
 70
     6
  9
$UCSNAME
  2

  9
$UCSORG
 10
0.0
 20
0.0
 30
0.0
  9
$UCSXDIR
 10
1.0
 20
0.0
 30
0.0
  9
$UCSYDIR
 10
0.0
 20
1.0
 30
0.0
  9
$PUCSNAME
  2

  9
$PUCSORG
 10
0.0
 20
0.0
 30
0.0
  9
$PUCSXDIR
 10
1.0
 20
0.0
 30
0.0
  9
$PUCSYDIR
 10
0.0
 20
1.0
 30
0.0
  9
$USERI1
 70
     0
  9
$USERI2
 70
     0
  9
$USERI3
 70
     0
  9
$USERI4
 70
     0
  9
$USERI5
 70
     0
  9
$USERR1
 40
0.0
  9
$USERR2
 40
0.0
  9
$USERR3
 40
0.0
  9
$USERR4
 40
0.0
  9
$USERR5
 40
0.0
  9
$WORLDVIEW
 70
     1
  9
$SHADEDGE
 70
     3
  9
$SHADEDIF
 70
    70
  9
$TILEMODE
 70
     1
  9
$MAXACTVP
 70
    64
  9
$PLIMCHECK
 70
     0
  9
$PEXTMIN
 10
1.0000000000000000E+20
 20
1.0000000000000000E+20
 30
1.0000000000000000E+20
  9
$PEXTMAX
 10
-1.0000000000000000E+20
 20
-1.0000000000000000E+20
 30
-1.0000000000000000E+20
  9
$PLIMMIN
 10
0.0
 20
0.0
  9
$PLIMMAX
 10
12.0
 20
9.0
  9
$UNITMODE
 70
     0
  9
$VISRETAIN
 70
     1
  9
$PLINEGEN
 70
     0
  9
$PSLTSCALE
 70
     1
  0
ENDSEC
  0
SECTION
  2
TABLES
  0
TABLE
  2
VPORT
 70
     1
  0
VPORT
  2
*ACTIVE
 70
     0
 10
0.0
 20
0.0
 11
1.0
 21
1.0
 12
251.6265515766949932
 22
-8.8806327593359953
 13
0.0
 23
0.0
 14
1.0
 24
1.0
 15
0.0
 25
0.0
 16
0.0
 26
0.0
 36
202.37134017897489
 17
4161.556396484375
 27
226.1108322143554972
 37
0.0
 40
7.1362287415071073
 41
2.218457943925233
 42
50.0
 43
0.0
 44
0.0
 50
0.0
 51
0.0
 71
     0
 72
   100
 73
     1
 74
     1
 75
     0
 76
     0
 77
     0
 78
     0
  0
ENDTAB
  0
TABLE
  2
LTYPE
 70
     2
  0
LTYPE
  2
CONTINUOUS
 70
     0
  3
Solid line
 72
    65
 73
     0
 40
0.0
  0
LTYPE
  2
PHANTOM2
 70
     0
  3
___ _ _ ___ _ _ ___ _ _ ___ _ _
 72
    65
 73
     6
 40
1.25
 49
0.625
 49
-0.125
 49
0.125
 49
-0.125
 49
0.125
 49
-0.125
  0
ENDTAB
  0
TABLE
  2
LAYER
 70
     2
  0
LAYER
  2
0
 70
     0
 62
   255
  6
CONTINUOUS
  0
LAYER
  2
DEFPOINTS
 70
     0
 62
     7
  6
CONTINUOUS
  0
ENDTAB
  0
TABLE
  2
STYLE
 70
     1
  0
STYLE
  2
STANDARD
 70
     0
 40
0.0
 41
0.8
 50
0.0
 71
     0
 42
0.2
  3
txt
  4

  0
ENDTAB
  0
TABLE
  2
VIEW
 70
     0
  0
ENDTAB
  0
TABLE
  2
UCS
 70
     0
  0
ENDTAB
  0
TABLE
  2
APPID
 70
    10
  0
APPID
  2
ACAD
 70
     0
  0
APPID
  2
ACAD_MLEADERVER
 70
     0
  0
APPID
  2
ACAD_EXEMPT_FROM_CAD_STANDARDS
 70
     0
  0
APPID
  2
ACAD_NAV_VCDISPLAY
 70
     0
  0
APPID
  2
ACAECLAYERSTANDARD
 70
     0
  0
APPID
  2
ACCMTRANSPARENCY
 70
     0
  0
APPID
  2
ACAD_DSTYLE_DIMJAG
 70
     0
  0
APPID
  2
ACAD_DSTYLE_DIMTALN
 70
     0
  0
APPID
  2
ACDBATTR
 70
     0
  0
APPID
  2
DCO15
 70
     0
  0
ENDTAB
  0
TABLE
  2
DIMSTYLE
 70
     1
  0
DIMSTYLE
  2
STANDARD
 70
     0
  3

  4

  5

  6

  7

 40
1.0
 41
0.1875
 42
0.0625
 43
0.38
 44
0.125
 45
0.0
 46
0.0
 47
0.01
 48
0.01
140
0.15625
141
0.09
142
0.0
143
25.3999999999999986
144
1.0
145
0.0
146
1.0
147
0.09
 71
     1
 72
     0
 73
     1
 74
     1
 75
     0
 76
     0
 77
     0
 78
     4
170
     0
171
     2
172
     0
173
     0
174
     0
175
     0
176
     0
177
     0
178
     0
  0
ENDTAB
  0
ENDSEC
  0
SECTION
  2
BLOCKS
  0
BLOCK
  8
0
  2
$MODEL_SPACE
 70
     0
 10
0.0
 20
0.0
 30
0.0
  3
$MODEL_SPACE
  1

  0
ENDBLK
  5
21
  8
0
  0
BLOCK
 67
     1
  8
0
  2
$PAPER_SPACE
 70
     0
 10
0.0
 20
0.0
 30
0.0
  3
$PAPER_SPACE
  1

  0
ENDBLK
  5
1D
 67
     1
  8
0
  0
ENDSEC
  0
SECTION
  2
ENTITIES
  0
ATTDEF
  5
12CA7
  8
DEFPOINTS
 10
4415.6376304781497311
 20
217.2335635520005894
 30
0.0
 40
0.001
  1
K-75525T-4
  3

  2
MODELNUMBER
 70
     0
1001
ACDBATTR
1070
     0
1070
     1
  0
ATTDEF
  5
12CA8
  8
DEFPOINTS
 10
4415.6376304781497311
 20
217.2318968853338959
 30
0.0
 40
0.001
  1
ELLISTONE
  3

  2
TRADENAME
 70
     0
1001
ACDBATTR
1070
     0
1070
     1
  0
ATTDEF
  5
12CA9
  8
DEFPOINTS
 10
4415.6376304781497311
 20
217.2302302186672875
 30
0.0
 40
0.001
  1
VALVE TRIM
  3

  2
PRODUCT
 70
     0
1001
ACDBATTR
1070
     0
1070
     1
  0
LINE
  5
13D7B
  8
0
 10
4415.6374939723082207
 20
220.7735065416194971
 30
0.0
 11
4415.6374939723082207
 21
213.6868923684195067
 31
0.0
  0
LINE
  5
13D7D
  8
0
 10
4411.5823758621081652
 20
218.6868923752041951
 30
0.0
 11
4411.5823758621081652
 21
217.8601207082348026
 31
0.0
  0
LINE
  5
13D7E
  8
0
 10
4413.2445902211084103
 20
217.3895780339194062
 30
0.0
 11
4413.2445902211084103
 21
219.1574350495195063
 31
0.0
  0
LINE
  5
13D7F
  8
0
 10
4413.6296199566077121
 20
217.3089411025194977
 30
0.0
 11
4413.6296199566077121
 21
219.2380719809195
 31
0.0
  0
LINE
  5
13D80
  8
0
 10
4413.7477301928092857
 20
217.3325516892504083
 30
0.0
 11
4413.7477301928092857
 21
219.214452477057705
 31
0.0
  0
LINE
  5
13D81
  8
0
 10
4414.3185963345085838
 20
217.3089411025194977
 30
0.0
 11
4414.3185963345085838
 21
219.2380719809195
 31
0.0
  0
ARC
  5
13D82
  8
0
 10
4411.5784388541787848
 20
218.68229243370061
 30
0.0
 40
0.003937007932223
 50
0.0
 51
98.8806586888326109
  0
LINE
  5
13D83
  8
0
 10
4411.5778310712075836
 20
218.6861822449193937
 30
0.0
 11
4411.5614757576086049
 21
218.6836267271195027
 31
0.0
  0
ARC
  5
13D84
  8
0
 10
4411.5705925027232297
 20
218.625279559527911
 30
0.0
 40
0.0590551183847839
 50
98.880659321479456
 51
171.0318631695527074
  0
ARC
  5
13D85
  8
0
 10
4411.578421218375297
 20
217.8689905203939077
 30
0.0
 40
0.003954686119843
 50
261.417849361621677
 51
0.2652750297678174
  0
ARC
  5
13D86
  8
0
 10
4411.555056359570699
 20
217.7141714008376994
 30
0.0
 40
0.1526175860330228
 50
81.4178493616216912
 51
84.3067215116299593
  0
ARC
  5
13D87
  8
0
 10
4411.5674077819576269
 20
217.838063757062514
 30
0.0
 40
0.0281110658586606
 50
84.3067215115781039
 51
96.2798620052909939
  0
ARC
  5
13D88
  8
0
 10
4411.5644211484623156
 20
217.8652037979967986
 30
0.0
 40
0.000807186984907
 50
96.2798620053433325
 51
137.6858543175899001
  0
LINE
  5
13D89
  8
0
 10
4411.5638242620079836
 20
217.8657471923195033
 30
0.0
 11
4411.5626386566082147
 21
217.8632046533194
 31
0.0
  0
LINE
  5
13D8A
  8
0
 10
4411.5626386566082147
 20
217.8632046533194
 30
0.0
 11
4411.5614757576086049
 21
217.8633863562195074
 31
0.0
  0
ARC
  5
13D8B
  8
0
 10
4411.5705924984222293
 20
217.9217335195035901
 30
0.0
 40
0.0590551134650861
 50
188.9681333529395886
 51
261.1193441559918824
  0
ARC
  5
13D8C
  8
0
 10
4413.7996221390922074
 20
218.2735065416694908
 30
0.0
 40
2.3156714738837092
 50
171.0318633502363923
 51
188.968136649763494
  0
ARC
  5
13D8D
  8
0
 10
4411.5153122948622695
 20
218.7927547961201924
 30
0.0
 40
0.125317094659865
 50
302.3541517480326206
 51
324.2657401225117724
  0
ARC
  5
13D8E
  8
0
 10
4411.5524829463911374
 20
218.7637898732363055
 30
0.0
 40
0.0782488870511878
 50
325.5861852932443981
 51
0.6888223999053678
  0
ARC
  5
13D8F
  8
0
 10
4411.669341463472847
 20
218.6715166613440999
 30
0.0
 40
0.1372755286956222
 50
89.3763171527447895
 51
96.3698943400615349
  0
ARC
  5
13D90
  8
0
 10
4411.6569786641111932
 20
218.7824150465717992
 30
0.0
 40
0.0256901844625501
 50
96.4085658474022864
 51
170.0253550336886974
  0
ARC
  5
13D91
  8
0
 10
4411.7820532432997425
 20
218.7693189875151063
 30
0.0
 40
0.1513966115870315
 50
173.3448239183769033
 51
181.7367422232291858
  0
ARC
  5
13D92
  8
0
 10
4404.8407162077110115
 20
218.4628633231307049
 30
0.0
 40
6.7967167989017661
 50
356.4033477019464726
 51
2.5455541702301141
  0
ARC
  5
13D93
  8
0
 10
4410.1061677580019023
 20
218.1632068563471023
 30
0.0
 40
1.5231585409034789
 50
345.9439417574376989
 51
355.2278598769133851
  0
ARC
  5
13D94
  8
0
 10
4411.3900154547636703
 20
217.8228144623155913
 30
0.0
 40
0.195944589866277
 50
351.3295551255325222
 51
10.9756508959273997
  0
ARC
  5
13D95
  8
0
 10
4409.7026815380349944
 20
218.077665417566493
 30
0.0
 40
1.9024158461215861
 50
348.8572965974701106
 51
351.4026995920513059
  0
ARC
  5
13D96
  8
0
 10
4407.6377674633477
 20
218.4843839366392046
 30
0.0
 40
4.0070037130438729
 50
343.620364577073417
 51
348.8572965974701106
  0
ARC
  5
13D97
  8
0
 10
4366.9602769999428347
 20
231.7231891404854025
 30
0.0
 40
46.783101013934548
 50
341.2325715021768247
 51
342.1132731521316259
  0
ARC
  5
13D98
  8
0
 10
4048.1778316311570052
 20
336.8833506756496945
 30
0.0
 40
382.4612384877945033
 50
341.62049616673022
 51
341.6808075279006971
  0
ARC
  5
13D99
  8
0
 10
4421.0359779233513109
 20
212.7691680639985918
 30
0.0
 40
10.5136263834325092
 50
160.436568610604013
 51
166.2897321529769101
  0
ARC
  5
13D9A
  8
0
 10
4417.9627203623131209
 20
213.5705370705096868
 30
0.0
 40
7.3381731885215666
 50
166.6811896071648107
 51
170.8430413737484912
  0
ARC
  5
13D9B
  8
0
 10
4410.7548569186001259
 20
214.7324616589918946
 30
0.0
 40
0.0372579412805049
 50
170.9363520645607935
 51
228.9249498604457926
  0
ARC
  5
13D9C
  8
0
 10
4410.773036235528707
 20
214.7848992610396976
 30
0.0
 40
0.0911264442547206
 50
242.0866547619916105
 51
256.5936880770025255
  0
ARC
  5
13D9D
  8
0
 10
4411.0610965414898601
 20
215.9271485384130926
 30
0.0
 40
1.2691311890185999
 50
255.8995799399691862
 51
268.4591877154467738
  0
ARC
  5
13D9E
  8
0
 10
4411.0320326972469047
 20
215.7317701629758915
 30
0.0
 40
1.0733058640103981
 50
269.7297856010030728
 51
287.8348398816971212
  0
ARC
  5
13D9F
  8
0
 10
4410.9237748198447662
 20
216.0682508756480047
 30
0.0
 40
1.4267730308305899
 50
287.8348398816971212
 51
292.9278972917966826
  0
ARC
  5
13DA0
  8
0
 10
4411.4482645083844545
 20
214.8282944993511876
 30
0.0
 40
0.0804516544487346
 50
292.9278972917966826
 51
359.0668017257319207
  0
ARC
  5
13DA1
  8
0
 10
4422.3992633287216449
 20
214.6499156195876026
 30
0.0
 40
10.8719998605226102
 50
172.0648639956631882
 51
179.0668017257318922
  0
ARC
  5
13DA2
  8
0
 10
4416.6638593068928458
 20
215.4493538955802023
 30
0.0
 40
5.0811483816181218
 50
157.1111212195930023
 51
172.0648639956631882
  0
ARC
  5
13DA3
  8
0
 10
4413.0817085305307046
 20
216.8630021342725911
 30
0.0
 40
1.2345737980337841
 50
133.4506458413152075
 51
152.8877002155203968
  0
ARC
  5
13DA4
  8
0
 10
4412.7213790759551557
 20
217.2394055869687861
 30
0.0
 40
0.7135133022776234
 50
99.6106968704618367
 51
133.2319412735108983
  0
ARC
  5
13DA5
  8
0
 10
4412.7010365144396928
 20
217.5220069272623959
 30
0.0
 40
0.4323337581328247
 50
40.7164809139169321
 51
103.2077196834461006
  0
ARC
  5
13DA6
  8
0
 10
4412.2242426920502112
 20
217.1215647362913899
 30
0.0
 40
1.0549598133392999
 50
14.71734300036678
 51
40.3087872906028295
  0
ARC
  5
13DA7
  8
0
 10
4413.2819872121872322
 20
217.4018852734544964
 30
0.0
 40
0.0393700785719284
 50
198.2162229954352028
 51
260.0740706363903882
  0
ARC
  5
13DA8
  8
0
 10
4414.7077015894901706
 20
225.5500418597972043
 30
0.0
 40
8.3113176872720675
 50
260.0752025414510058
 51
262.5470220177061833
  0
ARC
  5
13DA9
  8
0
 10
4411.6748798503349462
 20
217.1162312046957084
 30
0.0
 40
1.6925576839685821
 50
81.6351455599997706
 51
90.1369003333561238
  0
ARC
  5
13DAA
  8
0
 10
4411.6821662080828901
 20
217.1657846360471922
 30
0.0
 40
1.642471422699084
 50
70.9320375683731754
 51
81.6351455599997706
  0
ARC
  5
13DAB
  8
0
 10
4416.5743988466456358
 20
231.3192996472760115
 30
0.0
 40
13.3327056167515501
 50
250.9320375683732038
 51
251.8678851662691898
  0
ARC
  5
13DAC
  8
0
 10
4412.8359677667513097
 20
219.9032280123782073
 30
0.0
 40
1.320105627064218
 50
251.8678851662691898
 51
259.4249838496796201
  0
ARC
  5
13DAD
  8
0
 10
4412.6830448804612388
 20
219.0841165719641879
 30
0.0
 40
0.4868415866973281
 50
259.4249838496796201
 51
312.3565556611279135
  0
ARC
  5
13DAE
  8
0
 10
4412.4700915463363344
 20
219.245448135911289
 30
0.0
 40
0.7511143160420928
 50
316.0717161021746051
 51
332.8041432754221205
  0
ARC
  5
13DAF
  8
0
 10
4411.5928081729389305
 20
219.6962303553374909
 30
0.0
 40
1.7374361329911601
 50
332.8041432754221205
 51
341.9341754271977152
  0
ARC
  5
13DB0
  8
0
 10
4413.2818562609436412
 20
219.1452792282640871
 30
0.0
 40
0.0391984912401113
 50
99.7743612723701858
 51
161.9341754271929972
  0
ARC
  5
13DB1
  8
0
 10
4414.7077015890317853
 20
210.9969712267213993
 30
0.0
 40
8.3113176841589933
 50
97.4529779818740423
 51
99.9247919185571618
  0
ARC
  5
13DB2
  8
0
 10
4414.2201711377083484
 20
218.273506541719911
 30
0.0
 40
1.047615898100545
 50
235.6845170849952922
 51
243.1942116684973882
  0
ARC
  5
13DB3
  8
0
 10
4413.7713522416679552
 20
217.3325616634849951
 30
0.0
 40
0.0236220509654872
 50
180.0241927154847872
 51
269.3564619269686773
  0
ARC
  5
13DB4
  8
0
 10
4414.1414309802075877
 20
216.2485612955154011
 30
0.0
 40
1.0653075594040819
 50
84.4869476634320051
 51
95.5130523365680233
  0
LINE
  5
13DB5
  8
0
 10
4413.7710869277188976
 20
217.3089411025194977
 30
0.0
 11
4414.0390842117130887
 21
217.3089411025194977
 31
0.0
  0
LINE
  5
13DB6
  8
0
 10
4414.2437777487039057
 20
217.3089411025194977
 30
0.0
 11
4414.3185963345085838
 21
217.3089411025194977
 31
0.0
  0
LINE
  5
13DB7
  8
0
 10
4414.3223457409376351
 20
217.3089411025194977
 30
0.0
 11
4415.0469427912075844
 21
217.3089411025194977
 31
0.0
  0
ARC
  5
13DB8
  8
0
 10
4414.3225333432837942
 20
217.320750639576886
 30
0.0
 40
0.0118110270574802
 50
250.5287806131620982
 51
269.0898950050536769
  0
LINE
  5
13DB9
  8
0
 10
4415.6374939723082207
 20
213.6868923684195067
 30
0.0
 11
4415.6374939723082207
 21
220.7735065416194971
 31
0.0
  0
LINE
  5
13DBA
  8
0
 10
4415.2437931849080996
 20
220.645700477614497
 30
0.0
 11
4415.2437931849080996
 21
213.8146984324245068
 31
0.0
  0
LINE
  5
13DBB
  8
0
 10
4415.0469427912075844
 20
220.3838126211645942
 30
0.0
 11
4415.0469427912075844
 21
214.0765862888744095
 31
0.0
  0
LINE
  5
13DBC
  8
0
 10
4415.6374939723082207
 20
220.7735065416194971
 30
0.0
 11
4415.3577814334094001
 21
220.7637387644548141
 31
0.0
  0
ARC
  5
13DBD
  8
0
 10
4415.361903421317038
 20
220.645700477614497
 30
0.0
 40
0.1181102364086525
 50
92.0000000492256191
 51
179.9999999005605957
  0
ARC
  5
13DBE
  8
0
 10
4415.1453679881878998
 20
220.5994514233402128
 30
0.0
 40
0.098425196720359
 50
275.2159085493095176
 51
0.0000001043197509
  0
ARC
  5
13DBF
  8
0
 10
4415.1650530275683195
 20
220.3838126211645942
 30
0.0
 40
0.1181102363596913
 50
95.2159085924792237
 51
179.9999999248537961
  0
LINE
  5
13DC0
  8
0
 10
4415.6374939723082207
 20
213.6868923684195067
 30
0.0
 11
4415.3577814334094001
 21
213.6966601455841044
 31
0.0
  0
ARC
  5
13DC1
  8
0
 10
4415.361903421317038
 20
213.8146984324245068
 30
0.0
 40
0.1181102364086525
 50
180.0000000994392906
 51
267.9999999507742814
  0
ARC
  5
13DC2
  8
0
 10
4415.1453679881878998
 20
213.8609474866987057
 30
0.0
 40
0.098425196720359
 50
359.9999998956786271
 51
84.7840914506904966
  0
ARC
  5
13DC3
  8
0
 10
4415.1650530275683195
 20
214.0765862888744095
 30
0.0
 40
0.1181102363596913
 50
180.0000000751462039
 51
264.7840914074689067
  0
LINE
  5
13DC4
  8
0
 10
4413.7713471535616918
 20
219.2380719809195
 30
0.0
 11
4414.3185963345085838
 21
219.2380719809195
 31
0.0
  0
LINE
  5
13DC5
  8
0
 10
4414.3223457463827799
 20
219.2380719809195
 30
0.0
 11
4415.0469427912075844
 21
219.2380719809195
 31
0.0
  0
ARC
  5
13DC6
  8
0
 10
4414.2201711377083484
 20
218.2735065417193141
 30
0.0
 40
1.0476158981001631
 50
116.8057883315018017
 51
124.3127343299919971
  0
ARC
  5
13DC7
  8
0
 10
4413.7713496967826359
 20
219.214452477057705
 30
0.0
 40
0.0236195039987192
 50
90.0061693067854662
 51
180.0
  0
ARC
  5
13DC8
  8
0
 10
4414.3225333424070413
 20
219.2262624472195114
 30
0.0
 40
0.0118110235999841
 50
90.9100745867842335
 51
109.4712208060333012
  0
LINE
  5
13DC9
  8
0
 10
4415.6374939723082207
 20
213.7300245305195006
 30
0.0
 11
4415.5193837361075566
 21
213.7341999168195059
 31
0.0
  0
LINE
  5
13DCA
  8
0
 10
4415.5193837361075566
 20
213.7341999168195059
 30
0.0
 11
4415.5193837361075566
 21
213.6989088599194986
 31
0.0
  0
LINE
  5
13DCB
  8
0
 10
4415.5193837361075566
 20
213.6989088599194986
 30
0.0
 11
4415.6374939723082207
 21
213.6947751526195134
 31
0.0
  0
ENDSEC
  0
EOF
