  0
SECTION
  2
HEADER
  9
$ACADVER
  1
AC1009
  9
$INSBASE
 10
3717.6899866231369742
 20
144.6248449238511
 30
0.0
  9
$EXTMIN
 10
3707.4476637884868069
 20
126.1615910563021998
 30
0.0
  9
$EXTMAX
 10
3727.7293567738602178
 20
163.1274694569021904
 30
0.0
  9
$LIMMIN
 10
0.0
 20
0.0
  9
$LIMMAX
 10
11.6929133858000007
 20
8.2677165353999982
  9
$ORTHOMODE
 70
     0
  9
$REGENMODE
 70
     1
  9
$FILLMODE
 70
     1
  9
$QTEXTMODE
 70
     0
  9
$MIRRTEXT
 70
     0
  9
$DRAGMODE
 70
     2
  9
$LTSCALE
 40
0.6431102362
  9
$OSMODE
 70
  4095
  9
$ATTMODE
 70
     1
  9
$TEXTSIZE
 40
0.2
  9
$TRACEWID
 40
0.05
  9
$TEXTSTYLE
  7
STANDARD
  9
$CLAYER
  8
0
  9
$CELTYPE
  6
BYLAYER
  9
$CECOLOR
 62
   256
  9
$DIMSCALE
 40
1.0
  9
$DIMASZ
 40
0.1875
  9
$DIMEXO
 40
0.0625
  9
$DIMDLI
 40
0.4443307087
  9
$DIMRND
 40
0.0
  9
$DIMDLE
 40
0.0
  9
$DIMEXE
 40
0.125
  9
$DIMTP
 40
0.01
  9
$DIMTM
 40
0.01
  9
$DIMTXT
 40
2.0
  9
$DIMCEN
 40
0.1052362205
  9
$DIMTSZ
 40
0.0
  9
$DIMTOL
 70
     1
  9
$DIMLIM
 70
     0
  9
$DIMTIH
 70
     1
  9
$DIMTOH
 70
     1
  9
$DIMSE1
 70
     0
  9
$DIMSE2
 70
     0
  9
$DIMTAD
 70
     0
  9
$DIMZIN
 70
     0
  9
$DIMBLK
  1

  9
$DIMASO
 70
     1
  9
$DIMSHO
 70
     1
  9
$DIMPOST
  1
\X
  9
$DIMAPOST
  1

  9
$DIMALT
 70
     1
  9
$DIMALTD
 70
     2
  9
$DIMALTF
 40
25.3999999999999986
  9
$DIMLFAC
 40
1.0
  9
$DIMTOFL
 70
     0
  9
$DIMTVP
 40
0.0
  9
$DIMTIX
 70
     0
  9
$DIMSOXD
 70
     0
  9
$DIMSAH
 70
     0
  9
$DIMBLK1
  1

  9
$DIMBLK2
  1

  9
$DIMSTYLE
  2
STANDARD
  9
$DIMCLRD
 70
     0
  9
$DIMCLRE
 70
     0
  9
$DIMCLRT
 70
     0
  9
$DIMTFAC
 40
1.0
  9
$DIMGAP
 40
0.09
  9
$LUNITS
 70
     2
  9
$LUPREC
 70
     4
  9
$SKETCHINC
 40
0.1
  9
$FILLETRAD
 40
0.0
  9
$AUNITS
 70
     0
  9
$AUPREC
 70
     0
  9
$MENU
  1
.
  9
$ELEVATION
 40
0.0
  9
$PELEVATION
 40
0.0
  9
$THICKNESS
 40
0.0
  9
$LIMCHECK
 70
     0
  9
$BLIPMODE
 70
     0
  9
$CHAMFERA
 40
0.0
  9
$CHAMFERB
 40
0.0
  9
$SKPOLY
 70
     0
  9
$TDCREATE
 40
2458060.468368056230247
  9
$TDUPDATE
 40
2459104.7156365741975605
  9
$TDINDWG
 40
0.811847338
  9
$TDUSRTIMER
 40
0.811847338
  9
$USRTIMER
 70
     1
  9
$ANGBASE
 50
0.0
  9
$ANGDIR
 70
     0
  9
$PDMODE
 70
     0
  9
$PDSIZE
 40
0.3125
  9
$PLINEWID
 40
0.0
  9
$COORDS
 70
     1
  9
$SPLFRAME
 70
     0
  9
$SPLINETYPE
 70
     6
  9
$SPLINESEGS
 70
     8
  9
$ATTDIA
 70
     1
  9
$ATTREQ
 70
     1
  9
$HANDLING
 70
     1
  9
$HANDSEED
  5
13EB5
  9
$SURFTAB1
 70
     6
  9
$SURFTAB2
 70
     6
  9
$SURFTYPE
 70
     6
  9
$SURFU
 70
     6
  9
$SURFV
 70
     6
  9
$UCSNAME
  2

  9
$UCSORG
 10
0.0
 20
0.0
 30
0.0
  9
$UCSXDIR
 10
1.0
 20
0.0
 30
0.0
  9
$UCSYDIR
 10
0.0
 20
1.0
 30
0.0
  9
$PUCSNAME
  2

  9
$PUCSORG
 10
0.0
 20
0.0
 30
0.0
  9
$PUCSXDIR
 10
1.0
 20
0.0
 30
0.0
  9
$PUCSYDIR
 10
0.0
 20
1.0
 30
0.0
  9
$USERI1
 70
     0
  9
$USERI2
 70
     0
  9
$USERI3
 70
     0
  9
$USERI4
 70
     0
  9
$USERI5
 70
     0
  9
$USERR1
 40
0.0
  9
$USERR2
 40
0.0
  9
$USERR3
 40
0.0
  9
$USERR4
 40
0.0
  9
$USERR5
 40
0.0
  9
$WORLDVIEW
 70
     1
  9
$SHADEDGE
 70
     3
  9
$SHADEDIF
 70
    70
  9
$TILEMODE
 70
     1
  9
$MAXACTVP
 70
    64
  9
$PLIMCHECK
 70
     0
  9
$PEXTMIN
 10
1.0000000000000000E+20
 20
1.0000000000000000E+20
 30
1.0000000000000000E+20
  9
$PEXTMAX
 10
-1.0000000000000000E+20
 20
-1.0000000000000000E+20
 30
-1.0000000000000000E+20
  9
$PLIMMIN
 10
0.0
 20
0.0
  9
$PLIMMAX
 10
12.0
 20
9.0
  9
$UNITMODE
 70
     0
  9
$VISRETAIN
 70
     1
  9
$PLINEGEN
 70
     0
  9
$PSLTSCALE
 70
     1
  0
ENDSEC
  0
SECTION
  2
TABLES
  0
TABLE
  2
VPORT
 70
     1
  0
VPORT
  2
*ACTIVE
 70
     0
 10
0.0
 20
0.0
 11
1.0
 21
1.0
 12
237.1251505639494042
 22
-61.4782646316962769
 13
0.0
 23
0.0
 14
1.0
 24
1.0
 15
0.0
 25
0.0
 16
0.0
 26
0.0
 36
164.6715580216130093
 17
3560.6256103515629547
 27
166.8485788232432867
 37
0.0
 40
226.0687530575868038
 41
2.005224660397074
 42
50.0
 43
0.0
 44
0.0
 50
0.0
 51
0.0
 71
     0
 72
  1000
 73
     1
 74
     1
 75
     0
 76
     0
 77
     0
 78
     0
  0
ENDTAB
  0
TABLE
  2
LTYPE
 70
     2
  0
LTYPE
  2
CONTINUOUS
 70
     0
  3
Solid line
 72
    65
 73
     0
 40
0.0
  0
LTYPE
  2
PHANTOM2
 70
     0
  3
___ _ _ ___ _ _ ___ _ _ ___ _ _
 72
    65
 73
     6
 40
1.25
 49
0.625
 49
-0.125
 49
0.125
 49
-0.125
 49
0.125
 49
-0.125
  0
ENDTAB
  0
TABLE
  2
LAYER
 70
     2
  0
LAYER
  2
0
 70
     0
 62
   255
  6
CONTINUOUS
  0
LAYER
  2
DEFPOINTS
 70
     0
 62
     7
  6
CONTINUOUS
  0
ENDTAB
  0
TABLE
  2
STYLE
 70
     1
  0
STYLE
  2
STANDARD
 70
     0
 40
0.0
 41
0.8
 50
0.0
 71
     0
 42
0.2
  3
txt
  4

  0
ENDTAB
  0
TABLE
  2
VIEW
 70
     0
  0
ENDTAB
  0
TABLE
  2
UCS
 70
     0
  0
ENDTAB
  0
TABLE
  2
APPID
 70
    10
  0
APPID
  2
ACAD
 70
     0
  0
APPID
  2
ACAD_MLEADERVER
 70
     0
  0
APPID
  2
ACAD_EXEMPT_FROM_CAD_STANDARDS
 70
     0
  0
APPID
  2
ACAD_NAV_VCDISPLAY
 70
     0
  0
APPID
  2
ACAECLAYERSTANDARD
 70
     0
  0
APPID
  2
ACCMTRANSPARENCY
 70
     0
  0
APPID
  2
ACAD_DSTYLE_DIMJAG
 70
     0
  0
APPID
  2
ACAD_DSTYLE_DIMTALN
 70
     0
  0
APPID
  2
ACDBATTR
 70
     0
  0
APPID
  2
ACAD_PSEXT
 70
     0
  0
ENDTAB
  0
TABLE
  2
DIMSTYLE
 70
     1
  0
DIMSTYLE
  2
STANDARD
 70
     0
  3

  4

  5

  6

  7

 40
1.0
 41
0.1875
 42
0.0625
 43
0.38
 44
0.125
 45
0.0
 46
0.0
 47
0.01
 48
0.01
140
0.15625
141
0.09
142
0.0
143
25.3999999999999986
144
1.0
145
0.0
146
1.0
147
0.09
 71
     1
 72
     0
 73
     1
 74
     1
 75
     0
 76
     0
 77
     0
 78
     4
170
     0
171
     2
172
     0
173
     0
174
     0
175
     0
176
     0
177
     0
178
     0
  0
ENDTAB
  0
ENDSEC
  0
SECTION
  2
BLOCKS
  0
BLOCK
  8
0
  2
$MODEL_SPACE
 70
     0
 10
0.0
 20
0.0
 30
0.0
  3
$MODEL_SPACE
  1

  0
ENDBLK
  5
21
  8
0
  0
BLOCK
 67
     1
  8
0
  2
$PAPER_SPACE
 70
     0
 10
0.0
 20
0.0
 30
0.0
  3
$PAPER_SPACE
  1

  0
ENDBLK
  5
1D
 67
     1
  8
0
  0
BLOCK
  8
0
  2
_FILLED
 70
     0
 10
0.0
 20
0.0
 30
0.0
  3
_FILLED
  1

  0
SOLID
  5
B630
  8
0
  6
BYBLOCK
 62
     0
 10
0.0
 20
0.0
 30
0.0
 11
-1.0
 21
0.1666666667
 31
0.0
 12
-1.0
 22
-0.1666666667
 32
0.0
 13
-1.0
 23
-0.1666666667
 33
0.0
  0
ENDBLK
  5
B631
  8
0
  6
BYBLOCK
 62
     0
  0
BLOCK
  8
0
  2
_CLOSED
 70
     0
 10
0.0
 20
0.0
 30
0.0
  3
_CLOSED
  1

  0
LINE
  5
ECF3
  8
0
  6
BYBLOCK
 62
     0
 10
0.0
 20
0.0
 30
0.0
 11
-1.0
 21
0.1666666667
 31
0.0
  0
LINE
  5
ECF4
  8
0
  6
BYBLOCK
 62
     0
 10
-1.0
 20
0.1666666667
 30
0.0
 11
-1.0
 21
-0.1666666667
 31
0.0
  0
LINE
  5
ECF5
  8
0
  6
BYBLOCK
 62
     0
 10
-1.0
 20
-0.1666666667
 30
0.0
 11
0.0
 21
0.0
 31
0.0
  0
LINE
  5
ECF6
  8
0
  6
BYBLOCK
 62
     0
 10
-1.0
 20
0.0
 30
0.0
 11
0.0
 21
0.0
 31
0.0
  0
ENDBLK
  5
ECF7
  8
0
  6
BYBLOCK
 62
     0
  0
ENDSEC
  0
SECTION
  2
ENTITIES
  0
ATTDEF
  5
AA11
  8
DEFPOINTS
 10
3717.6917625633159332
 20
144.6316280789972097
 30
0.0
 40
0.001
  1
K-75595IN-2S
  3

  2
MODELNUMBER
 70
     0
1001
ACDBATTR
1070
     0
1070
     1
  0
ATTDEF
  5
AA12
  8
DEFPOINTS
 10
3717.6917625633159332
 20
144.6299614123304877
 30
0.0
 40
0.001
  1
HYDROTOWER
  3

  2
TRADENAME
 70
     0
1001
ACDBATTR
1070
     0
1070
     1
  0
ATTDEF
  5
AA13
  8
DEFPOINTS
 10
3717.6917625633159332
 20
144.6282947456637942
 30
0.0
 40
0.001
  1
IN-WALL TANK AND CARRIER SYSTEM
  3

  2
PRODUCT
 70
     0
1001
ACDBATTR
1070
     0
1070
     1
  0
CIRCLE
  5
1397A
  8
0
 10
3717.6899866231869964
 20
127.8938745208021999
 30
0.0
 40
1.1712598425
  0
CIRCLE
  5
1397B
  8
0
 10
3717.6899866231869964
 20
127.8938745208021999
 30
0.0
 40
1.1028681104
  0
CIRCLE
  5
1397C
  8
0
 10
3717.6899866231869964
 20
127.8938745208021999
 30
0.0
 40
0.8700787402000003
  0
LINE
  5
1397D
  8
0
 10
3716.6663645758872008
 20
128.6133889649960906
 30
0.0
 11
3716.6663645758872008
 21
129.2747318459022097
 31
0.0
  0
LINE
  5
1397E
  8
0
 10
3716.4027949300871114
 20
130.7865004630021986
 30
0.0
 11
3716.6627583042759397
 21
129.3158505177636926
 31
0.0
  0
LINE
  5
1397F
  8
0
 10
3716.3907740247868787
 20
130.9235627026021973
 30
0.0
 11
3716.3907740247868787
 21
132.4096225523022099
 31
0.0
  0
LINE
  5
13980
  8
0
 10
3716.3907740247868787
 20
132.4096225523022099
 30
0.0
 11
3716.4301441034867821
 21
132.4489926311021861
 31
0.0
  0
LINE
  5
13981
  8
0
 10
3716.4301441034867821
 20
132.4489926311021861
 30
0.0
 11
3716.4301441034867821
 21
132.4686776704022009
 31
0.0
  0
LINE
  5
13982
  8
0
 10
3716.4301441034867821
 20
132.4686776704022009
 30
0.0
 11
3716.3907740246868343
 21
132.5080477492022055
 31
0.0
  0
LINE
  5
13983
  8
0
 10
3716.3907740246868343
 20
132.5080477492022055
 30
0.0
 11
3718.9891992215871142
 21
132.5080477492022055
 31
0.0
  0
LINE
  5
13984
  8
0
 10
3718.9891992215871142
 20
132.5080477492022055
 30
0.0
 11
3718.9498291427871663
 21
132.4686776704022009
 31
0.0
  0
LINE
  5
13985
  8
0
 10
3718.9498291427871663
 20
132.4686776704022009
 30
0.0
 11
3718.9498291427871663
 21
132.4489926311021861
 31
0.0
  0
LINE
  5
13986
  8
0
 10
3718.9498291427871663
 20
132.4489926311021861
 30
0.0
 11
3718.9891992215871142
 21
132.4096225523022099
 31
0.0
  0
LINE
  5
13987
  8
0
 10
3718.9891992215871142
 20
132.4096225523022099
 30
0.0
 11
3716.3907740247868787
 21
132.4096225524021975
 31
0.0
  0
LINE
  5
13988
  8
0
 10
3716.4301441034867821
 20
132.4686776704022009
 30
0.0
 11
3718.9498291427871663
 21
132.4686776704022009
 31
0.0
  0
LINE
  5
13989
  8
0
 10
3718.9498291427871663
 20
132.4489926311021861
 30
0.0
 11
3716.4301441034867821
 21
132.4489926311021861
 31
0.0
  0
LINE
  5
1398A
  8
0
 10
3716.3907740247368565
 20
132.803323339652195
 30
0.0
 11
3716.4301441034372147
 21
132.8426934184521997
 31
0.0
  0
LINE
  5
1398B
  8
0
 10
3716.4301441034372147
 20
132.8426934184521997
 30
0.0
 11
3716.4301441034372147
 21
132.862378457752186
 31
0.0
  0
LINE
  5
1398C
  8
0
 10
3716.4301441034372147
 20
132.862378457752186
 30
0.0
 11
3716.3907740246368121
 21
132.9017485365521907
 31
0.0
  0
LINE
  5
1398D
  8
0
 10
3716.3907740246368121
 20
132.9017485365521907
 30
0.0
 11
3718.9891992215370919
 21
132.9017485365521907
 31
0.0
  0
LINE
  5
1398E
  8
0
 10
3718.9891992215370919
 20
132.9017485365521907
 30
0.0
 11
3718.9498291427371441
 21
132.862378457752186
 31
0.0
  0
LINE
  5
1398F
  8
0
 10
3718.9498291427371441
 20
132.862378457752186
 30
0.0
 11
3718.9498291427371441
 21
132.8426934184521997
 31
0.0
  0
LINE
  5
13990
  8
0
 10
3718.9498291427371441
 20
132.8426934184521997
 30
0.0
 11
3718.9891992215370919
 21
132.803323339652195
 31
0.0
  0
LINE
  5
13991
  8
0
 10
3718.9891992215370919
 20
132.803323339652195
 30
0.0
 11
3716.3907740247368565
 21
132.803323339752211
 31
0.0
  0
LINE
  5
13992
  8
0
 10
3716.4301441034372147
 20
132.862378457752186
 30
0.0
 11
3718.9498291427371441
 21
132.862378457752186
 31
0.0
  0
LINE
  5
13993
  8
0
 10
3718.9498291427371441
 20
132.8426934184521997
 30
0.0
 11
3716.4301441034372147
 21
132.8426934184521997
 31
0.0
  0
LINE
  5
13994
  8
0
 10
3716.3907740247368565
 20
133.295449324052214
 30
0.0
 11
3716.4301441034372147
 21
133.2560792452522094
 31
0.0
  0
LINE
  5
13995
  8
0
 10
3716.4301441034372147
 20
133.2560792452522094
 30
0.0
 11
3716.4301441034372147
 21
133.2363942059521946
 31
0.0
  0
LINE
  5
13996
  8
0
 10
3716.4301441034372147
 20
133.2363942059521946
 30
0.0
 11
3716.3907740246368121
 21
133.19702412715219
 31
0.0
  0
LINE
  5
13997
  8
0
 10
3716.3907740246368121
 20
133.19702412715219
 30
0.0
 11
3718.9891992215370919
 21
133.19702412715219
 31
0.0
  0
LINE
  5
13998
  8
0
 10
3718.9891992215370919
 20
133.19702412715219
 30
0.0
 11
3718.9498291427371441
 21
133.2363942059521946
 31
0.0
  0
LINE
  5
13999
  8
0
 10
3718.9498291427371441
 20
133.2363942059521946
 30
0.0
 11
3718.9498291427371441
 21
133.2560792452522094
 31
0.0
  0
LINE
  5
1399A
  8
0
 10
3718.9498291427371441
 20
133.2560792452522094
 30
0.0
 11
3718.9891992215370919
 21
133.295449324052214
 31
0.0
  0
LINE
  5
1399B
  8
0
 10
3718.9891992215370919
 20
133.295449324052214
 30
0.0
 11
3716.3907740247368565
 21
133.295449323952198
 31
0.0
  0
LINE
  5
1399C
  8
0
 10
3716.4301441034372147
 20
133.2363942059521946
 30
0.0
 11
3718.9498291427371441
 21
133.2363942059521946
 31
0.0
  0
LINE
  5
1399D
  8
0
 10
3718.9498291427371441
 20
133.2560792452522094
 30
0.0
 11
3716.4301441034372147
 21
133.2560792452522094
 31
0.0
  0
LINE
  5
1399E
  8
0
 10
3716.3907740246868343
 20
132.5080477492022055
 30
0.0
 11
3716.3907740246868343
 21
132.8033233396022013
 31
0.0
  0
LINE
  5
1399F
  8
0
 10
3718.9891992215871142
 20
132.5080477492022055
 30
0.0
 11
3718.9891992215871142
 21
132.8033233396022013
 31
0.0
  0
LINE
  5
139A0
  8
0
 10
3718.9891992215871142
 20
132.9017485366022129
 30
0.0
 11
3718.9891992215871142
 21
133.1970241271021962
 31
0.0
  0
LINE
  5
139A1
  8
0
 10
3716.3907740247368565
 20
132.9017485365521907
 30
0.0
 11
3716.3907740247368565
 21
133.1970241271021962
 31
0.0
  0
LINE
  5
139A2
  8
0
 10
3716.3907740247368565
 20
133.5907249144522098
 30
0.0
 11
3716.4301441034372147
 21
133.630094993252186
 31
0.0
  0
LINE
  5
139A3
  8
0
 10
3716.4301441034372147
 20
133.630094993252186
 30
0.0
 11
3716.4301441034372147
 21
133.6497800325522007
 31
0.0
  0
LINE
  5
139A4
  8
0
 10
3716.4301441034372147
 20
133.6497800325522007
 30
0.0
 11
3716.3907740246368121
 21
133.6891501113522054
 31
0.0
  0
LINE
  5
139A5
  8
0
 10
3716.3907740246368121
 20
133.6891501113522054
 30
0.0
 11
3718.9891992215370919
 21
133.6891501113522054
 31
0.0
  0
LINE
  5
139A6
  8
0
 10
3718.9891992215370919
 20
133.6891501113522054
 30
0.0
 11
3718.9498291427371441
 21
133.6497800325522007
 31
0.0
  0
LINE
  5
139A7
  8
0
 10
3718.9498291427371441
 20
133.6497800325522007
 30
0.0
 11
3718.9498291427371441
 21
133.630094993252186
 31
0.0
  0
LINE
  5
139A8
  8
0
 10
3718.9498291427371441
 20
133.630094993252186
 30
0.0
 11
3718.9891992215370919
 21
133.5907249144522098
 31
0.0
  0
LINE
  5
139A9
  8
0
 10
3718.9891992215370919
 20
133.5907249144522098
 30
0.0
 11
3716.3907740247368565
 21
133.5907249145521973
 31
0.0
  0
LINE
  5
139AA
  8
0
 10
3716.4301441034372147
 20
133.6497800325522007
 30
0.0
 11
3718.9498291427371441
 21
133.6497800325522007
 31
0.0
  0
LINE
  5
139AB
  8
0
 10
3718.9498291427371441
 20
133.630094993252186
 30
0.0
 11
3716.4301441034372147
 21
133.630094993252186
 31
0.0
  0
LINE
  5
139AC
  8
0
 10
3718.9891992215871142
 20
133.9844257019022109
 30
0.0
 11
3718.9891992215871142
 21
133.6891501114021992
 31
0.0
  0
LINE
  5
139AD
  8
0
 10
3716.3907740247368565
 20
133.9844257019522047
 30
0.0
 11
3716.3907740247368565
 21
133.6891501114021992
 31
0.0
  0
LINE
  5
139AE
  8
0
 10
3716.3907740247368565
 20
134.8702524736521866
 30
0.0
 11
3716.4301441034372147
 21
134.8308823948522104
 31
0.0
  0
LINE
  5
139AF
  8
0
 10
3716.4301441034372147
 20
134.8308823948522104
 30
0.0
 11
3716.4301441034372147
 21
134.8111973555521956
 31
0.0
  0
LINE
  5
139B0
  8
0
 10
3716.4301441034372147
 20
134.8111973555521956
 30
0.0
 11
3716.3907740246368121
 21
134.771827276752191
 31
0.0
  0
LINE
  5
139B1
  8
0
 10
3716.3907740246368121
 20
134.771827276752191
 30
0.0
 11
3718.9891992215370919
 21
134.771827276752191
 31
0.0
  0
LINE
  5
139B2
  8
0
 10
3718.9891992215370919
 20
134.771827276752191
 30
0.0
 11
3718.9498291427371441
 21
134.8111973555521956
 31
0.0
  0
LINE
  5
139B3
  8
0
 10
3718.9498291427371441
 20
134.8111973555521956
 30
0.0
 11
3718.9498291427371441
 21
134.8308823948522104
 31
0.0
  0
LINE
  5
139B4
  8
0
 10
3718.9498291427371441
 20
134.8308823948522104
 30
0.0
 11
3718.9891992215370919
 21
134.8702524736521866
 31
0.0
  0
LINE
  5
139B5
  8
0
 10
3718.9891992215370919
 20
134.8702524736521866
 30
0.0
 11
3716.3907740247368565
 21
134.870252473552199
 31
0.0
  0
LINE
  5
139B6
  8
0
 10
3716.4301441034372147
 20
134.8111973555521956
 30
0.0
 11
3718.9498291427371441
 21
134.8111973555521956
 31
0.0
  0
LINE
  5
139B7
  8
0
 10
3718.9498291427371441
 20
134.8308823948522104
 30
0.0
 11
3716.4301441034372147
 21
134.8308823948522104
 31
0.0
  0
LINE
  5
139B8
  8
0
 10
3718.9891992215871142
 20
134.4765516862022139
 30
0.0
 11
3718.9891992215871142
 21
134.7718272767021972
 31
0.0
  0
LINE
  5
139B9
  8
0
 10
3716.3907740247368565
 20
134.4765516861521917
 30
0.0
 11
3716.3907740247368565
 21
134.7718272767021972
 31
0.0
  0
LINE
  5
139BA
  8
0
 10
3716.3907740247368565
 20
134.0828508989021941
 30
0.0
 11
3716.4301441034372147
 21
134.0434808201021895
 31
0.0
  0
LINE
  5
139BB
  8
0
 10
3716.4301441034372147
 20
134.0434808201021895
 30
0.0
 11
3716.4301441034372147
 21
134.0237957808022031
 31
0.0
  0
LINE
  5
139BC
  8
0
 10
3716.4301441034372147
 20
134.0237957808022031
 30
0.0
 11
3716.3907740246368121
 21
133.9844257020021985
 31
0.0
  0
LINE
  5
139BD
  8
0
 10
3716.3907740246368121
 20
133.9844257020021985
 30
0.0
 11
3718.9891992215370919
 21
133.9844257020021985
 31
0.0
  0
LINE
  5
139BE
  8
0
 10
3718.9891992215370919
 20
133.9844257020021985
 30
0.0
 11
3718.9498291427371441
 21
134.0237957808022031
 31
0.0
  0
LINE
  5
139BF
  8
0
 10
3718.9498291427371441
 20
134.0237957808022031
 30
0.0
 11
3718.9498291427371441
 21
134.0434808201021895
 31
0.0
  0
LINE
  5
139C0
  8
0
 10
3718.9498291427371441
 20
134.0434808201021895
 30
0.0
 11
3718.9891992215370919
 21
134.0828508989021941
 31
0.0
  0
LINE
  5
139C1
  8
0
 10
3718.9891992215370919
 20
134.0828508989021941
 30
0.0
 11
3716.3907740247368565
 21
134.0828508988022065
 31
0.0
  0
LINE
  5
139C2
  8
0
 10
3716.4301441034372147
 20
134.0237957808022031
 30
0.0
 11
3718.9498291427371441
 21
134.0237957808022031
 31
0.0
  0
LINE
  5
139C3
  8
0
 10
3718.9498291427371441
 20
134.0434808201021895
 30
0.0
 11
3716.4301441034372147
 21
134.0434808201021895
 31
0.0
  0
LINE
  5
139C4
  8
0
 10
3716.3907740247368565
 20
134.3781264892022023
 30
0.0
 11
3716.4301441034372147
 21
134.4174965680022069
 31
0.0
  0
LINE
  5
139C5
  8
0
 10
3716.4301441034372147
 20
134.4174965680022069
 30
0.0
 11
3716.4301441034372147
 21
134.4371816073021932
 31
0.0
  0
LINE
  5
139C6
  8
0
 10
3716.4301441034372147
 20
134.4371816073021932
 30
0.0
 11
3716.3907740246368121
 21
134.4765516861021979
 31
0.0
  0
LINE
  5
139C7
  8
0
 10
3716.3907740246368121
 20
134.4765516861021979
 30
0.0
 11
3718.9891992215370919
 21
134.4765516861021979
 31
0.0
  0
LINE
  5
139C8
  8
0
 10
3718.9891992215370919
 20
134.4765516861021979
 30
0.0
 11
3718.9498291427371441
 21
134.4371816073021932
 31
0.0
  0
LINE
  5
139C9
  8
0
 10
3718.9498291427371441
 20
134.4371816073021932
 30
0.0
 11
3718.9498291427371441
 21
134.4174965680022069
 31
0.0
  0
LINE
  5
139CA
  8
0
 10
3718.9498291427371441
 20
134.4174965680022069
 30
0.0
 11
3718.9891992215370919
 21
134.3781264892022023
 31
0.0
  0
LINE
  5
139CB
  8
0
 10
3718.9891992215370919
 20
134.3781264892022023
 30
0.0
 11
3716.3907740247368565
 21
134.3781264893021898
 31
0.0
  0
LINE
  5
139CC
  8
0
 10
3716.4301441034372147
 20
134.4371816073021932
 30
0.0
 11
3718.9498291427371441
 21
134.4371816073021932
 31
0.0
  0
LINE
  5
139CD
  8
0
 10
3718.9498291427371441
 20
134.4174965680022069
 30
0.0
 11
3716.4301441034372147
 21
134.4174965680022069
 31
0.0
  0
LINE
  5
139CE
  8
0
 10
3716.3907740246868343
 20
134.3781264893021898
 30
0.0
 11
3716.3907740246868343
 21
134.0828508989521879
 31
0.0
  0
LINE
  5
139CF
  8
0
 10
3716.3907740246868343
 20
133.2954493241022078
 30
0.0
 11
3716.3907740246868343
 21
133.5907249144021876
 31
0.0
  0
LINE
  5
139D0
  8
0
 10
3718.9891992216371364
 20
133.295449324052214
 30
0.0
 11
3718.9891992214870697
 21
133.5907249145022035
 31
0.0
  0
LINE
  5
139D1
  8
0
 10
3718.9891992215871142
 20
134.3781264891522085
 30
0.0
 11
3718.9891992216871586
 21
134.0828508989021941
 31
0.0
  0
LINE
  5
139D2
  8
0
 10
3716.3907740247368565
 20
135.1655280640522108
 30
0.0
 11
3716.4301441034372147
 21
135.204898142852187
 31
0.0
  0
LINE
  5
139D3
  8
0
 10
3716.4301441034372147
 20
135.204898142852187
 30
0.0
 11
3716.4301441034372147
 21
135.2245831821522017
 31
0.0
  0
LINE
  5
139D4
  8
0
 10
3716.4301441034372147
 20
135.2245831821522017
 30
0.0
 11
3716.3907740246368121
 21
135.2639532609522064
 31
0.0
  0
LINE
  5
139D5
  8
0
 10
3716.3907740246368121
 20
135.2639532609522064
 30
0.0
 11
3718.9891992215370919
 21
135.2639532609522064
 31
0.0
  0
LINE
  5
139D6
  8
0
 10
3718.9891992215370919
 20
135.2639532609522064
 30
0.0
 11
3718.9498291427371441
 21
135.2245831821522017
 31
0.0
  0
LINE
  5
139D7
  8
0
 10
3718.9498291427371441
 20
135.2245831821522017
 30
0.0
 11
3718.9498291427371441
 21
135.204898142852187
 31
0.0
  0
LINE
  5
139D8
  8
0
 10
3718.9498291427371441
 20
135.204898142852187
 30
0.0
 11
3718.9891992215370919
 21
135.1655280640522108
 31
0.0
  0
LINE
  5
139D9
  8
0
 10
3718.9891992215370919
 20
135.1655280640522108
 30
0.0
 11
3716.3907740247368565
 21
135.1655280641521983
 31
0.0
  0
LINE
  5
139DA
  8
0
 10
3716.4301441034372147
 20
135.2245831821522017
 30
0.0
 11
3718.9498291427371441
 21
135.2245831821522017
 31
0.0
  0
LINE
  5
139DB
  8
0
 10
3718.9498291427371441
 20
135.204898142852187
 30
0.0
 11
3716.4301441034372147
 21
135.204898142852187
 31
0.0
  0
LINE
  5
139DC
  8
0
 10
3716.3907740247368565
 20
135.6576540484522013
 30
0.0
 11
3716.4301441034372147
 21
135.6182839696521967
 31
0.0
  0
LINE
  5
139DD
  8
0
 10
3716.4301441034372147
 20
135.6182839696521967
 30
0.0
 11
3716.4301441034372147
 21
135.5985989303522103
 31
0.0
  0
LINE
  5
139DE
  8
0
 10
3716.4301441034372147
 20
135.5985989303522103
 30
0.0
 11
3716.3907740246368121
 21
135.5592288515522057
 31
0.0
  0
LINE
  5
139DF
  8
0
 10
3716.3907740246368121
 20
135.5592288515522057
 30
0.0
 11
3718.9891992215370919
 21
135.5592288515522057
 31
0.0
  0
LINE
  5
139E0
  8
0
 10
3718.9891992215370919
 20
135.5592288515522057
 30
0.0
 11
3718.9498291427371441
 21
135.5985989303522103
 31
0.0
  0
LINE
  5
139E1
  8
0
 10
3718.9498291427371441
 20
135.5985989303522103
 30
0.0
 11
3718.9498291427371441
 21
135.6182839696521967
 31
0.0
  0
LINE
  5
139E2
  8
0
 10
3718.9498291427371441
 20
135.6182839696521967
 30
0.0
 11
3718.9891992215370919
 21
135.6576540484522013
 31
0.0
  0
LINE
  5
139E3
  8
0
 10
3718.9891992215370919
 20
135.6576540484522013
 30
0.0
 11
3716.3907740247368565
 21
135.6576540483522137
 31
0.0
  0
LINE
  5
139E4
  8
0
 10
3716.4301441034372147
 20
135.5985989303522103
 30
0.0
 11
3718.9498291427371441
 21
135.5985989303522103
 31
0.0
  0
LINE
  5
139E5
  8
0
 10
3718.9498291427371441
 20
135.6182839696521967
 30
0.0
 11
3716.4301441034372147
 21
135.6182839696521967
 31
0.0
  0
LINE
  5
139E6
  8
0
 10
3716.3907740246868343
 20
134.8702524736021928
 30
0.0
 11
3716.3907740246868343
 21
135.1655280640021886
 31
0.0
  0
LINE
  5
139E7
  8
0
 10
3718.9891992215871142
 20
134.8702524736021928
 30
0.0
 11
3718.9891992215871142
 21
135.1655280640021886
 31
0.0
  0
LINE
  5
139E8
  8
0
 10
3718.9891992215871142
 20
135.2639532610022002
 30
0.0
 11
3718.9891992215871142
 21
135.5592288515022119
 31
0.0
  0
LINE
  5
139E9
  8
0
 10
3716.3907740247368565
 20
135.2639532609522064
 30
0.0
 11
3716.3907740247368565
 21
135.5592288515022119
 31
0.0
  0
LINE
  5
139EA
  8
0
 10
3716.3907740247368565
 20
135.9529296388521971
 30
0.0
 11
3716.4301441034372147
 21
135.9922997176522017
 31
0.0
  0
LINE
  5
139EB
  8
0
 10
3716.4301441034372147
 20
135.9922997176522017
 30
0.0
 11
3716.4301441034372147
 21
136.011984756952188
 31
0.0
  0
LINE
  5
139EC
  8
0
 10
3716.4301441034372147
 20
136.011984756952188
 30
0.0
 11
3716.3907740246368121
 21
136.0513548357521927
 31
0.0
  0
LINE
  5
139ED
  8
0
 10
3716.3907740246368121
 20
136.0513548357521927
 30
0.0
 11
3718.9891992215370919
 21
136.0513548357521927
 31
0.0
  0
LINE
  5
139EE
  8
0
 10
3718.9891992215370919
 20
136.0513548357521927
 30
0.0
 11
3718.9498291427371441
 21
136.011984756952188
 31
0.0
  0
LINE
  5
139EF
  8
0
 10
3718.9498291427371441
 20
136.011984756952188
 30
0.0
 11
3718.9498291427371441
 21
135.9922997176522017
 31
0.0
  0
LINE
  5
139F0
  8
0
 10
3718.9498291427371441
 20
135.9922997176522017
 30
0.0
 11
3718.9891992215370919
 21
135.9529296388521971
 31
0.0
  0
LINE
  5
139F1
  8
0
 10
3718.9891992215370919
 20
135.9529296388521971
 30
0.0
 11
3716.3907740247368565
 21
135.9529296389522131
 31
0.0
  0
LINE
  5
139F2
  8
0
 10
3716.4301441034372147
 20
136.011984756952188
 30
0.0
 11
3718.9498291427371441
 21
136.011984756952188
 31
0.0
  0
LINE
  5
139F3
  8
0
 10
3718.9498291427371441
 20
135.9922997176522017
 30
0.0
 11
3716.4301441034372147
 21
135.9922997176522017
 31
0.0
  0
LINE
  5
139F4
  8
0
 10
3718.9891992215871142
 20
136.3466304263021982
 30
0.0
 11
3718.9891992215871142
 21
136.0513548358021865
 31
0.0
  0
LINE
  5
139F5
  8
0
 10
3716.3907740247368565
 20
136.346630426352192
 30
0.0
 11
3716.3907740247368565
 21
136.0513548358021865
 31
0.0
  0
LINE
  5
139F6
  8
0
 10
3716.4301441034372147
 20
136.3860005052021904
 30
0.0
 11
3716.3907740246368121
 21
136.3466304264022142
 31
0.0
  0
LINE
  5
139F7
  8
0
 10
3716.3907740246368121
 20
136.3466304264022142
 30
0.0
 11
3718.9891992215370919
 21
136.3466304264022142
 31
0.0
  0
LINE
  5
139F8
  8
0
 10
3718.9891992215370919
 20
136.3466304264022142
 30
0.0
 11
3718.9498291427371441
 21
136.3860005052021904
 31
0.0
  0
LINE
  5
139F9
  8
0
 10
3716.3907740246868343
 20
136.3860005051022029
 30
0.0
 11
3718.9891992215871142
 21
136.3860005051022029
 31
0.0
  0
LINE
  5
139FA
  8
0
 10
3716.3907740246868343
 20
135.6576540485021951
 30
0.0
 11
3716.3907740246868343
 21
135.9529296388022033
 31
0.0
  0
LINE
  5
139FB
  8
0
 10
3718.9891992216371364
 20
135.6576540484522013
 30
0.0
 11
3718.9891992214870697
 21
135.9529296389021908
 31
0.0
  0
LINE
  5
139FC
  8
0
 10
3718.9891992215871142
 20
132.4096225523022099
 30
0.0
 11
3718.9891992214870697
 21
130.9235627025491908
 31
0.0
  0
LINE
  5
139FD
  8
0
 10
3718.7172149420039204
 20
129.3158505177570987
 30
0.0
 11
3718.977178316186837
 21
130.7865004630021986
 31
0.0
  0
LINE
  5
139FE
  8
0
 10
3718.7136086703872024
 20
129.2718272767021972
 30
0.0
 11
3718.7136086703872024
 21
128.6133889651383981
 31
0.0
  0
ARC
  5
139FF
  8
0
 10
3717.1779874584449317
 20
130.9235462018731937
 30
0.0
 40
0.7872134338306722
 50
179.9987990269343072
 51
190.025687773331299
  0
ARC
  5
13A00
  8
0
 10
3718.2017976337119762
 20
130.9235627043146906
 30
0.0
 40
0.787401587875503
 50
349.9755132456415936
 51
359.999999875388994
  0
ARC
  5
13A01
  8
0
 10
3716.4301441025081658
 20
129.2747318458592929
 30
0.0
 40
0.2362204733797437
 50
0.0000000104008718
 51
10.0244867508299098
  0
LINE
  5
13A02
  8
0
 10
3716.6663645672310849
 20
129.2747957927064135
 30
0.0
 11
3718.7135940382158878
 21
129.2747318459022097
 31
0.0
  0
ARC
  5
13A03
  8
0
 10
3718.9517431811332244
 20
129.2744792338044135
 30
0.0
 40
0.2381492768925445
 50
169.9958234469208946
 51
180.6380413657911959
  0
LINE
  5
13A04
  8
0
 10
3716.3907740246140747
 20
130.9235462018731937
 30
0.0
 11
3718.9891992215871142
 21
130.9235462018731937
 31
0.0
  0
ARC
  5
13A05
  8
0
 10
3715.944711032586838
 20
138.0211702443021977
 30
0.0
 40
0.1299212598000006
 50
90.0
 51
180.0
  0
ARC
  5
13A06
  8
0
 10
3716.0010102451851708
 20
138.1727450475032981
 30
0.0
 40
0.0216535433027518
 50
270.0000000096403028
 51
359.999999996986503
  0
ARC
  5
13A07
  8
0
 10
3715.944711032586838
 20
137.9345560711022074
 30
0.0
 40
0.1299212598000006
 50
180.0
 51
270.0
  0
ARC
  5
13A08
  8
0
 10
3715.9874221916670649
 20
137.7613277244153096
 30
0.0
 40
0.0433070868868404
 50
3.000000241808721
 51
89.9999997091729256
  0
ARC
  5
13A09
  8
0
 10
3716.251381966586905
 20
137.6895700349022036
 30
0.0
 40
0.2165354331000017
 50
183.0000000007001972
 51
239.7559937660336118
  0
ARC
  5
13A0A
  8
0
 10
3716.0659708747798504
 20
137.3715639448197123
 30
0.0
 40
0.1515748035062696
 50
0.0000001067689307
 51
59.75599384254987
  0
ARC
  5
13A0B
  8
0
 10
3716.3513325730318684
 20
137.0643755822526941
 30
0.0
 40
0.1180093087700692
 50
199.4432002441631937
 51
270.034681931731825
  0
ARC
  5
13A0C
  8
0
 10
3716.3632149695868065
 20
136.8676261376022012
 30
0.0
 40
0.078740157500001
 50
0.0000000000008142
 51
89.9999043189100263
  0
ARC
  5
13A0D
  8
0
 10
3716.3907740253421252
 20
136.5041107410310133
 30
0.0
 40
0.0393700793547458
 50
89.993123581242557
 51
179.9999996053115865
  0
ARC
  5
13A0E
  8
0
 10
3716.3907740246868343
 20
136.4253705838021915
 30
0.0
 40
0.0393700786999993
 50
180.0000000000007958
 51
270.0
  0
LINE
  5
13A0F
  8
0
 10
3716.3514039459869309
 20
136.4253705838021915
 30
0.0
 11
3716.3514039459869309
 21
136.5041107410310133
 31
0.0
  0
LINE
  5
13A10
  8
0
 10
3716.4419551270871125
 20
136.5434808201021895
 30
0.0
 11
3716.4419551270871125
 21
136.8676261376022012
 31
0.0
  0
LINE
  5
13A11
  8
0
 10
3716.2175456782870242
 20
137.02510725220219
 30
0.0
 11
3716.2175456782870242
 21
137.3715639448278125
 31
0.0
  0
LINE
  5
13A12
  8
0
 10
3716.0351432877700972
 20
137.678237446002214
 30
0.0
 11
3716.0306699276297877
 21
137.7635942423885922
 31
0.0
  0
LINE
  5
13A13
  8
0
 10
3715.8147897727872078
 20
138.0211702443021977
 30
0.0
 11
3715.8147897727872078
 21
137.9345560711022074
 31
0.0
  0
LINE
  5
13A14
  8
0
 10
3716.0226637884870797
 20
138.1727450475021897
 30
0.0
 11
3716.0226637884870797
 21
138.5408552837022
 31
0.0
  0
ARC
  5
13A15
  8
0
 10
3719.4352622136871105
 20
138.0211702443021977
 30
0.0
 40
0.1299212598000006
 50
0.0
 51
90.0
  0
ARC
  5
13A16
  8
0
 10
3719.3789630012552152
 20
138.1727450475717092
 30
0.0
 40
0.0216535434679557
 50
180.0000001840801076
 51
269.9999995555780856
  0
ARC
  5
13A17
  8
0
 10
3719.4352622136871105
 20
137.9345560711022074
 30
0.0
 40
0.1299212598000006
 50
270.0
 51
359.9999999999992042
  0
ARC
  5
13A18
  8
0
 10
3719.3925510546068836
 20
137.7613277244153096
 30
0.0
 40
0.0433070868868403
 50
90.0000002908270602
 51
176.9999997581911941
  0
ARC
  5
13A19
  8
0
 10
3719.1285912796861339
 20
137.6895700349022036
 30
0.0
 40
0.2165354331000017
 50
300.2440062339663882
 51
356.9999999992996891
  0
ARC
  5
13A1A
  8
0
 10
3719.3140023714931885
 20
137.3715639448197123
 30
0.0
 40
0.1515748035062696
 50
120.2440061574501016
 51
179.9999998932302105
  0
ARC
  5
13A1B
  8
0
 10
3719.0286406732420801
 20
137.0643755822526941
 30
0.0
 40
0.1180093087700692
 50
269.965318068268175
 51
340.5567997558359252
  0
ARC
  5
13A1C
  8
0
 10
3719.0167582766871419
 20
136.8676261376022012
 30
0.0
 40
0.078740157500001
 50
90.0000956810899595
 51
179.9999999999992042
  0
ARC
  5
13A1D
  8
0
 10
3718.9891992209318232
 20
136.5041107410310133
 30
0.0
 40
0.0393700793547467
 50
0.0000003946884142
 51
90.0
  0
ARC
  5
13A1E
  8
0
 10
3718.9891992215871142
 20
136.4253705838021915
 30
0.0
 40
0.0393700786999993
 50
270.0
 51
359.9999999999992042
  0
LINE
  5
13A1F
  8
0
 10
3719.0285693002870175
 20
136.4253705838021915
 30
0.0
 11
3719.0285693002870175
 21
136.5041107410310133
 31
0.0
  0
LINE
  5
13A20
  8
0
 10
3718.9380181191882002
 20
136.5434808201021895
 30
0.0
 11
3718.9380181191882002
 21
136.8676261376022012
 31
0.0
  0
LINE
  5
13A21
  8
0
 10
3719.1624275679869243
 20
137.02510725220219
 30
0.0
 11
3719.1624275679869243
 21
137.3715639448278125
 31
0.0
  0
LINE
  5
13A22
  8
0
 10
3719.3448299585038512
 20
137.678237446002214
 30
0.0
 11
3719.3493033186441608
 21
137.7635942423885922
 31
0.0
  0
LINE
  5
13A23
  8
0
 10
3719.5651834734871954
 20
138.0211702443021977
 30
0.0
 11
3719.5651834734871954
 21
137.9345560711022074
 31
0.0
  0
LINE
  5
13A24
  8
0
 10
3719.3573094577868687
 20
138.1727450475021897
 30
0.0
 11
3719.3573094577868687
 21
138.5408552837022
 31
0.0
  0
LINE
  5
13A25
  8
0
 10
3715.944711032586838
 20
138.1510915042022134
 30
0.0
 11
3719.4352622136871105
 21
138.1510915041021974
 31
0.0
  0
LINE
  5
13A26
  8
0
 10
3715.944711032586838
 20
137.8046348113022077
 30
0.0
 11
3719.4352622136871105
 21
137.8046348113022077
 31
0.0
  0
LINE
  5
13A27
  8
0
 10
3716.2175456782870242
 20
137.02510725220219
 30
0.0
 11
3719.1624275679869243
 21
137.02510725220219
 31
0.0
  0
LINE
  5
13A28
  8
0
 10
3716.351404005718905
 20
136.9463662951021945
 30
0.0
 11
3719.0285692405718692
 21
136.9463662951021945
 31
0.0
  0
LINE
  5
13A29
  8
0
 10
3719.228110109761019
 20
137.496453657896609
 30
0.0
 11
3716.1518470005498784
 21
137.4964647537879046
 31
0.0
  0
LINE
  5
13A2A
  8
0
 10
3716.3907787503871987
 20
136.5434808201021895
 30
0.0
 11
3718.9891992209318232
 21
136.543480820385696
 31
0.0
  0
LINE
  5
13A2B
  8
0
 10
3716.6525850482871647
 20
138.5447922916021923
 30
0.0
 11
3718.7273881979867838
 21
138.5447922916021923
 31
0.0
  0
LINE
  5
13A2C
  8
0
 10
3718.7136086703872024
 20
138.5447922916021923
 30
0.0
 11
3718.7136046757868826
 21
138.5605403231022024
 31
0.0
  0
LINE
  5
13A2D
  8
0
 10
3718.7136046757868826
 20
138.5605403231022024
 30
0.0
 11
3718.7829872517490912
 21
138.5604797753738069
 31
0.0
  0
LINE
  5
13A2E
  8
0
 10
3718.7829872517490912
 20
138.5604797753738069
 30
0.0
 11
3718.7835026578550242
 21
139.151091504126498
 31
0.0
  0
LINE
  5
13A2F
  8
0
 10
3716.6663645756871119
 20
139.1510915042022134
 30
0.0
 11
3716.5964705885189687
 21
139.1510915042022134
 31
0.0
  0
LINE
  5
13A30
  8
0
 10
3716.5964705885189687
 20
139.1510915042022134
 30
0.0
 11
3716.596985941686853
 21
138.5605403193021914
 31
0.0
  0
LINE
  5
13A31
  8
0
 10
3716.596990207186991
 20
138.5605403231022024
 30
0.0
 11
3716.6663685704870659
 21
138.5605403231022024
 31
0.0
  0
LINE
  5
13A32
  8
0
 10
3716.6663685704870659
 20
138.5605403231022024
 30
0.0
 11
3716.6663685704870659
 21
138.5447922916021923
 31
0.0
  0
ARC
  5
13A33
  8
0
 10
3716.6525850482871647
 20
138.4818001656022091
 30
0.0
 40
0.0629921260000066
 50
90.0
 51
110.3283857501952951
  0
ARC
  5
13A34
  8
0
 10
3718.7273881979867838
 20
138.4818001656022091
 30
0.0
 40
0.0629921260000062
 50
69.6716142498050317
 51
90.0
  0
ARC
  5
13A35
  8
0
 10
3717.6899846258370417
 20
79.9175014389046225
 30
0.0
 40
58.6519718984807028
 50
88.9999980478609558
 51
91.0000019521390442
  0
ARC
  5
13A36
  8
0
 10
3717.6899866256858331
 20
75.9425730759777764
 30
0.0
 40
62.6275057921763221
 50
89.0000000058093974
 51
90.9999999987769854
  0
LINE
  5
13A37
  8
0
 10
3716.0226637884870797
 20
138.5408552837022
 30
0.0
 11
3719.3573094577868687
 21
138.5408552837022
 31
0.0
  0
ARC
  5
13A38
  8
0
 10
3717.6899866230319276
 20
197.794359267162406
 30
0.0
 40
58.6522007772432872
 50
268.9999999990861284
 51
271.0000000009399059
  0
ARC
  5
13A39
  8
0
 10
3717.6899865164891708
 20
201.7990725076988099
 30
0.0
 40
62.6575239007685667
 50
269.0000079068681771
 51
270.9999922882881833
  0
LINE
  5
13A3A
  8
0
 10
3718.7136086703872024
 20
139.166839535702195
 30
0.0
 11
3718.7136086705868365
 21
139.1510915042022134
 31
0.0
  0
LINE
  5
13A3B
  8
0
 10
3718.7136086705868365
 20
139.1510915042022134
 30
0.0
 11
3718.783502604628211
 21
139.1510305102214886
 31
0.0
  0
LINE
  5
13A3C
  8
0
 10
3716.6663645759867904
 20
139.1510915042020997
 30
0.0
 11
3716.6663645759867904
 21
139.166839535702195
 31
0.0
  0
LINE
  5
13A3D
  8
0
 10
3716.6525850482871647
 20
139.166839535702195
 30
0.0
 11
3718.7273881979867838
 21
139.166839535702195
 31
0.0
  0
LINE
  5
13A3E
  8
0
 10
3718.7273881979867838
 20
139.29282378770219
 30
0.0
 11
3716.6525850482871647
 21
139.2928237876022024
 31
0.0
  0
ARC
  5
13A3F
  8
0
 10
3716.6525850482371425
 20
139.2298316616522129
 30
0.0
 40
0.0629921259500002
 50
89.9999999545077856
 51
270.0000000454660949
  0
ARC
  5
13A40
  8
0
 10
3718.727388198036806
 20
139.2298316616522129
 30
0.0
 40
0.0629921259500002
 50
269.9999999545337914
 51
90.0000000454661517
  0
LINE
  5
13A41
  8
0
 10
3716.2824339349867842
 20
141.3571016334958017
 30
0.0
 11
3716.3051450904567901
 21
140.6629771374115876
 31
0.0
  0
LINE
  5
13A42
  8
0
 10
3716.4231921563869037
 20
140.5487292994021971
 30
0.0
 11
3718.9567810898861353
 21
140.5487292994021971
 31
0.0
  0
LINE
  5
13A43
  8
0
 10
3719.0748281558871895
 20
140.6629771374043116
 30
0.0
 11
3719.0975393113872087
 21
141.3571016334981891
 31
0.0
  0
ARC
  5
13A44
  8
0
 10
3716.4231921564369259
 20
140.6668395358271937
 30
0.0
 40
0.1181102363249782
 50
181.8740000630716906
 51
269.9999999754560918
  0
ARC
  5
13A45
  8
0
 10
3718.9567810896610354
 20
140.6668395359048134
 30
0.0
 40
0.1181102365026452
 50
270.0000001095356765
 51
358.1259999020501255
  0
LINE
  5
13A46
  8
0
 10
3716.5952680825871539
 20
140.5290614385021968
 30
0.0
 11
3716.5963374287871375
 21
139.3085718191022124
 31
0.0
  0
LINE
  5
13A47
  8
0
 10
3716.5963374287871375
 20
139.3085718191022124
 30
0.0
 11
3716.6663685704870659
 21
139.3085718191022124
 31
0.0
  0
LINE
  5
13A48
  8
0
 10
3716.6663685704870659
 20
139.3085718191022124
 30
0.0
 11
3716.6663645758872008
 21
139.2928237876027993
 31
0.0
  0
LINE
  5
13A49
  8
0
 10
3718.7847051636867945
 20
140.5290614385021968
 30
0.0
 11
3718.78364008619792
 21
139.3085727485577934
 31
0.0
  0
LINE
  5
13A4A
  8
0
 10
3718.78364008619792
 20
139.3085727485577934
 30
0.0
 11
3718.7136086703872024
 21
139.3085718191022124
 31
0.0
  0
LINE
  5
13A4B
  8
0
 10
3718.7136086703872024
 20
139.3085718191022124
 30
0.0
 11
3718.7136086703872024
 21
139.2928237877015079
 31
0.0
  0
LINE
  5
13A4C
  8
0
 10
3716.079773403686886
 20
141.3951842461021897
 30
0.0
 11
3719.3002002339871979
 21
141.3951842461021897
 31
0.0
  0
ARC
  5
13A4D
  8
0
 10
3716.2430849129868875
 20
141.3558141674022011
 30
0.0
 40
0.0393700786999975
 50
1.8740000059786099
 51
90.0
  0
ARC
  5
13A4E
  8
0
 10
3719.136888333287061
 20
141.3558141674022011
 30
0.0
 40
0.0393700787000004
 50
90.0
 51
178.1259999940189118
  0
ARC
  5
13A4F
  8
0
 10
3716.5755830506868733
 20
140.5290442601022107
 30
0.0
 40
0.0196850394000004
 50
0.0499998970664058
 51
90.0
  0
ARC
  5
13A50
  8
0
 10
3718.8043901955861656
 20
140.5290442601022107
 30
0.0
 40
0.0196850393999996
 50
90.0
 51
179.4939713136319881
  0
ARC
  5
13A51
  8
0
 10
3717.6899846258370417
 20
80.6655329349060537
 30
0.0
 40
58.6519718984792675
 50
88.9999980478609558
 51
91.0000019521390442
  0
ARC
  5
13A52
  8
0
 10
3717.6900111663931057
 20
76.650394692889904
 30
0.0
 40
62.6677213681016028
 50
89.0000673231432131
 51
90.9999775617329192
  0
ARC
  5
13A53
  8
0
 10
3715.7503825634871646
 20
141.2377027896021957
 30
0.0
 40
0.3543292692999984
 50
28.2741043768984213
 51
90.000528148108657
  0
ARC
  5
13A54
  8
0
 10
3716.0797721419780828
 20
141.4148661324229863
 30
0.0
 40
0.019681886361236
 50
208.2672208341597013
 51
270.0036729487152911
  0
ARC
  5
13A55
  8
0
 10
3715.2227800706427843
 20
142.103843601458891
 30
0.0
 40
0.5118072153569173
 50
244.6152046926671062
 51
270.0000474147914815
  0
LINE
  5
13A56
  8
0
 10
3715.2227804941871909
 20
141.592036386102194
 30
0.0
 11
3716.0851460070998655
 21
141.5920293132259928
 31
0.0
  0
ARC
  5
13A57
  8
0
 10
3715.9553917219441246
 20
143.1544018271673906
 30
0.0
 40
1.5677512707174981
 50
274.7474920729223982
 51
291.5597250192940919
  0
ARC
  5
13A58
  8
0
 10
3715.5341373785258838
 20
145.0091322448803908
 30
0.0
 40
3.4596713304141908
 50
286.7550663595263813
 51
300.1434070688401903
  0
ARC
  5
13A59
  8
0
 10
3717.2112339622071886
 20
142.1260274393372072
 30
0.0
 40
0.1242896096126413
 50
298.9873670862808126
 51
347.6203104284992946
  0
ARC
  5
13A5A
  8
0
 10
-171.0806850409030062
 20
299.2916921675442268
 30
0.0
 40
3891.5893359254700954
 50
357.6850314498694274
 51
357.6868197352703191
  0
ARC
  5
13A5B
  8
0
 10
3532.7296792544912023
 20
149.737322497317507
 30
0.0
 40
184.7608195396275903
 50
357.6684066598072036
 51
357.8476457759056188
  0
ARC
  5
13A5C
  8
0
 10
3780.9460670820358246
 20
140.3099925197728055
 30
0.0
 40
63.6345867836320522
 50
176.1124012769105889
 51
177.7589958842987983
  0
ARC
  5
13A5D
  8
0
 10
3562.9037672598310564
 20
150.7026949828866975
 30
0.0
 40
154.673615849373391
 50
357.7478270983760922
 51
358.1950995486894271
  0
ARC
  5
13A5E
  8
0
 10
3721.6321068084607759
 20
145.6084981699154923
 30
0.0
 40
4.137452078038244
 50
171.1782705289946875
 51
176.9165018963001899
  0
ARC
  5
13A5F
  8
0
 10
3720.142303141020875
 20
145.8424792014463094
 30
0.0
 40
2.629390304624752
 50
162.5308867128879911
 51
171.2378872672769035
  0
ARC
  5
13A60
  8
0
 10
3717.8553556771221338
 20
146.5896499376850102
 30
0.0
 40
0.2251531027329437
 50
137.2627711984150949
 51
169.2101697418337949
  0
LINE
  5
13A61
  8
0
 10
3709.3008083300878752
 20
144.3473784166021971
 30
0.0
 11
3715.0033706725239426
 21
141.6414518393046933
 31
0.0
  0
ARC
  5
13A62
  8
0
 10
3709.5070245631700345
 20
144.7947420294989058
 30
0.0
 40
0.4926046456651476
 50
179.1342596042300954
 51
245.2522411386522947
  0
ARC
  5
13A63
  8
0
 10
4113.8333708489635683
 20
154.9852661726166048
 30
0.0
 40
404.946950410656882
 50
181.1820123536672043
 51
181.4409519098566932
  0
LINE
  5
13A64
  8
0
 10
3708.8385909800858826
 20
154.3085717790305011
 30
0.0
 11
3708.9725895270871661
 21
146.6318001656021863
 31
0.0
  0
LINE
  5
13A65
  8
0
 10
3711.8222012121868829
 20
153.8951859924021903
 30
0.0
 11
3712.0994354420868149
 21
153.8951859924021903
 31
0.0
  0
LINE
  5
13A66
  8
0
 10
3712.0994354420868149
 20
153.8951859924021903
 30
0.0
 11
3712.0994354420868149
 21
153.559910401802199
 31
0.0
  0
LINE
  5
13A67
  8
0
 10
3712.1781755994870764
 20
153.5205403231022103
 30
0.0
 11
3712.1781755994870764
 21
153.8371022359021936
 31
0.0
  0
LINE
  5
13A68
  8
0
 10
3712.9655771742868637
 20
153.5205403231022103
 30
0.0
 11
3712.9655771742868637
 21
153.8371059373577054
 31
0.0
  0
LINE
  5
13A69
  8
0
 10
3713.0443173317871697
 20
153.8951859924021903
 30
0.0
 11
3713.0443173317871697
 21
153.559910401802199
 31
0.0
  0
ARC
  5
13A6A
  8
0
 10
3712.2552885761738253
 20
153.8351262309847129
 30
0.0
 40
0.0771382899021876
 50
88.7912940681674741
 51
178.5321281039323935
  0
ARC
  5
13A6B
  8
0
 10
3712.8884640323390158
 20
153.8351259603502115
 30
0.0
 40
0.0771385569607657
 50
1.4708181108812279
 51
91.2085788958800947
  0
ARC
  5
13A6C
  8
0
 10
3712.138805520787173
 20
153.559910401802199
 30
0.0
 40
0.0393700786999978
 50
180.0
 51
270.0
  0
ARC
  5
13A6D
  8
0
 10
3713.0049472530868115
 20
153.559910401802199
 30
0.0
 40
0.0393700786999989
 50
270.0
 51
359.9999999999943157
  0
LINE
  5
13A6E
  8
0
 10
3712.2569157569869276
 20
153.9122473568299938
 30
0.0
 11
3712.886837016887057
 21
153.9122473568021974
 31
0.0
  0
LINE
  5
13A6F
  8
0
 10
3712.138805520787173
 20
153.5205403231022103
 30
0.0
 11
3713.0049472530868115
 21
153.5205403231022103
 31
0.0
  0
ARC
  5
13A70
  8
0
 10
3712.0403803238159526
 20
153.4818001654315083
 30
0.0
 40
0.157480314829292
 50
179.99999993789271
 51
269.9999995891370759
  0
ARC
  5
13A71
  8
0
 10
3713.103372449887047
 20
153.4818001656022091
 30
0.0
 40
0.1574803150000044
 50
270.0
 51
359.9999993814901131
  0
LINE
  5
13A72
  8
0
 10
3713.0443173317871697
 20
153.8951859924021903
 30
0.0
 11
3713.3215515616871016
 21
153.8951859924021903
 31
0.0
  0
LINE
  5
13A73
  8
0
 10
3711.8829000089867804
 20
153.8951859924021903
 30
0.0
 11
3711.8829000088871908
 21
153.4818001656402942
 31
0.0
  0
LINE
  5
13A74
  8
0
 10
3712.0403803364870328
 20
153.324319850602194
 30
0.0
 11
3713.103372449887047
 21
153.324319850602194
 31
0.0
  0
LINE
  5
13A75
  8
0
 10
3713.2608527648872041
 20
153.4818001772021887
 30
0.0
 11
3713.2608527648872041
 21
153.8951859924021903
 31
0.0
  0
LINE
  5
13A76
  8
0
 10
3712.1781755994870764
 20
153.6580475109022075
 30
0.0
 11
3712.9655771742868637
 21
153.6580475109022075
 31
0.0
  0
LINE
  5
13A77
  8
0
 10
3712.1781755994870764
 20
153.6780206380022094
 30
0.0
 11
3712.9655771742868637
 21
153.6780206380022094
 31
0.0
  0
LINE
  5
13A78
  8
0
 10
3712.1781755994870764
 20
153.727233236502201
 30
0.0
 11
3712.9655771742868637
 21
153.727233236502201
 31
0.0
  0
LINE
  5
13A79
  8
0
 10
3712.1781755994870764
 20
153.7964301293021947
 30
0.0
 11
3712.9655771742868637
 21
153.7964301293021947
 31
0.0
  0
LINE
  5
13A7A
  8
0
 10
3712.1781755994870764
 20
153.8158159136021936
 30
0.0
 11
3712.9655771742868637
 21
153.8158159136021936
 31
0.0
  0
LINE
  5
13A7B
  8
0
 10
3712.1859170351749526
 20
153.8688590794905053
 30
0.0
 11
3712.9578357392138059
 21
153.8688590784315977
 31
0.0
  0
LINE
  5
13A7C
  8
0
 10
3711.8222012121868829
 20
153.8951859924021903
 30
0.0
 11
3711.6461150827872189
 21
144.0185456450022059
 31
0.0
  0
LINE
  5
13A7D
  8
0
 10
3713.3215515616871016
 20
153.8951859924021903
 30
0.0
 11
3713.5211512447708628
 21
142.3447805943972924
 31
0.0
  0
ARC
  5
13A7E
  8
0
 10
3711.1227228828288389
 20
144.0298554909309985
 30
0.0
 40
0.5235143814558065
 50
263.8858246877409783
 51
358.7621030511497793
  0
LINE
  5
13A7F
  8
0
 10
3708.8385909800858826
 20
154.3085717790305011
 30
0.0
 11
3708.5863357836869909
 21
154.3085718191022124
 31
0.0
  0
LINE
  5
13A80
  8
0
 10
3708.5849078829878636
 20
154.7613277246022108
 30
0.0
 11
3708.5849078829878636
 21
155.5880993782022017
 31
0.0
  0
LINE
  5
13A81
  8
0
 10
3708.5849081109349754
 20
155.4828761610507968
 30
0.0
 11
3708.821128355386918
 21
155.4849347620364881
 31
0.0
  0
LINE
  5
13A82
  8
0
 10
3708.821128355386918
 20
155.4849347620364881
 30
0.0
 11
3709.8553409538872074
 21
155.4849347620364881
 31
0.0
  0
LINE
  5
13A83
  8
0
 10
3709.8553409538872074
 20
155.4849347620364881
 30
0.0
 11
3709.8553409538872074
 21
154.7857521833022076
 31
0.0
  0
LINE
  5
13A84
  8
0
 10
3709.8553409538872074
 20
154.7857521833022076
 30
0.0
 11
3708.5849078829878636
 21
154.7878136482021887
 31
0.0
  0
LINE
  5
13A85
  8
0
 10
3708.5849078829878636
 20
155.4705045082021968
 30
0.0
 11
3708.8251985670872273
 21
155.4705045082021968
 31
0.0
  0
LINE
  5
13A86
  8
0
 10
3708.8251985670872273
 20
155.4705045082021968
 30
0.0
 11
3708.819469893086989
 21
154.8196934785021881
 31
0.0
  0
LINE
  5
13A87
  8
0
 10
3708.5849078829878636
 20
154.8001824372022099
 30
0.0
 11
3708.7997863657319613
 21
154.8001824371563089
 31
0.0
  0
ARC
  5
13A88
  8
0
 10
3708.7997866596160748
 20
154.8198664304557042
 30
0.0
 40
0.019683993301543
 50
269.9991445731052977
 51
359.4965682469663761
  0
LINE
  5
13A89
  8
0
 10
3708.8251985670872273
 20
155.4705045082021968
 30
0.0
 11
3708.8358148436791453
 21
155.4849347620364881
 31
0.0
  0
LINE
  5
13A8A
  8
0
 10
3708.8358480386491465
 20
155.4849347620364881
 30
0.0
 11
3708.8297784698897885
 21
154.7874163095846995
 31
0.0
  0
LINE
  5
13A8B
  8
0
 10
3710.7214826860868016
 20
154.7613277246022108
 30
0.0
 11
3710.7214826860868016
 21
155.4849347620022115
 31
0.0
  0
LINE
  5
13A8C
  8
0
 10
3710.7214826860868016
 20
155.4849347620022115
 30
0.0
 11
3709.9340811112870142
 21
155.4849347620022115
 31
0.0
  0
LINE
  5
13A8D
  8
0
 10
3709.9340811112870142
 20
155.4849347620022115
 30
0.0
 11
3709.9340811112870142
 21
154.7613277246022108
 31
0.0
  0
LINE
  5
13A8E
  8
0
 10
3711.5876244183868948
 20
154.7613277246022108
 30
0.0
 11
3711.5876244183868948
 21
155.4849347620022115
 31
0.0
  0
LINE
  5
13A8F
  8
0
 10
3711.5876244183868948
 20
155.4849347620022115
 30
0.0
 11
3710.8002228435871075
 21
155.4849347620022115
 31
0.0
  0
LINE
  5
13A90
  8
0
 10
3710.8002228435871075
 20
155.4849347620022115
 30
0.0
 11
3710.8002228435871075
 21
154.7613277246022108
 31
0.0
  0
LINE
  5
13A91
  8
0
 10
3712.4537661506869881
 20
154.7613277246022108
 30
0.0
 11
3712.4537661506869881
 21
155.4849347620022115
 31
0.0
  0
LINE
  5
13A92
  8
0
 10
3712.4537661506869881
 20
155.4849347620022115
 30
0.0
 11
3711.6663645758872008
 21
155.4849347620022115
 31
0.0
  0
LINE
  5
13A93
  8
0
 10
3711.6663645758872008
 20
155.4849347620022115
 30
0.0
 11
3711.6663645758872008
 21
154.7613277246022108
 31
0.0
  0
LINE
  5
13A94
  8
0
 10
3712.5325063081868393
 20
154.7613277246022108
 30
0.0
 11
3712.5325063081868393
 21
155.4849347620022115
 31
0.0
  0
LINE
  5
13A95
  8
0
 10
3712.5325063081868393
 20
155.4849347620022115
 30
0.0
 11
3713.0836874105871175
 21
155.4849347620022115
 31
0.0
  0
LINE
  5
13A96
  8
0
 10
3713.0836874105871175
 20
155.4849347620022115
 30
0.0
 11
3713.0836874105871175
 21
154.7613277246022108
 31
0.0
  0
LINE
  5
13A97
  8
0
 10
3707.6506165443870486
 20
160.082823497202213
 30
0.0
 11
3713.0836874105871175
 21
160.082823497202213
 31
0.0
  0
LINE
  5
13A98
  8
0
 10
3713.0836874105871175
 20
160.082823497202213
 30
0.0
 11
3713.0836874104870731
 21
160.9345560710466998
 31
0.0
  0
LINE
  5
13A99
  8
0
 10
3707.6506165443870486
 20
160.082823497202213
 30
0.0
 11
3707.6506165443870486
 21
157.0644773309022071
 31
0.0
  0
LINE
  5
13A9A
  8
0
 10
3707.6506165443870486
 20
157.0644773309022071
 30
0.0
 11
3708.8387184229868581
 21
157.0644773309022071
 31
0.0
  0
LINE
  5
13A9B
  8
0
 10
3708.8387184229868581
 20
157.0644773309022071
 30
0.0
 11
3708.8257228105871945
 21
155.5880993782022017
 31
0.0
  0
LINE
  5
13A9C
  8
0
 10
3713.0836874105871175
 20
160.0018861870022135
 30
0.0
 11
3713.0836874105871175
 21
158.9143904554022129
 31
0.0
  0
LINE
  5
13A9D
  8
0
 10
3713.0836874105871175
 20
158.9143904554022129
 30
0.0
 11
3708.9211795697870002
 21
158.9139274815022134
 31
0.0
  0
LINE
  5
13A9E
  8
0
 10
3708.9211795697870002
 20
158.9139274815022134
 30
0.0
 11
3708.9372152961868778
 21
160.0063939325700915
 31
0.0
  0
LINE
  5
13A9F
  8
0
 10
3708.9372152961868778
 20
160.0063939325700915
 30
0.0
 11
3713.0822531781868747
 21
160.0004519547022142
 31
0.0
  0
LINE
  5
13AA0
  8
0
 10
3707.6506165443870486
 20
158.8356502979021911
 30
0.0
 11
3709.1433704047872197
 21
158.8332453472021939
 31
0.0
  0
LINE
  5
13AA1
  8
0
 10
3709.1431335494871746
 20
158.8061044223022122
 30
0.0
 11
3709.1434031346871052
 21
158.8369958210022048
 31
0.0
  0
LINE
  5
13AA2
  8
0
 10
3709.1434031346871052
 20
158.8369958210022048
 30
0.0
 11
3713.0836874105871175
 21
158.8369958210022048
 31
0.0
  0
LINE
  5
13AA3
  8
0
 10
3713.0836874105871175
 20
158.8369958210022048
 30
0.0
 11
3713.0836874105871175
 21
157.7483259880021933
 31
0.0
  0
LINE
  5
13AA4
  8
0
 10
3713.0836874105871175
 20
157.7483259880021933
 30
0.0
 11
3709.2540144874869839
 21
157.7495887986021899
 31
0.0
  0
LINE
  5
13AA5
  8
0
 10
3709.2540144874869839
 20
157.7495887986021899
 30
0.0
 11
3709.2634437802871616
 21
157.6708486411021966
 31
0.0
  0
LINE
  5
13AA6
  8
0
 10
3709.2634437802871616
 20
157.6708486411021966
 30
0.0
 11
3713.0824305745359197
 21
157.6711394883012929
 31
0.0
  0
LINE
  5
13AA7
  8
0
 10
3713.0824305745359197
 20
157.6711394883012929
 30
0.0
 11
3713.0825133091871066
 21
156.5847871418021953
 31
0.0
  0
LINE
  5
13AA8
  8
0
 10
3713.0825133091871066
 20
156.5847871418021953
 30
0.0
 11
3709.2849036127868203
 21
156.5847871418021953
 31
0.0
  0
LINE
  5
13AA9
  8
0
 10
3709.2849036127868203
 20
156.5847871418021953
 30
0.0
 11
3709.2948875698871234
 21
156.506046984302202
 31
0.0
  0
LINE
  5
13AAA
  8
0
 10
3709.2948875698871234
 20
156.506046984302202
 30
0.0
 11
3713.0836874105871175
 21
156.506046984302202
 31
0.0
  0
LINE
  5
13AAB
  8
0
 10
3713.0836874105871175
 20
156.506046984302202
 30
0.0
 11
3713.0836874105871175
 21
155.5880993782022017
 31
0.0
  0
LINE
  5
13AAC
  8
0
 10
3713.0836874105871175
 20
155.5880993782022017
 30
0.0
 11
3708.5849078829878636
 21
155.5880993782022017
 31
0.0
  0
LINE
  5
13AAD
  8
0
 10
3708.8367484387867989
 20
155.5880993782022017
 30
0.0
 11
3708.8643727921871687
 21
158.7535367474021939
 31
0.0
  0
ARC
  5
13AAE
  8
0
 10
3708.8908685097458147
 20
158.7448739425059046
 30
0.0
 40
0.0278759257717677
 50
107.845055604996702
 51
161.8947846596790043
  0
ARC
  5
13AAF
  8
0
 10
3709.052899655832789
 20
158.3126587603624102
 30
0.0
 40
0.4894352504010085
 50
93.3103589570748539
 51
110.3962664815797012
  0
ARC
  5
13AB0
  8
0
 10
3709.1164428966658306
 20
158.0044666750675049
 30
0.0
 40
0.8020819588667638
 50
88.0930326155459937
 51
96.5724182177042962
  0
LINE
  5
13AB1
  8
0
 10
3707.6506165443870486
 20
158.2570527736021972
 30
0.0
 11
3708.8356447369869784
 21
158.2570527735994972
 31
0.0
  0
LINE
  5
13AB2
  8
0
 10
3708.8356447369869784
 20
158.2570527735994972
 30
0.0
 11
3708.8647119518868749
 21
158.75560930580221
 31
0.0
  0
LINE
  5
13AB3
  8
0
 10
3708.8356447369869784
 20
158.2570527735990993
 30
0.0
 11
3708.8324126249867732
 21
157.9538119621022076
 31
0.0
  0
LINE
  5
13AB4
  8
0
 10
3708.8318928004869122
 20
157.8947568440021882
 30
0.0
 11
3708.8282540290870202
 21
157.481371017202207
 31
0.0
  0
LINE
  5
13AB5
  8
0
 10
3708.8277342045871592
 20
157.4223158991021876
 30
0.0
 11
3708.825277443917912
 21
157.1432174884022004
 31
0.0
  0
LINE
  5
13AB6
  8
0
 10
3707.6506165443870486
 20
157.1432174884022004
 30
0.0
 11
3708.8279899939229836
 21
157.1432088130729881
 31
0.0
  0
LINE
  5
13AB7
  8
0
 10
3708.8279899939229836
 20
157.1432088130729881
 30
0.0
 11
3708.8279894143870479
 21
157.0645569995047879
 31
0.0
  0
LINE
  5
13AB8
  8
0
 10
3708.7140380572868708
 20
157.481371017202207
 30
0.0
 11
3708.7140380572868708
 21
157.4223158991021876
 31
0.0
  0
LINE
  5
13AB9
  8
0
 10
3708.7140380572868708
 20
157.4223158991021876
 30
0.0
 11
3708.8317010532869062
 21
157.4223158991021876
 31
0.0
  0
LINE
  5
13ABA
  8
0
 10
3708.8317010532869062
 20
157.4223158991021876
 30
0.0
 11
3708.8322390143871417
 21
157.481371017202207
 31
0.0
  0
LINE
  5
13ABB
  8
0
 10
3708.8322390143871417
 20
157.481371017202207
 30
0.0
 11
3708.7140380572868708
 21
157.481371017202207
 31
0.0
  0
LINE
  5
13ABC
  8
0
 10
3708.7140380572868708
 20
157.9538119621022076
 30
0.0
 11
3708.83654270338684
 21
157.9538119621022076
 31
0.0
  0
LINE
  5
13ABD
  8
0
 10
3708.83654270338684
 20
157.9538119621022076
 30
0.0
 11
3708.8360047422870593
 21
157.8947568440021882
 31
0.0
  0
LINE
  5
13ABE
  8
0
 10
3708.8360047422870593
 20
157.8947568440021882
 30
0.0
 11
3708.7140380572868708
 21
157.8947568440021882
 31
0.0
  0
LINE
  5
13ABF
  8
0
 10
3708.7140380572868708
 20
157.8947568440021882
 30
0.0
 11
3708.7140380572868708
 21
157.9538119621022076
 31
0.0
  0
CIRCLE
  5
13AC0
  8
0
 10
3708.2411677254867755
 20
157.6880639306021976
 30
0.0
 40
0.2362204723999999
  0
CIRCLE
  5
13AC1
  8
0
 10
3708.2411677254867755
 20
159.4592368975021941
 30
0.0
 40
0.2362204723999999
  0
LINE
  5
13AC2
  8
0
 10
3708.8838403324862156
 20
162.1905914772021902
 30
0.0
 11
3708.8652880251870556
 21
160.0829403171022136
 31
0.0
  0
LINE
  5
13AC3
  8
0
 10
3708.8258133947870192
 20
161.8085718191022124
 30
0.0
 11
3708.8258133947870192
 21
160.2337686695022114
 31
0.0
  0
LINE
  5
13AC4
  8
0
 10
3708.8258133947870192
 20
160.2337686695022114
 30
0.0
 11
3708.4005478315089022
 21
160.2374799059205941
 31
0.0
  0
LINE
  5
13AC5
  8
0
 10
3708.4005478315089022
 20
161.8048605827837889
 30
0.0
 11
3708.8258133947870192
 21
161.8085718191022124
 31
0.0
  0
LINE
  5
13AC6
  8
0
 10
3708.8258133947870192
 20
161.6904615829022021
 30
0.0
 11
3708.8794380083841133
 21
161.6904615829022021
 31
0.0
  0
LINE
  5
13AC7
  8
0
 10
3708.8258133947870192
 20
160.3518789057021934
 30
0.0
 11
3708.8676553198488364
 21
160.3518789057021934
 31
0.0
  0
LINE
  5
13AC8
  8
0
 10
3708.3927425286869948
 20
161.7969841421021897
 30
0.0
 11
3708.3927425286869948
 21
160.2453536218021952
 31
0.0
  0
LINE
  5
13AC9
  8
0
 10
3708.8258133947870192
 20
160.3449640705021864
 30
0.0
 11
3708.7077106365559303
 21
160.3459038410983055
 31
0.0
  0
LINE
  5
13ACA
  8
0
 10
3708.7077106365559303
 20
160.3459038410983055
 30
0.0
 11
3708.7077106365559303
 21
161.6954968174061094
 31
0.0
  0
LINE
  5
13ACB
  8
0
 10
3708.7077106365559303
 20
161.6954968174061094
 30
0.0
 11
3708.8258133947870192
 21
161.6973764181022091
 31
0.0
  0
LINE
  5
13ACC
  8
0
 10
3708.3927425286869948
 20
161.5822935561022007
 30
0.0
 11
3708.7077031585868099
 21
161.5838503992021913
 31
0.0
  0
LINE
  5
13ACD
  8
0
 10
3708.3927425286869948
 20
161.3027994100021942
 30
0.0
 11
3708.7077031585868099
 21
161.3027994100021942
 31
0.0
  0
LINE
  5
13ACE
  8
0
 10
3708.3927425286869948
 20
160.7395410781022065
 30
0.0
 11
3708.7077031585868099
 21
160.7379842350021875
 31
0.0
  0
LINE
  5
13ACF
  8
0
 10
3708.3927425286869948
 20
160.460046934402186
 30
0.0
 11
3708.7077031585868099
 21
160.460046934402186
 31
0.0
  0
ARC
  5
13AD0
  8
0
 10
3708.4006165447290186
 20
161.7969868660921975
 30
0.0
 40
0.0078740165128948
 50
90.5000025985920757
 51
180.019821286479214
  0
ARC
  5
13AD1
  8
0
 10
3708.4006165444188809
 20
160.2453536218154113
 30
0.0
 40
0.0078740157320709
 50
180.000000096115599
 51
269.4999996050761979
  0
LINE
  5
13AD2
  8
0
 10
3707.5264039459871128
 20
161.3869189022022113
 30
0.0
 11
3707.5264039459871128
 21
160.6077880998022067
 31
0.0
  0
LINE
  5
13AD3
  8
0
 10
3707.5264039459871128
 20
160.6077880998022067
 30
0.0
 11
3707.537914170186923
 21
160.6077847607022022
 31
0.0
  0
LINE
  5
13AD4
  8
0
 10
3707.5264039459871128
 20
160.6865245750022098
 30
0.0
 11
3707.487033867187165
 21
160.6865245750022098
 31
0.0
  0
LINE
  5
13AD5
  8
0
 10
3707.487033867187165
 20
160.6865245750022098
 30
0.0
 11
3707.4476637884868069
 21
160.725894653802186
 31
0.0
  0
LINE
  5
13AD6
  8
0
 10
3707.4476637884868069
 20
160.725894653802186
 30
0.0
 11
3707.4476637884868069
 21
161.3164419538022116
 31
0.0
  0
LINE
  5
13AD7
  8
0
 10
3707.4476637884868069
 20
161.3164419538022116
 30
0.0
 11
3707.487033867187165
 21
161.3558159136022141
 31
0.0
  0
LINE
  5
13AD8
  8
0
 10
3707.487033867187165
 20
161.3558159136022141
 30
0.0
 11
3707.5264039459871128
 21
161.3558159136022141
 31
0.0
  0
LINE
  5
13AD9
  8
0
 10
3707.487033867187165
 20
161.3558159136022141
 30
0.0
 11
3707.487033867187165
 21
160.6865245750022098
 31
0.0
  0
LINE
  5
13ADA
  8
0
 10
3707.5264039459871128
 20
161.3869189022022113
 30
0.0
 11
3707.532018562524172
 21
161.3772127518753052
 31
0.0
  0
LINE
  5
13ADB
  8
0
 10
3707.532018562524172
 20
161.3772127518753052
 30
0.0
 11
3707.565512502987076
 21
161.4345556924021992
 31
0.0
  0
LINE
  5
13ADC
  8
0
 10
3707.565512502987076
 20
161.4345556924021992
 30
0.0
 11
3707.5772842710648547
 21
161.4345556939028938
 31
0.0
  0
LINE
  5
13ADD
  8
0
 10
3707.5772842710648547
 20
161.4345556939028938
 30
0.0
 11
3707.6107398190861204
 21
161.3772381641784079
 31
0.0
  0
LINE
  5
13ADE
  8
0
 10
3707.6107398190861204
 20
161.3772381641784079
 30
0.0
 11
3707.6444370687599985
 21
161.4344900534107126
 31
0.0
  0
LINE
  5
13ADF
  8
0
 10
3707.6444370687599985
 20
161.4344900534107126
 30
0.0
 11
3707.6560244119868912
 21
161.43455573250219
 31
0.0
  0
LINE
  5
13AE0
  8
0
 10
3707.6560244119868912
 20
161.43455573250219
 30
0.0
 11
3707.6902635436867968
 21
161.3759214410021912
 31
0.0
  0
LINE
  5
13AE1
  8
0
 10
3707.6902635436867968
 20
161.3759214410021912
 30
0.0
 11
3707.7229805512870371
 21
161.4345560711022074
 31
0.0
  0
LINE
  5
13AE2
  8
0
 10
3707.7229805512870371
 20
161.4345560711022074
 30
0.0
 11
3707.7347514013868022
 21
161.4345560711022074
 31
0.0
  0
LINE
  5
13AE3
  8
0
 10
3707.7347514013868022
 20
161.4345560711022074
 30
0.0
 11
3707.7682340956421285
 21
161.3772375895221955
 31
0.0
  0
LINE
  5
13AE4
  8
0
 10
3707.7682340956421285
 20
161.3772375895221955
 30
0.0
 11
3707.8016937362867793
 21
161.4345557152022081
 31
0.0
  0
LINE
  5
13AE5
  8
0
 10
3707.8016937362867793
 20
161.4345557152022081
 30
0.0
 11
3707.8134939480869434
 21
161.4345560711022074
 31
0.0
  0
LINE
  5
13AE6
  8
0
 10
3707.8134939480869434
 20
161.4345560711022074
 30
0.0
 11
3707.8469637483872248
 21
161.3772396570022067
 31
0.0
  0
LINE
  5
13AE7
  8
0
 10
3707.8469637483872248
 20
161.3772396570022067
 30
0.0
 11
3707.8804448924870485
 21
161.4345560711022074
 31
0.0
  0
LINE
  5
13AE8
  8
0
 10
3707.8804448924870485
 20
161.4345560711022074
 30
0.0
 11
3707.8922417936869351
 21
161.4345560711022074
 31
0.0
  0
LINE
  5
13AE9
  8
0
 10
3707.8922417936869351
 20
161.4345560711022074
 30
0.0
 11
3707.925713892686872
 21
161.3772463411021931
 31
0.0
  0
LINE
  5
13AEA
  8
0
 10
3707.925713892686872
 20
161.3772463411021931
 30
0.0
 11
3707.9591769872868099
 21
161.4345560711022074
 31
0.0
  0
LINE
  5
13AEB
  8
0
 10
3707.9591769872868099
 20
161.4345560711022074
 30
0.0
 11
3707.9709850735871441
 21
161.4345558913022103
 31
0.0
  0
LINE
  5
13AEC
  8
0
 10
3707.9709850735871441
 20
161.4345558913022103
 30
0.0
 11
3708.0044491682920125
 21
161.3772336171070947
 31
0.0
  0
LINE
  5
13AED
  8
0
 10
3708.0044491682920125
 20
161.3772336171070947
 30
0.0
 11
3708.0379310504868045
 21
161.4345560711022074
 31
0.0
  0
LINE
  5
13AEE
  8
0
 10
3708.0379306987219934
 20
161.4345554688646018
 30
0.0
 11
3708.0497252010868579
 21
161.4345557070022039
 31
0.0
  0
LINE
  5
13AEF
  8
0
 10
3708.0497252010868579
 20
161.4345557070022039
 30
0.0
 11
3708.0831913435367824
 21
161.3772336998665935
 31
0.0
  0
LINE
  5
13AF0
  8
0
 10
3708.0831913435367824
 20
161.3772336998665935
 30
0.0
 11
3708.1159941386868013
 21
161.4339824666022025
 31
0.0
  0
LINE
  5
13AF1
  8
0
 10
3708.1159941386868013
 20
161.4339824666022025
 30
0.0
 11
3708.1291055978867917
 21
161.4339983816022084
 31
0.0
  0
LINE
  5
13AF2
  8
0
 10
3708.1291055978867917
 20
161.4339983816022084
 30
0.0
 11
3708.1619249443260742
 21
161.3772456529497106
 31
0.0
  0
LINE
  5
13AF3
  8
0
 10
3708.1619249443260742
 20
161.3772456529497106
 30
0.0
 11
3708.194737085153065
 21
161.4339872968130862
 31
0.0
  0
LINE
  5
13AF4
  8
0
 10
3708.194737085153065
 20
161.4339872968130862
 30
0.0
 11
3708.2078656042867806
 21
161.4339775617021928
 31
0.0
  0
LINE
  5
13AF5
  8
0
 10
3708.2078656042867806
 20
161.4339775617021928
 30
0.0
 11
3708.240675983095116
 21
161.3772411925046129
 31
0.0
  0
LINE
  5
13AF6
  8
0
 10
3708.240675983095116
 20
161.3772411925046129
 30
0.0
 11
3708.2734964134861002
 21
161.4339945791022046
 31
0.0
  0
LINE
  5
13AF7
  8
0
 10
3708.2734964134861002
 20
161.4339945791022046
 30
0.0
 11
3708.2865850002867774
 21
161.4339887133021989
 31
0.0
  0
LINE
  5
13AF8
  8
0
 10
3708.2865850002867774
 20
161.4339887133021989
 30
0.0
 11
3708.3194059983698025
 21
161.3772360341453123
 31
0.0
  0
LINE
  5
13AF9
  8
0
 10
3708.3194059983698025
 20
161.3772360341453123
 30
0.0
 11
3708.3530979529309661
 21
161.4344903856901112
 31
0.0
  0
LINE
  5
13AFA
  8
0
 10
3708.3530979529309661
 20
161.4344903856901112
 30
0.0
 11
3708.3647048194479794
 21
161.4344903856901112
 31
0.0
  0
LINE
  5
13AFB
  8
0
 10
3708.3647048194479794
 20
161.4344903856901112
 30
0.0
 11
3708.3927425286869948
 21
161.3865789258022119
 31
0.0
  0
LINE
  5
13AFC
  8
0
 10
3707.571371361284946
 20
160.6651273588794027
 30
0.0
 11
3707.60486530174785
 21
160.6077844183525087
 31
0.0
  0
LINE
  5
13AFD
  8
0
 10
3707.60486530174785
 20
160.6077844183525087
 30
0.0
 11
3707.6166370698260835
 21
160.6077844168518141
 31
0.0
  0
LINE
  5
13AFE
  8
0
 10
3707.6166370698260835
 20
160.6077844168518141
 30
0.0
 11
3707.6500926178468944
 21
160.6651019465763
 31
0.0
  0
LINE
  5
13AFF
  8
0
 10
3707.6500926178468944
 20
160.6651019465763
 30
0.0
 11
3707.6837898675221368
 21
160.6078500573439953
 31
0.0
  0
LINE
  5
13B00
  8
0
 10
3707.6837898675221368
 20
160.6078500573439953
 30
0.0
 11
3707.69537721074812
 21
160.6077843782526031
 31
0.0
  0
LINE
  5
13B01
  8
0
 10
3707.69537721074812
 20
160.6077843782526031
 30
0.0
 11
3707.7296163424480255
 21
160.6664186697524883
 31
0.0
  0
LINE
  5
13B02
  8
0
 10
3707.7296163424480255
 20
160.6664186697524883
 30
0.0
 11
3707.7623333500478111
 21
160.6077840396525005
 31
0.0
  0
LINE
  5
13B03
  8
0
 10
3707.7623333500478111
 20
160.6077840396525005
 30
0.0
 11
3707.7741042001480309
 21
160.6077840396525005
 31
0.0
  0
LINE
  5
13B04
  8
0
 10
3707.7741042001480309
 20
160.6077840396525005
 30
0.0
 11
3707.807586894403812
 21
160.6651025212325123
 31
0.0
  0
LINE
  5
13B05
  8
0
 10
3707.807586894403812
 20
160.6651025212325123
 30
0.0
 11
3707.8410465350480081
 21
160.6077843955524997
 31
0.0
  0
LINE
  5
13B06
  8
0
 10
3707.8410465350480081
 20
160.6077843955524997
 30
0.0
 11
3707.8528467468481722
 21
160.6077840396525005
 31
0.0
  0
LINE
  5
13B07
  8
0
 10
3707.8528467468481722
 20
160.6077840396525005
 30
0.0
 11
3707.8863165471479988
 21
160.6651004537525012
 31
0.0
  0
LINE
  5
13B08
  8
0
 10
3707.8863165471479988
 20
160.6651004537525012
 30
0.0
 11
3707.9197976912491868
 21
160.6077840396525005
 31
0.0
  0
LINE
  5
13B09
  8
0
 10
3707.9197976912491868
 20
160.6077840396525005
 30
0.0
 11
3707.9315945924481639
 21
160.6077840396525005
 31
0.0
  0
LINE
  5
13B0A
  8
0
 10
3707.9315945924481639
 20
160.6077840396525005
 30
0.0
 11
3707.9650666914481008
 21
160.6650937696524863
 31
0.0
  0
LINE
  5
13B0B
  8
0
 10
3707.9650666914481008
 20
160.6650937696524863
 30
0.0
 11
3707.9985297860480387
 21
160.6077840396525005
 31
0.0
  0
LINE
  5
13B0C
  8
0
 10
3707.9985297860480387
 20
160.6077840396525005
 30
0.0
 11
3708.0103378723479182
 21
160.6077842194524976
 31
0.0
  0
LINE
  5
13B0D
  8
0
 10
3708.0103378723479182
 20
160.6077842194524976
 30
0.0
 11
3708.0438019670527865
 21
160.6651064936476132
 31
0.0
  0
LINE
  5
13B0E
  8
0
 10
3708.0438019670527865
 20
160.6651064936476132
 30
0.0
 11
3708.0772838492480332
 21
160.6077840396525005
 31
0.0
  0
LINE
  5
13B0F
  8
0
 10
3708.0772834974832222
 20
160.6077846418901913
 30
0.0
 11
3708.0890779998480866
 21
160.607784403752504
 31
0.0
  0
LINE
  5
13B10
  8
0
 10
3708.0890779998480866
 20
160.607784403752504
 30
0.0
 11
3708.1225441422980111
 21
160.665106410888086
 31
0.0
  0
LINE
  5
13B11
  8
0
 10
3708.1225441422980111
 20
160.665106410888086
 30
0.0
 11
3708.1553469374480301
 21
160.6083576441525054
 31
0.0
  0
LINE
  5
13B12
  8
0
 10
3708.1553469374480301
 20
160.6083576441525054
 30
0.0
 11
3708.1684583966480204
 21
160.6083417291524995
 31
0.0
  0
LINE
  5
13B13
  8
0
 10
3708.1684583966480204
 20
160.6083417291524995
 30
0.0
 11
3708.2012777430868482
 21
160.6650944578049973
 31
0.0
  0
LINE
  5
13B14
  8
0
 10
3708.2012777430868482
 20
160.6650944578049973
 30
0.0
 11
3708.2340898839152032
 21
160.6083528139415932
 31
0.0
  0
LINE
  5
13B15
  8
0
 10
3708.2340898839152032
 20
160.6083528139415932
 30
0.0
 11
3708.2472184030480093
 21
160.6083625490524867
 31
0.0
  0
LINE
  5
13B16
  8
0
 10
3708.2472184030480093
 20
160.6083625490524867
 30
0.0
 11
3708.28002878185589
 21
160.6650989182502087
 31
0.0
  0
LINE
  5
13B17
  8
0
 10
3708.28002878185589
 20
160.6650989182502087
 30
0.0
 11
3708.3128492122477837
 21
160.6083455316525033
 31
0.0
  0
LINE
  5
13B18
  8
0
 10
3708.3128492122477837
 20
160.6083455316525033
 30
0.0
 11
3708.3259377990480061
 21
160.608351397452509
 31
0.0
  0
LINE
  5
13B19
  8
0
 10
3708.3259377990480061
 20
160.608351397452509
 30
0.0
 11
3708.3587587971310313
 21
160.6651040766093956
 31
0.0
  0
LINE
  5
13B1A
  8
0
 10
3708.3587587971310313
 20
160.6651040766093956
 30
0.0
 11
3708.3927425286869948
 21
160.6078497250645967
 31
0.0
  0
LINE
  5
13B1B
  8
0
 10
3707.5713759599179866
 20
160.6651095708915875
 30
0.0
 11
3707.5379141703870118
 21
160.607784417602204
 31
0.0
  0
LINE
  5
13B1C
  8
0
 10
3707.571376055986093
 20
160.6651097370022114
 30
0.0
 11
3707.5517212673921676
 21
161.0211658306083962
 31
0.0
  0
LINE
  5
13B1D
  8
0
 10
3707.5517212673921676
 20
161.0211658306083962
 30
0.0
 11
3707.5320185466857765
 21
161.3772127245021863
 31
0.0
  0
ARC
  5
13B1E
  8
0
 10
-7182.6008752897796512
 20
-441.1618976652624724
 30
0.0
 40
10906.8676728040500166
 50
3.1631143764826
 51
3.1668609883668051
  0
ARC
  5
13B1F
  8
0
 10
3738.128357356908964
 20
162.7089251389386106
 30
0.0
 40
30.4672822539351387
 50
182.5076440757505907
 51
183.8439541683671052
  0
ARC
  5
13B20
  8
0
 10
-2115.1372892225790565
 20
-160.7892862421373934
 30
0.0
 40
5831.8110395803551
 50
3.1597935147026002
 51
3.1668007766478401
  0
ARC
  5
13B21
  8
0
 10
234.2001214686274864
 20
-30.9335753773904116
 30
0.0
 40
3478.966201971404189
 50
3.1570736440228448
 51
3.1688198984228562
  0
ARC
  5
13B22
  8
0
 10
-3515.9065795607848486
 20
-238.1612583256087987
 30
0.0
 40
7234.8727715594677647
 50
3.1600633093093231
 51
3.1657117274737359
  0
ARC
  5
13B23
  8
0
 10
3845.7041753125390642
 20
168.6318932559520078
 30
0.0
 40
137.8906982601660047
 50
183.0158189145060987
 51
183.3121809511821994
  0
ARC
  5
13B24
  8
0
 10
-1743.6410385568260608
 20
-140.3336217700731936
 30
0.0
 40
5460.0665305525662916
 50
3.1601636404323088
 51
3.1676478543722641
  0
ARC
  5
13B25
  8
0
 10
-618.4296475055416522
 20
-78.0638841955974669
 30
0.0
 40
4333.2120521117712997
 50
3.158186491556787
 51
3.167617255290414
  0
ARC
  5
13B26
  8
0
 10
-1867.4228458572310956
 20
-147.0896482291695975
 30
0.0
 40
5584.189782828870193
 50
3.1592741684266339
 51
3.1665921499583489
  0
ARC
  5
13B27
  8
0
 10
6126.5438385626357558
 20
294.6528315833230067
 30
0.0
 40
2421.8942568004317764
 50
183.1545507807277033
 51
183.1714236885379137
  0
LINE
  5
13B28
  8
0
 10
3707.6107511857871941
 20
160.607784417602204
 30
0.0
 11
3707.5713983870259653
 21
161.4345556931525039
 31
0.0
  0
LINE
  5
13B29
  8
0
 10
3707.6502307403738996
 20
161.4345228929564939
 30
0.0
 11
3707.6895835391342189
 21
160.6078172177982992
 31
0.0
  0
LINE
  5
13B2A
  8
0
 10
3707.7682222987868954
 20
160.607784417602204
 30
0.0
 11
3707.728865976337147
 21
161.4345560711022074
 31
0.0
  0
LINE
  5
13B2B
  8
0
 10
3707.8075938421870887
 20
161.4345558931522078
 30
0.0
 11
3707.8469771138870783
 21
160.607784417602204
 31
0.0
  0
LINE
  5
13B2C
  8
0
 10
3707.9257037357870104
 20
160.607784417602204
 30
0.0
 11
3707.8863433430869918
 21
161.4345560711022074
 31
0.0
  0
LINE
  5
13B2D
  8
0
 10
3707.965081030436977
 20
161.4345559812022088
 30
0.0
 11
3708.0044510374868878
 21
160.607784417602204
 31
0.0
  0
LINE
  5
13B2E
  8
0
 10
3708.0831876930369617
 20
160.607784417602204
 30
0.0
 11
3708.0456930195377936
 21
161.4345556255902068
 31
0.0
  0
LINE
  5
13B2F
  8
0
 10
3708.1225498682870239
 20
161.4339904241022055
 30
0.0
 11
3708.1619026670477979
 21
160.6083496866525024
 31
0.0
  0
LINE
  5
13B30
  8
0
 10
3708.240654143482061
 20
160.6083576814970968
 30
0.0
 11
3708.2013013447208323
 21
161.4339824292576964
 31
0.0
  0
LINE
  5
13B31
  8
0
 10
3708.2800407068871209
 20
161.4339916462022018
 30
0.0
 11
3708.3193935056478949
 21
160.6083484645525061
 31
0.0
  0
LINE
  5
13B32
  8
0
 10
3708.3589013861901549
 20
161.4344903856901112
 30
0.0
 11
3708.3927425286869948
 21
160.6078497250645967
 31
0.0
  0
ARC
  5
13B33
  8
0
 10
3709.7892703326419905
 20
162.1826338227498923
 30
0.0
 40
0.9054649686465291
 50
89.9992240293432957
 51
179.4964511050233966
  0
LINE
  5
13B34
  8
0
 10
3708.5863357836869909
 20
154.3085718191022124
 30
0.0
 11
3708.5823846427870194
 21
154.7613277246022108
 31
0.0
  0
LINE
  5
13B35
  8
0
 10
3708.5823846427870194
 20
154.7613277246022108
 30
0.0
 11
3726.7975886034869291
 21
154.7613277246022108
 31
0.0
  0
ARC
  5
13B36
  8
0
 10
3719.6295908714027973
 20
141.2377035702228909
 30
0.0
 40
0.354328524205653
 50
89.9994396430668644
 51
151.7259870281027929
  0
ARC
  5
13B37
  8
0
 10
3720.1571935540509912
 20
142.10384364664651
 30
0.0
 40
0.5118072153569172
 50
269.9999536346037985
 51
295.384796356719221
  0
LINE
  5
13B38
  8
0
 10
3720.1571931398812012
 20
141.592036431289813
 30
0.0
 11
3719.2948276269680719
 21
141.5920293426190142
 31
0.0
  0
ARC
  5
13B39
  8
0
 10
3719.4245818835102
 20
143.1544018589370069
 30
0.0
 40
1.5677512707174981
 50
248.4402760300982038
 51
265.2525089764516224
  0
ARC
  5
13B3A
  8
0
 10
3719.8458361929579041
 20
145.0091322843653074
 30
0.0
 40
3.4596713304141899
 50
239.8565939805413052
 51
253.2449346898654028
  0
ARC
  5
13B3B
  8
0
 10
3718.1687396620809523
 20
142.1260274481057024
 30
0.0
 40
0.1242896096126413
 50
192.3796906208899884
 51
241.0126339631243866
  0
ARC
  5
13B3C
  8
0
 10
7606.4606557866572984
 20
299.2917633914490807
 30
0.0
 40
3891.5893359254691859
 50
182.3131813141164912
 51
182.314969599518605
  0
ARC
  5
13B3D
  8
0
 10
3902.6502942303950476
 20
149.7373258849164017
 30
0.0
 40
184.7608195396275903
 50
182.1523552734811915
 51
182.3315943895806015
  0
ARC
  5
13B3E
  8
0
 10
3654.4339065755129923
 20
140.3099913612203125
 30
0.0
 40
63.6345867836320522
 50
2.2410051650891321
 51
3.8875997724759359
  0
ARC
  5
13B3F
  8
0
 10
3872.4762062073727975
 20
150.7026978178390095
 30
0.0
 40
154.673615849373391
 50
181.8049015006976958
 51
182.2521739510117982
  0
ARC
  5
13B40
  8
0
 10
3713.7478667520440467
 20
145.6084980977144028
 30
0.0
 40
4.1374520780382431
 50
3.0834991530876401
 51
8.8217305203908154
  0
ARC
  5
13B41
  8
0
 10
3715.2376704151997728
 20
145.8424791565315104
 30
0.0
 40
2.629390304624752
 50
8.7621137821103154
 51
17.4691143365036297
  0
ARC
  5
13B42
  8
0
 10
3717.5246178654128926
 20
146.5896499346561939
 30
0.0
 40
0.2251531027329437
 50
10.7898313075545094
 51
42.7372298509796309
  0
LINE
  5
13B43
  8
0
 10
3726.0791652535158391
 20
144.3473785702522889
 30
0.0
 11
3720.3766029606390475
 21
141.6414518885108009
 31
0.0
  0
ARC
  5
13B44
  8
0
 10
3725.8729490122409516
 20
144.7947421793718945
 30
0.0
 40
0.4926046456648975
 50
294.7477599107393758
 51
0.8657414451594174
  0
ARC
  5
13B45
  8
0
 10
3321.5466025398040983
 20
154.9852589171414934
 30
0.0
 40
404.946950410656882
 50
358.5590491395312256
 51
358.817988695719805
  0
LINE
  5
13B46
  8
0
 10
3726.5413824210750136
 20
154.3085719411463117
 30
0.0
 11
3726.407384014676154
 21
146.6318003252638107
 31
0.0
  0
LINE
  5
13B47
  8
0
 10
3723.557772032210778
 20
153.8951860998722907
 30
0.0
 11
3723.2805379666460794
 21
153.8951860947946955
 31
0.0
  0
LINE
  5
13B48
  8
0
 10
3723.2805379666460794
 20
153.8951860947946955
 30
0.0
 11
3723.2805379727869877
 21
153.5599105041947041
 31
0.0
  0
LINE
  5
13B49
  8
0
 10
3723.2017978161079554
 20
153.5205404240525127
 30
0.0
 11
3723.2017978103099267
 21
153.8371023368524959
 31
0.0
  0
LINE
  5
13B4A
  8
0
 10
3722.4143962413081681
 20
153.5205404096309962
 30
0.0
 11
3722.4143962355101394
 21
153.837106023886605
 31
0.0
  0
LINE
  5
13B4B
  8
0
 10
3722.3356560769461794
 20
153.8951860774888871
 30
0.0
 11
3722.3356560830870876
 21
153.5599104868888958
 31
0.0
  0
ARC
  5
13B4C
  8
0
 10
3723.1246848336581934
 20
153.8351263305227121
 30
0.0
 40
0.0771382899021876
 50
1.4678729454557671
 51
91.2087069812008338
  0
ARC
  5
13B4D
  8
0
 10
3722.4915093774930028
 20
153.8351260482913858
 30
0.0
 40
0.0771385569607657
 50
88.7914221535142474
 51
178.5291829385074891
  0
ARC
  5
13B4E
  8
0
 10
3723.2411678940870843
 20
153.5599105034735885
 30
0.0
 40
0.0393700786999978
 50
270.0000010493953937
 51
0.0000010493880387
  0
ARC
  5
13B4F
  8
0
 10
3722.375026161786991
 20
153.5599104876100114
 30
0.0
 40
0.0393700786999989
 50
180.0000010493928926
 51
270.0000010493953937
  0
LINE
  5
13B50
  8
0
 10
3723.12305765143401
 20
153.9122474563380933
 30
0.0
 11
3722.4931363915338807
 21
153.9122474447731861
 31
0.0
  0
LINE
  5
13B51
  8
0
 10
3723.2411678948078588
 20
153.5205404247735999
 30
0.0
 11
3722.3750261625068561
 21
153.5205404089099943
 31
0.0
  0
ARC
  5
13B52
  8
0
 10
3723.3395930924880304
 20
153.4818002689056016
 30
0.0
 40
0.1574803148292919
 50
270.0000014602583178
 51
0.0000011114944501
  0
ARC
  5
13B53
  8
0
 10
3722.276600966416936
 20
153.4818002496072893
 30
0.0
 40
0.1574803150000043
 50
180.0000016678978909
 51
270.0000010493953937
  0
LINE
  5
13B54
  8
0
 10
3722.3356560769461794
 20
153.8951860774888871
 30
0.0
 11
3722.0584218470457927
 21
153.8951860724112919
 31
0.0
  0
LINE
  5
13B55
  8
0
 10
3723.4970733997461139
 20
153.895186098760604
 30
0.0
 11
3723.4970734074167922
 21
153.4818002719987078
 31
0.0
  0
LINE
  5
13B56
  8
0
 10
3723.3395930827018674
 20
153.3243199540762873
 30
0.0
 11
3722.2766009693018532
 21
153.3243199346073027
 31
0.0
  0
LINE
  5
13B57
  8
0
 10
3722.1191206514167789
 20
153.4818002583230054
 30
0.0
 11
3722.119120643846145
 21
153.8951860735230071
 31
0.0
  0
LINE
  5
13B58
  8
0
 10
3723.2017978135891099
 20
153.6580476118525098
 30
0.0
 11
3722.4143962387888678
 21
153.6580475974309934
 31
0.0
  0
LINE
  5
13B59
  8
0
 10
3723.2017978132230382
 20
153.6780207389525117
 30
0.0
 11
3722.4143962384227962
 21
153.6780207245309953
 31
0.0
  0
LINE
  5
13B5A
  8
0
 10
3723.2017978123221837
 20
153.7272333374525033
 30
0.0
 11
3722.4143962375219417
 21
153.7272333230309869
 31
0.0
  0
LINE
  5
13B5B
  8
0
 10
3723.2017978110538934
 20
153.796430230252497
 30
0.0
 11
3722.4143962362550155
 21
153.796430215831009
 31
0.0
  0
LINE
  5
13B5C
  8
0
 10
3723.2017978107000999
 20
153.815816014552496
 30
0.0
 11
3722.4143962358998579
 21
153.8158160001310932
 31
0.0
  0
LINE
  5
13B5D
  8
0
 10
3723.1940563740399739
 20
153.8688591802990118
 30
0.0
 11
3722.4221376700011206
 21
153.868859165102208
 31
0.0
  0
LINE
  5
13B5E
  8
0
 10
3723.557772032210778
 20
153.8951860998722907
 30
0.0
 11
3723.7338585068400789
 21
144.0185457556972892
 31
0.0
  0
LINE
  5
13B5F
  8
0
 10
3722.0584218470457927
 20
153.8951860724112919
 30
0.0
 11
3721.8588223755109539
 21
142.3447806707505947
 31
0.0
  0
ARC
  5
13B60
  8
0
 10
3724.2572507065888203
 20
144.0298556112122128
 30
0.0
 40
0.5235143814558063
 50
181.2378979982385943
 51
276.1141763616311096
  0
LINE
  5
13B61
  8
0
 10
3726.5413824210750136
 20
154.3085719411463117
 30
0.0
 11
3726.7936376174748148
 21
154.308571985838114
 31
0.0
  0
LINE
  5
13B62
  8
0
 10
3726.7950655098820789
 20
154.7613278913642034
 30
0.0
 11
3726.7950654947399016
 21
155.5880995449641944
 31
0.0
  0
LINE
  5
13B63
  8
0
 10
3726.7950652687190995
 20
155.4828763278127894
 30
0.0
 11
3726.5588450242289582
 21
155.4849349244720997
 31
0.0
  0
LINE
  5
13B64
  8
0
 10
3726.5588450242289582
 20
155.4849349244720997
 30
0.0
 11
3725.524632425730033
 21
155.4849349055301957
 31
0.0
  0
LINE
  5
13B65
  8
0
 10
3725.524632425730033
 20
155.4849349055301957
 30
0.0
 11
3725.5246324385348089
 21
154.7857523267958868
 31
0.0
  0
LINE
  5
13B66
  8
0
 10
3725.5246324385348089
 20
154.7857523267958868
 30
0.0
 11
3726.795065509397773
 21
154.7878138149642098
 31
0.0
  0
LINE
  5
13B67
  8
0
 10
3726.7950654968940398
 20
155.4705046749641895
 30
0.0
 11
3726.5547748127942214
 21
155.4705046705632014
 31
0.0
  0
LINE
  5
13B68
  8
0
 10
3726.5547748127942214
 20
155.4705046705632014
 30
0.0
 11
3726.5605034987129329
 21
154.8196936409680973
 31
0.0
  0
LINE
  5
13B69
  8
0
 10
3726.7950655091708541
 20
154.8001826039642026
 30
0.0
 11
3726.5801870264258469
 21
154.8001825999828043
 31
0.0
  0
ARC
  5
13B6A
  8
0
 10
3726.5801867321820282
 20
154.8198665932820859
 30
0.0
 40
0.019683993301543
 50
180.5034328024214005
 51
270.0008564762640049
  0
LINE
  5
13B6B
  8
0
 10
3726.5547748127942214
 20
155.4705046705632014
 30
0.0
 11
3726.5441584025948032
 21
155.4849347620022115
 31
0.0
  0
LINE
  5
13B6C
  8
0
 10
3726.5441584025948032
 20
155.4849347620022115
 30
0.0
 11
3726.5501938654979313
 21
154.7874164701466952
 31
0.0
  0
LINE
  5
13B6D
  8
0
 10
3724.6584907067817767
 20
154.7613277246022108
 30
0.0
 11
3724.6584906935290746
 21
155.4849348896321999
 31
0.0
  0
LINE
  5
13B6E
  8
0
 10
3724.6584906935290746
 20
155.4849348896321999
 30
0.0
 11
3725.445892268328862
 21
155.4849349040536879
 31
0.0
  0
LINE
  5
13B6F
  8
0
 10
3725.445892268328862
 20
155.4849349040536879
 30
0.0
 11
3725.4458922815820188
 21
154.7613277246022108
 31
0.0
  0
LINE
  5
13B70
  8
0
 10
3723.7923489744830476
 20
154.7613277246022108
 30
0.0
 11
3723.7923489612289814
 21
155.4849348737685943
 31
0.0
  0
LINE
  5
13B71
  8
0
 10
3723.7923489612289814
 20
155.4849348737685943
 30
0.0
 11
3724.5797505360301329
 21
155.4849348881901108
 31
0.0
  0
LINE
  5
13B72
  8
0
 10
3724.5797505360301329
 20
155.4849348881901108
 30
0.0
 11
3724.579750549282835
 21
154.7613277246022108
 31
0.0
  0
LINE
  5
13B73
  8
0
 10
3722.9262072421820449
 20
154.7613277246022108
 30
0.0
 11
3722.9262072289297976
 21
155.4849348579049888
 31
0.0
  0
LINE
  5
13B74
  8
0
 10
3722.9262072289297976
 20
155.4849348579049888
 30
0.0
 11
3723.7136088037291302
 21
155.4849348723265052
 31
0.0
  0
LINE
  5
13B75
  8
0
 10
3723.7136088037291302
 20
155.4849348723265052
 30
0.0
 11
3723.7136088169831964
 21
154.7613277246022108
 31
0.0
  0
LINE
  5
13B76
  8
0
 10
3722.8474670846821937
 20
154.7613277246022108
 30
0.0
 11
3722.8474670714290369
 21
155.484934856462786
 31
0.0
  0
LINE
  5
13B77
  8
0
 10
3722.8474670714290369
 20
155.484934856462786
 30
0.0
 11
3722.2962859690292134
 21
155.4849348463677927
 31
0.0
  0
LINE
  5
13B78
  8
0
 10
3722.2962859690292134
 20
155.4849348463677927
 30
0.0
 11
3722.2962859822819155
 21
154.7613277246022108
 31
0.0
  0
LINE
  5
13B79
  8
0
 10
3727.7293567018878093
 20
160.0828236810760075
 30
0.0
 11
3722.2962858848181895
 21
160.0828235815677942
 31
0.0
  0
LINE
  5
13B7A
  8
0
 10
3727.7293567018878093
 20
160.0828236810760075
 30
0.0
 11
3727.7293567018878093
 21
157.0644775147760015
 31
0.0
  0
LINE
  5
13B7B
  8
0
 10
3727.7293567018878093
 20
157.0644775147760015
 30
0.0
 11
3726.5412549276989012
 21
157.0644774930156018
 31
0.0
  0
LINE
  5
13B7C
  8
0
 10
3726.5412549276989012
 20
157.0644774930156018
 30
0.0
 11
3726.5542505671401159
 21
155.5880995405535998
 31
0.0
  0
LINE
  5
13B7D
  8
0
 10
3722.2962858863002111
 20
160.0018862713677947
 30
0.0
 11
3722.2962859062181451
 21
158.9143905397677941
 31
0.0
  0
LINE
  5
13B7E
  8
0
 10
3722.2962859062181451
 20
158.9143905397677941
 30
0.0
 11
3726.4587937470259931
 21
158.9139276421053069
 31
0.0
  0
LINE
  5
13B7F
  8
0
 10
3726.4587937470259931
 20
158.9139276421053069
 30
0.0
 11
3726.4427580006167773
 21
160.0063940928795034
 31
0.0
  0
LINE
  5
13B80
  8
0
 10
3726.4427580006167773
 20
160.0063940928795034
 30
0.0
 11
3722.2977201187268292
 21
160.0004520390941138
 31
0.0
  0
LINE
  5
13B81
  8
0
 10
3727.7293567738602178
 20
158.835650481776014
 30
0.0
 11
3726.2366029135041572
 21
158.8332455037358102
 31
0.0
  0
LINE
  5
13B82
  8
0
 10
3726.2368397693007864
 20
158.8061045788402055
 30
0.0
 11
3726.2365701835351501
 21
158.8369959775351958
 31
0.0
  0
LINE
  5
13B83
  8
0
 10
3726.2365701835351501
 20
158.8369959775351958
 30
0.0
 11
3722.2962859076351378
 21
158.836995905367786
 31
0.0
  0
LINE
  5
13B84
  8
0
 10
3722.2962859076351378
 20
158.836995905367786
 30
0.0
 11
3722.2962859275748997
 21
157.7483260723678029
 31
0.0
  0
LINE
  5
13B85
  8
0
 10
3722.2962859275748997
 20
157.7483260723678029
 30
0.0
 11
3726.1259588506509317
 21
157.7495889531093098
 31
0.0
  0
LINE
  5
13B86
  8
0
 10
3726.1259588506509317
 20
157.7495889531093098
 30
0.0
 11
3726.116529559294122
 21
157.6708487954365978
 31
0.0
  0
LINE
  5
13B87
  8
0
 10
3726.116529559294122
 20
157.6708487954365978
 30
0.0
 11
3722.2975427650389975
 21
157.6711395726900093
 31
0.0
  0
LINE
  5
13B88
  8
0
 10
3722.2975427650389975
 20
157.6711395726900093
 30
0.0
 11
3722.2974600502848261
 21
156.5847872261892917
 31
0.0
  0
LINE
  5
13B89
  8
0
 10
3722.2974600502848261
 20
156.5847872261892917
 30
0.0
 11
3726.095069746686022
 21
156.5847872957436095
 31
0.0
  0
LINE
  5
13B8A
  8
0
 10
3726.095069746686022
 20
156.5847872957436095
 30
0.0
 11
3726.0850857910268132
 21
156.5060471380606941
 31
0.0
  0
LINE
  5
13B8B
  8
0
 10
3726.0850857910268132
 20
156.5060471380606941
 30
0.0
 11
3722.2962859503281834
 21
156.5060470686678116
 31
0.0
  0
LINE
  5
13B8C
  8
0
 10
3722.2962859503281834
 20
156.5060470686678116
 30
0.0
 11
3722.296285967140193
 21
155.5880994625678113
 31
0.0
  0
LINE
  5
13B8D
  8
0
 10
3722.296285967140193
 20
155.5880994625678113
 30
0.0
 11
3726.7950654947399016
 21
155.5880995449641944
 31
0.0
  0
LINE
  5
13B8E
  8
0
 10
3726.5432249389400567
 20
155.588099540351692
 30
0.0
 11
3726.5156005275648567
 21
158.7535369090456925
 31
0.0
  0
ARC
  5
13B8F
  8
0
 10
3726.4891048101640081
 20
158.7448741036641877
 30
0.0
 40
0.0278759257717677
 50
18.1052163897073584
 51
72.1549454443912595
  0
ARC
  5
13B90
  8
0
 10
3726.3270736719928209
 20
158.3126589185530122
 30
0.0
 40
0.4894352504010084
 50
69.6037345677931683
 51
86.6896420923258262
  0
ARC
  5
13B91
  8
0
 10
3726.2635304368041034
 20
158.0044668320942947
 30
0.0
 40
0.8020819588667638
 50
83.4275828316830541
 51
91.9069684338312953
  0
LINE
  5
13B92
  8
0
 10
3727.7293567018878093
 20
158.2570529574759917
 30
0.0
 11
3726.5443285918568108
 21
158.2570529357691953
 31
0.0
  0
LINE
  5
13B93
  8
0
 10
3726.5443285918568108
 20
158.2570529357691953
 30
0.0
 11
3726.5152613678260423
 21
158.7556094674395126
 31
0.0
  0
LINE
  5
13B94
  8
0
 10
3726.5443285918568108
 20
158.2570529357687974
 30
0.0
 11
3726.5475607094108454
 21
157.9538121243311082
 31
0.0
  0
LINE
  5
13B95
  8
0
 10
3726.5480805349930051
 20
157.8947570062406101
 30
0.0
 11
3726.5517193139648953
 21
157.4813711795073061
 31
0.0
  0
LINE
  5
13B96
  8
0
 10
3726.5522391395447812
 20
157.422316061416808
 30
0.0
 11
3726.5546959053258433
 21
157.1432176507618124
 31
0.0
  0
LINE
  5
13B97
  8
0
 10
3727.7293567018878093
 20
157.1432176722753127
 30
0.0
 11
3726.5519833553212266
 21
157.1432089753828905
 31
0.0
  0
LINE
  5
13B98
  8
0
 10
3726.5519833553212266
 20
157.1432089753828905
 30
0.0
 11
3726.5519839362978018
 21
157.0645571618146903
 31
0.0
  0
LINE
  5
13B99
  8
0
 10
3726.6659352857641352
 20
157.4813711815990871
 30
0.0
 11
3726.6659352868459791
 21
157.4223160634992098
 31
0.0
  0
LINE
  5
13B9A
  8
0
 10
3726.6659352868459791
 20
157.4223160634992098
 30
0.0
 11
3726.5482722908459436
 21
157.4223160613441053
 31
0.0
  0
LINE
  5
13B9B
  8
0
 10
3726.5482722908459436
 20
157.4223160613441053
 30
0.0
 11
3726.5477343286638643
 21
157.4813711794342908
 31
0.0
  0
LINE
  5
13B9C
  8
0
 10
3726.5477343286638643
 20
157.4813711794342908
 30
0.0
 11
3726.6659352857641352
 21
157.4813711815990871
 31
0.0
  0
LINE
  5
13B9D
  8
0
 10
3726.6659352771112026
 20
157.9538121264990878
 30
0.0
 11
3726.5434306310107786
 21
157.9538121242553927
 31
0.0
  0
LINE
  5
13B9E
  8
0
 10
3726.5434306310107786
 20
157.9538121242553927
 30
0.0
 11
3726.543968593192858
 21
157.8947570061652925
 31
0.0
  0
LINE
  5
13B9F
  8
0
 10
3726.543968593192858
 20
157.8947570061652925
 30
0.0
 11
3726.6659352781930465
 21
157.8947570083992105
 31
0.0
  0
LINE
  5
13BA0
  8
0
 10
3726.6659352781930465
 20
157.8947570083992105
 30
0.0
 11
3726.6659352771112026
 21
157.9538121264990878
 31
0.0
  0
CIRCLE
  5
13BA1
  8
0
 10
3727.138805613778004
 20
157.6880641036599116
 30
0.0
 40
0.2362204723999998
  0
CIRCLE
  5
13BA2
  8
0
 10
3727.1388055813390565
 20
159.459237070559908
 30
0.0
 40
0.2362204723999998
  0
LINE
  5
13BA3
  8
0
 10
3726.4961329243142245
 20
162.1905916384891952
 30
0.0
 11
3726.5146852702159777
 21
160.0829404787290002
 31
0.0
  0
ARC
  5
13BA4
  8
0
 10
3725.5907031730530434
 20
162.1826340724149134
 30
0.0
 40
0.9054647189850387
 50
0.5035434412414844
 51
90.0007923729438915
  0
LINE
  5
13BA5
  8
0
 10
3726.7936376174748148
 20
154.308571985838114
 30
0.0
 11
3726.7975887500820136
 21
154.7613278914103887
 31
0.0
  0
ARC
  5
13BA6
  8
0
 10
3719.3002005767430092
 20
141.4148680437959058
 30
0.0
 40
0.0196837976966453
 50
269.9990023031966189
 51
331.7292218705246114
  0
LINE
  5
13BA7
  8
0
 10
3709.78928259557415
 20
163.0880987913133993
 30
0.0
 11
3725.5906906509130749
 21
163.0880987913133993
 31
0.0
  0
ARC
  5
13BA8
  8
0
 10
3713.5524669629339769
 20
160.9382174636550928
 30
0.0
 40
0.4687938507418391
 50
89.552501665171576
 51
180.4474983469499989
  0
LINE
  5
13BA9
  8
0
 10
3713.5561283553870453
 20
161.4069970160022081
 30
0.0
 11
3721.8238448908869032
 21
161.4069970160022081
 31
0.0
  0
ARC
  5
13BAA
  8
0
 10
3721.8238448908869032
 20
160.9345560711022074
 30
0.0
 40
0.4724409448999978
 50
359.9999999999992042
 51
90.0000075884969135
  0
LINE
  5
13BAB
  8
0
 10
3722.2962858357868754
 20
160.9345560711022074
 30
0.0
 11
3722.2962858357868754
 21
160.0828235815677942
 31
0.0
  0
ARC
  5
13BAC
  8
0
 10
3717.2766007963869015
 20
126.279701292502196
 30
0.0
 40
0.1181102361999962
 50
179.9999999999984084
 51
270.0
  0
ARC
  5
13BAD
  8
0
 10
3718.103372449887047
 20
126.279701292502196
 30
0.0
 40
0.1181102361999979
 50
270.0
 51
0.0000000000008142
  0
LINE
  5
13BAE
  8
0
 10
3717.1584905601871469
 20
126.279701292502196
 30
0.0
 11
3717.1584905601871469
 21
126.7611719710840958
 31
0.0
  0
LINE
  5
13BAF
  8
0
 10
3718.2214826860868016
 20
126.279701292502196
 30
0.0
 11
3718.2214826860868016
 21
126.7611719710372
 31
0.0
  0
LINE
  5
13BB0
  8
0
 10
3717.2766007963869015
 20
126.1615910563021998
 30
0.0
 11
3718.103372449887047
 21
126.1615910563021998
 31
0.0
  0
CIRCLE
  5
13BB1
  8
0
 10
3717.9458921349869343
 20
126.4371816075021968
 30
0.0
 40
0.1574803150000008
  0
ARC
  5
13BB2
  8
0
 10
3713.831718906586957
 20
160.8636899294021987
 30
0.0
 40
0.1181102361999995
 50
90.0
 51
179.9999999999984084
  0
ARC
  5
13BB3
  8
0
 10
3714.211443316086843
 20
159.2396876818021951
 30
0.0
 40
0.0787401574999982
 50
180.0
 51
270.0
  0
ARC
  5
13BB4
  8
0
 10
3715.1563252057871978
 20
159.2396876818021951
 30
0.0
 40
0.0787401575000004
 50
270.0000000003907985
 51
0.0
  0
ARC
  5
13BB5
  8
0
 10
3715.7816192932891681
 20
158.6989610332533971
 30
0.0
 40
0.1968503934487984
 50
89.9999999133667643
 51
175.0000027763574053
  0
LINE
  5
13BB6
  8
0
 10
3715.4598597491872169
 20
157.2798375835022
 30
0.0
 11
3715.5855179741870415
 21
158.7161176660021908
 31
0.0
  0
LINE
  5
13BB7
  8
0
 10
3715.4598597345839153
 20
157.2798373048071028
 30
0.0
 11
3715.4303303392871385
 21
155.5880993782022017
 31
0.0
  0
LINE
  5
13BB8
  8
0
 10
3714.1327031585879013
 20
159.2396876818021951
 30
0.0
 11
3714.1327031585879013
 21
160.0861443747022008
 31
0.0
  0
LINE
  5
13BB9
  8
0
 10
3714.1327031585879013
 20
160.0861443747022008
 30
0.0
 11
3715.235065363287049
 21
160.0861443747022008
 31
0.0
  0
LINE
  5
13BBA
  8
0
 10
3715.235065363287049
 20
160.0861443747022008
 30
0.0
 11
3715.235065363287049
 21
159.2396876818021951
 31
0.0
  0
LINE
  5
13BBB
  8
0
 10
3714.211443316086843
 20
159.1609475243022018
 30
0.0
 11
3715.1563252057881073
 21
159.1609475243022018
 31
0.0
  0
LINE
  5
13BBC
  8
0
 10
3713.7136086703872024
 20
160.6471544963021927
 30
0.0
 11
3714.2508135678867802
 21
160.6471544963021927
 31
0.0
  0
LINE
  5
13BBD
  8
0
 10
3715.1169532299168168
 20
160.647156364523795
 30
0.0
 11
3715.1956952845871456
 21
160.6471544963021927
 31
0.0
  0
LINE
  5
13BBE
  8
0
 10
3715.2744354420869968
 20
160.9818001656022091
 30
0.0
 11
3715.2744354420869968
 21
160.725894653802186
 31
0.0
  0
LINE
  5
13BBF
  8
0
 10
3715.4516007963870834
 20
160.9818001656022091
 30
0.0
 11
3715.4516007963870834
 21
160.7333633585022028
 31
0.0
  0
LINE
  5
13BC0
  8
0
 10
3715.3925456782872061
 20
160.725894653802186
 30
0.0
 11
3715.3925456782872061
 21
160.7333633585022028
 31
0.0
  0
LINE
  5
13BC1
  8
0
 10
3715.3925456782872061
 20
160.7333633585022028
 30
0.0
 11
3715.4516007963870834
 21
160.7333633585022028
 31
0.0
  0
LINE
  5
13BC2
  8
0
 10
3715.2744354420869968
 20
160.725894653802186
 30
0.0
 11
3715.3925456782872061
 21
160.725894653802186
 31
0.0
  0
LINE
  5
13BC3
  8
0
 10
3715.4712858357870573
 20
160.9818001656022091
 30
0.0
 11
3715.4712858357870573
 21
160.7334539339022115
 31
0.0
  0
LINE
  5
13BC4
  8
0
 10
3715.4712858357870573
 20
160.7334539339022115
 30
0.0
 11
3715.727177320687133
 21
160.7289873314022088
 31
0.0
  0
LINE
  5
13BC5
  8
0
 10
3715.7271913475879046
 20
160.9818001656022091
 30
0.0
 11
3715.7271913475879046
 21
160.558778638602206
 31
0.0
  0
LINE
  5
13BC6
  8
0
 10
3715.7271913475879046
 20
160.558778638602206
 30
0.0
 11
3715.8235321993001889
 21
160.5641408632401124
 31
0.0
  0
ARC
  5
13BC7
  8
0
 10
3714.7313220651271877
 20
160.9997299326921052
 30
0.0
 40
1.249335189262669
 50
343.7000570630402194
 51
354.9280545364495083
  0
ARC
  5
13BC8
  8
0
 10
3714.3740287025930229
 20
161.008381526100095
 30
0.0
 40
1.6061586662739
 50
355.7474584069062757
 51
359.051651897152226
  0
LINE
  5
13BC9
  8
0
 10
3715.9757654481868485
 20
160.8892804805022081
 30
0.0
 11
3715.9840811112871961
 21
160.8892804805022081
 31
0.0
  0
LINE
  5
13BCA
  8
0
 10
3715.9840811112871961
 20
160.8892804805022081
 30
0.0
 11
3715.9840811112871961
 21
160.9818001656022091
 31
0.0
  0
ARC
  5
13BCB
  8
0
 10
3715.8174761867458074
 20
160.6815115894561927
 30
0.0
 40
0.1175268593526181
 50
272.953688183392785
 51
343.9835340717680197
  0
LINE
  5
13BCC
  8
0
 10
3715.4516007963870834
 20
160.9501838162022125
 30
0.0
 11
3715.4712858357870573
 21
160.9501838162022125
 31
0.0
  0
LINE
  5
13BCD
  8
0
 10
3715.4516007963870834
 20
160.9259999221021928
 30
0.0
 11
3715.4712858357870573
 21
160.9259999221021928
 31
0.0
  0
LINE
  5
13BCE
  8
0
 10
3715.4516007963870834
 20
160.9160883278022141
 30
0.0
 11
3715.4712858357870573
 21
160.9160883278022141
 31
0.0
  0
LINE
  5
13BCF
  8
0
 10
3715.4516007963870834
 20
160.8785138392022134
 30
0.0
 11
3715.4712858357870573
 21
160.8785138392022134
 31
0.0
  0
LINE
  5
13BD0
  8
0
 10
3715.4516007963870834
 20
160.8760408739022125
 30
0.0
 11
3715.4712858357870573
 21
160.8760408739022125
 31
0.0
  0
LINE
  5
13BD1
  8
0
 10
3715.4516007963870834
 20
160.8588610842022035
 30
0.0
 11
3715.4712858357870573
 21
160.8588610842022035
 31
0.0
  0
LINE
  5
13BD2
  8
0
 10
3715.4516007963870834
 20
160.8451018996022128
 30
0.0
 11
3715.4712858357870573
 21
160.8451018996022128
 31
0.0
  0
LINE
  5
13BD3
  8
0
 10
3715.3925456782872061
 20
160.9818001656022091
 30
0.0
 11
3715.3925456782872061
 21
160.9551787991022138
 31
0.0
  0
LINE
  5
13BD4
  8
0
 10
3715.3925456782872061
 20
160.9551787991022138
 30
0.0
 11
3715.4516007963870834
 21
160.9551787991022138
 31
0.0
  0
ARC
  5
13BD5
  8
0
 10
3715.1956952845871456
 20
160.725894653802186
 30
0.0
 40
0.0787401574999969
 50
270.0
 51
0.0000000000024427
  0
ARC
  5
13BD6
  8
0
 10
3715.1169863408790661
 20
160.5683849947251929
 30
0.0
 40
0.078771376757507
 50
90.0240838547545081
 51
179.978656056656007
  0
ARC
  5
13BD7
  8
0
 10
3714.2507850887041059
 20
160.5683860327810066
 30
0.0
 40
0.0787684686695337
 50
0.0205896548149064
 51
89.9792843877223021
  0
LINE
  5
13BD8
  8
0
 10
3714.3295535522870523
 20
160.5684143388021994
 30
0.0
 11
3714.3295535522870523
 21
160.1944120912021958
 31
0.0
  0
LINE
  5
13BD9
  8
0
 10
3715.0382149695869884
 20
160.1944120912021958
 30
0.0
 11
3715.0382149695869884
 21
160.5684143388012046
 31
0.0
  0
LINE
  5
13BDA
  8
0
 10
3714.3157813750872265
 20
160.1944120912021958
 30
0.0
 11
3715.0866644406892192
 21
160.194361659715895
 31
0.0
  0
LINE
  5
13BDB
  8
0
 10
3715.0866644406892192
 20
160.194361659715895
 30
0.0
 11
3715.0387201969861053
 21
160.1666442685022105
 31
0.0
  0
LINE
  5
13BDC
  8
0
 10
3715.0387201969861053
 20
160.1666442685022105
 30
0.0
 11
3715.0873720520157804
 21
160.1380411379749944
 31
0.0
  0
LINE
  5
13BDD
  8
0
 10
3715.0873720520157804
 20
160.1380411379749944
 30
0.0
 11
3715.0874275679871062
 21
160.1243003809022127
 31
0.0
  0
LINE
  5
13BDE
  8
0
 10
3715.0874275679871062
 20
160.1243003809022127
 30
0.0
 11
3715.0386816244867987
 21
160.0958130877021972
 31
0.0
  0
LINE
  5
13BDF
  8
0
 10
3715.0386816244867987
 20
160.0958130877021972
 30
0.0
 11
3715.0554044509872256
 21
160.0861443747022008
 31
0.0
  0
LINE
  5
13BE0
  8
0
 10
3714.3157668499870852
 20
160.1944120912021958
 30
0.0
 11
3714.2803409538869346
 21
160.1736580627022022
 31
0.0
  0
LINE
  5
13BE1
  8
0
 10
3714.2803409538869346
 20
160.1736580627022022
 30
0.0
 11
3714.2803417059872118
 21
160.1596486552022043
 31
0.0
  0
LINE
  5
13BE2
  8
0
 10
3714.2803417059872118
 20
160.1596486552022043
 30
0.0
 11
3714.3290345623868234
 21
160.1312079553021874
 31
0.0
  0
LINE
  5
13BE3
  8
0
 10
3714.3290345623868234
 20
160.1312079553021874
 30
0.0
 11
3714.2803409538869346
 21
160.1027776166021965
 31
0.0
  0
LINE
  5
13BE4
  8
0
 10
3714.2803409538869346
 20
160.1027776166021965
 30
0.0
 11
3714.2803409538869346
 21
160.0887557303022106
 31
0.0
  0
LINE
  5
13BE5
  8
0
 10
3714.2803409538869346
 20
160.0887557303022106
 30
0.0
 11
3714.2843835676872004
 21
160.0861443747022008
 31
0.0
  0
LINE
  5
13BE6
  8
0
 10
3714.2803413299370732
 20
160.1666533589522032
 30
0.0
 11
3715.0866644399648067
 21
160.1943616592976127
 31
0.0
  0
LINE
  5
13BE7
  8
0
 10
3714.3290345623868234
 20
160.1312079553021874
 30
0.0
 11
3715.0394207948861549
 21
160.1662391460021979
 31
0.0
  0
LINE
  5
13BE8
  8
0
 10
3714.2803409538869346
 20
160.0957666734522036
 30
0.0
 11
3715.0874275679871062
 21
160.1312586713522137
 31
0.0
  0
LINE
  5
13BE9
  8
0
 10
3715.0386816244867987
 20
160.0958130877021972
 30
0.0
 11
3714.7559998587871632
 21
160.0861443747022008
 31
0.0
  0
ARC
  5
13BEA
  8
0
 10
3711.8579660195250653
 20
156.5684228405924046
 30
0.0
 40
5.220829620136386
 50
51.3744377794420899
 51
54.7127804661642898
  0
ARC
  5
13BEB
  8
0
 10
3714.5598085069091212
 20
160.4057541670777027
 30
0.0
 40
0.5278775139212682
 50
53.4851972163918816
 51
71.4783649742976337
  0
ARC
  5
13BEC
  8
0
 10
3717.1341505171108111
 20
157.0602096664329963
 30
0.0
 40
4.6021526310846887
 50
124.8085306591468964
 51
128.7937440719425979
  0
ARC
  5
13BED
  8
0
 10
3714.683723639083837
 20
160.7436009785394901
 30
0.0
 40
0.1684742423142196
 50
74.9410059967830335
 51
107.2741544946668029
  0
ARC
  5
13BEE
  8
0
 10
3714.8082120903432042
 20
160.412655516352487
 30
0.0
 40
0.5218652572301485
 50
109.5365400742332014
 51
125.2423539168361941
  0
CIRCLE
  5
13BEF
  8
0
 10
3714.6842085758607936
 20
157.7436047558801135
 30
0.0
 40
0.4327465515855791
  0
CIRCLE
  5
13BF0
  8
0
 10
3714.6842085758607936
 20
157.7436047558801135
 30
0.0
 40
0.6299375502418638
  0
ARC
  5
13BF1
  8
0
 10
3714.6838842608872255
 20
158.3738865545022065
 30
0.0
 40
0.0118110236000022
 50
357.8221832308266812
 51
182.2367804822823985
  0
ARC
  5
13BF2
  8
0
 10
3714.6838842608872255
 20
158.3738865545022065
 30
0.0
 40
0.0196850393999992
 50
358.1324537043172995
 51
181.9265100087949918
  0
ARC
  5
13BF3
  8
0
 10
3714.7497645650869345
 20
158.3704339141021933
 30
0.0
 40
0.0118110235999999
 50
351.9871913863499913
 51
176.0718313287617889
  0
ARC
  5
13BF4
  8
0
 10
3714.7497645650869345
 20
158.3704339141021933
 30
0.0
 40
0.0196850393999995
 50
352.2314228499299134
 51
175.8275998651951113
  0
ARC
  5
13BF5
  8
0
 10
3714.8149230708868345
 20
158.3601138206022085
 30
0.0
 40
0.0118110236000029
 50
346.1511292688394974
 51
169.9073057395193871
  0
ARC
  5
13BF6
  8
0
 10
3714.8149312408681908
 20
158.3601190360056137
 30
0.0
 40
0.0196782405431198
 50
346.3092487973539164
 51
169.747929678101201
  0
ARC
  5
13BF7
  8
0
 10
3714.878645888086794
 20
158.3430393432022072
 30
0.0
 40
0.0196850393999987
 50
340.4259854041222866
 51
163.6312215226483886
  0
ARC
  5
13BF8
  8
0
 10
3714.8786499418129097
 20
158.3430413848132048
 30
0.0
 40
0.0118078296824945
 50
340.2962436570247746
 51
163.7603766549619877
  0
ARC
  5
13BF9
  8
0
 10
3714.940234856087045
 20
158.3193975534022115
 30
0.0
 40
0.0196850394000006
 50
334.5194470106263225
 51
157.5359048305685121
  0
ARC
  5
13BFA
  8
0
 10
3714.940234856087045
 20
158.3193975534022115
 30
0.0
 40
0.0118110235999972
 50
334.4686446833965192
 51
157.5867071577964964
  0
ARC
  5
13BFB
  8
0
 10
3714.9990151933870948
 20
158.2894474757021896
 30
0.0
 40
0.0196850393999998
 50
328.6089855685607972
 51
151.4439044101524985
  0
ARC
  5
13BFC
  8
0
 10
3714.9990151933870948
 20
158.2894474757021896
 30
0.0
 40
0.011811023599998
 50
328.6187449384668184
 51
151.4341450402449141
  0
ARC
  5
13BFD
  8
0
 10
3715.0543428901869447
 20
158.25351724920219
 30
0.0
 40
0.019685039400001
 50
323.1052008805959872
 51
145.3562279806058086
  0
ARC
  5
13BFE
  8
0
 10
3715.0543428901869447
 20
158.25351724920219
 30
0.0
 40
0.0118110235999999
 50
322.7608592934395801
 51
145.2889889481174066
  0
ARC
  5
13BFF
  8
0
 10
3715.105611764787227
 20
158.2120005332022004
 30
0.0
 40
0.0196850394000007
 50
316.7724223545919244
 51
139.2738375489630016
  0
ARC
  5
13C00
  8
0
 10
3715.105611764787227
 20
158.2120005332022004
 30
0.0
 40
0.0118110235999997
 50
316.8934294424472
 51
139.1528304611063902
  0
ARC
  5
13C01
  8
0
 10
3715.1522601044871408
 20
158.1653521935022013
 30
0.0
 40
0.011811023599998
 50
311.0150032426055873
 51
133.0271610269853966
  0
ARC
  5
13C02
  8
0
 10
3715.1522601044871408
 20
158.1653521935022013
 30
0.0
 40
0.0196850393999994
 50
310.8445280764057088
 51
133.1976361931839108
  0
ARC
  5
13C03
  8
0
 10
3715.193776820587118
 20
158.1140833189022032
 30
0.0
 40
0.0118110236000025
 50
305.1242474672491198
 51
126.9133586749115068
  0
ARC
  5
13C04
  8
0
 10
3715.193776820587118
 20
158.1140833189022032
 30
0.0
 40
0.0196850394000001
 50
304.9091461808195049
 51
127.1284599613380948
  0
ARC
  5
13C05
  8
0
 10
3715.2297070469871869
 20
158.0587556221022112
 30
0.0
 40
0.0118110235999994
 50
299.2199645433619821
 51
120.8126709830559946
  0
ARC
  5
13C06
  8
0
 10
3715.2297070469871869
 20
158.0587556221022112
 30
0.0
 40
0.0196850394000028
 50
298.9655679411765163
 51
121.0670675852251037
  0
ARC
  5
13C07
  8
0
 10
3715.2596571247868269
 20
157.9999752848021899
 30
0.0
 40
0.0196850394000007
 50
293.013173910061596
 51
115.0141329641882066
  0
ARC
  5
13C08
  8
0
 10
3715.2596571247868269
 20
157.9999752848021899
 30
0.0
 40
0.0118110236000033
 50
293.3011040774886737
 51
114.7262027967602052
  0
ARC
  5
13C09
  8
0
 10
3715.2833430049067829
 20
157.9383635907936139
 30
0.0
 40
0.0117761665642642
 50
287.1950437644131853
 51
108.8202240680609947
  0
ARC
  5
13C0A
  8
0
 10
3715.2832989144872045
 20
157.9383863168021946
 30
0.0
 40
0.0196850393999975
 50
287.0514418604101934
 51
108.9702367912369994
  0
ARC
  5
13C0B
  8
0
 10
3715.3003733918872058
 20
157.8746634996022067
 30
0.0
 40
0.0196850393999998
 50
281.0799512493285874
 51
102.9358613074802946
  0
ARC
  5
13C0C
  8
0
 10
3715.3003733918872058
 20
157.8746634996022067
 30
0.0
 40
0.0118110236000028
 50
281.4162595942577809
 51
102.5995529625429015
  0
ARC
  5
13C0D
  8
0
 10
3715.310693485387219
 20
157.809504993802193
 30
0.0
 40
0.0118110235999942
 50
275.4490109370689765
 51
96.5607620253215941
  0
ARC
  5
13C0E
  8
0
 10
3715.3107982311657906
 20
157.8095160030273121
 30
0.0
 40
0.0196869658436248
 50
274.7919010641833779
 51
97.2178702645281732
  0
ARC
  5
13C0F
  8
0
 10
3715.3141461257869196
 20
157.7436246896021999
 30
0.0
 40
0.0118110235999964
 50
269.4631344956981138
 51
90.5368655032857248
  0
ARC
  5
13C10
  8
0
 10
3715.3141461257869196
 20
157.7436246896021999
 30
0.0
 40
0.0196850393999986
 50
269.1052008787492014
 51
90.8970728993921853
  0
ARC
  5
13C11
  8
0
 10
3714.6186522520001745
 20
158.3704339141021933
 30
0.0
 40
0.0118110235999999
 50
3.9281686712382191
 51
188.0128086136500087
  0
ARC
  5
13C12
  8
0
 10
3714.5534937461998197
 20
158.3601138206022085
 30
0.0
 40
0.0118110236000029
 50
10.0926942604806005
 51
193.8488707311603889
  0
ARC
  5
13C13
  8
0
 10
3714.5534855762180086
 20
158.3601190360056137
 30
0.0
 40
0.0196782405431198
 50
10.2520703218987403
 51
193.6907512026459983
  0
ARC
  5
13C14
  8
0
 10
3714.4897709289998602
 20
158.3430393432022072
 30
0.0
 40
0.0196850393999987
 50
16.3687784773515617
 51
199.5740145958777134
  0
ARC
  5
13C15
  8
0
 10
3714.4897668752741993
 20
158.3430413848132048
 30
0.0
 40
0.0118078296824945
 50
16.2396233450380016
 51
199.7037563429744012
  0
ARC
  5
13C16
  8
0
 10
3714.4281819609991544
 20
158.3193975534022115
 30
0.0
 40
0.0196850394000006
 50
22.4640951694314914
 51
205.4805529893737912
  0
ARC
  5
13C17
  8
0
 10
3714.4281819609991544
 20
158.3193975534022115
 30
0.0
 40
0.0118110235999972
 50
22.4132928422035
 51
205.5313553166035945
  0
ARC
  5
13C18
  8
0
 10
3714.3694016237000142
 20
158.2894474757021896
 30
0.0
 40
0.0196850393999998
 50
28.5560955898475015
 51
211.3910144314392028
  0
ARC
  5
13C19
  8
0
 10
3714.3694016237000142
 20
158.2894474757021896
 30
0.0
 40
0.011811023599998
 50
28.5658549597550788
 51
211.38125506153321
  0
ARC
  5
13C1A
  8
0
 10
3714.3140739269001642
 20
158.25351724920219
 30
0.0
 40
0.019685039400001
 50
34.6437720193941701
 51
216.8947991194038991
  0
ARC
  5
13C1B
  8
0
 10
3714.3140739269001642
 20
158.25351724920219
 30
0.0
 40
0.0118110235999999
 50
34.7110110518825579
 51
217.2391407065603914
  0
ARC
  5
13C1C
  8
0
 10
3714.2628050522998819
 20
158.2120005332022004
 30
0.0
 40
0.0196850394000007
 50
40.7261624510369415
 51
223.227577645408104
  0
ARC
  5
13C1D
  8
0
 10
3714.2628050522998819
 20
158.2120005332022004
 30
0.0
 40
0.0118110235999997
 50
40.8471695388935672
 51
223.1065705575528
  0
ARC
  5
13C1E
  8
0
 10
3714.2161567126008777
 20
158.1653521935022013
 30
0.0
 40
0.011811023599998
 50
46.9728389730145821
 51
228.9849967573944127
  0
ARC
  5
13C1F
  8
0
 10
3714.2161567126008777
 20
158.1653521935022013
 30
0.0
 40
0.0196850393999994
 50
46.8023638068160821
 51
229.1554719235942912
  0
ARC
  5
13C20
  8
0
 10
3714.174639996499991
 20
158.1140833189022032
 30
0.0
 40
0.0118110236000025
 50
53.0866413250884506
 51
234.8757525327509086
  0
ARC
  5
13C21
  8
0
 10
3714.174639996499991
 20
158.1140833189022032
 30
0.0
 40
0.0196850394000001
 50
52.8715400386618271
 51
235.0908538191804951
  0
ARC
  5
13C22
  8
0
 10
3714.138709770099922
 20
158.0587556221022112
 30
0.0
 40
0.0118110235999994
 50
59.1873290169440125
 51
240.7800354566381031
  0
ARC
  5
13C23
  8
0
 10
3714.138709770099922
 20
158.0587556221022112
 30
0.0
 40
0.0196850394000028
 50
58.9329324147748608
 51
241.0344320588233984
  0
ARC
  5
13C24
  8
0
 10
3714.1087596922998273
 20
157.9999752848021899
 30
0.0
 40
0.0196850394000007
 50
64.985867035811836
 51
246.9868260899382051
  0
ARC
  5
13C25
  8
0
 10
3714.1087596922998273
 20
157.9999752848021899
 30
0.0
 40
0.0118110236000033
 50
65.2737972032398091
 51
246.6988959225114115
  0
ARC
  5
13C26
  8
0
 10
3714.0850738121789618
 20
157.9383635907936139
 30
0.0
 40
0.0117761665642642
 50
71.1797759319390053
 51
252.8049562355867863
  0
ARC
  5
13C27
  8
0
 10
3714.0851179025999045
 20
157.9383863168021946
 30
0.0
 40
0.0196850393999975
 50
71.0297632087629438
 51
252.9485581395898919
  0
ARC
  5
13C28
  8
0
 10
3714.0680434251999031
 20
157.8746634996022067
 30
0.0
 40
0.0196850393999998
 50
77.0641386925196343
 51
258.9200487506712989
  0
ARC
  5
13C29
  8
0
 10
3714.0680434251999031
 20
157.8746634996022067
 30
0.0
 40
0.0118110236000028
 50
77.4004470374570843
 51
258.5837404057422191
  0
ARC
  5
13C2A
  8
0
 10
3714.05772333169989
 20
157.809504993802193
 30
0.0
 40
0.0118110235999942
 50
83.4392379746784343
 51
264.5509890629310235
  0
ARC
  5
13C2B
  8
0
 10
3714.0576185859208636
 20
157.8095160030273121
 30
0.0
 40
0.0196869658436248
 50
82.7821297354718268
 51
265.2080989358166221
  0
ARC
  5
13C2C
  8
0
 10
3714.0542706913001894
 20
157.7436246896021999
 30
0.0
 40
0.0118110235999964
 50
89.4631344967142752
 51
270.5368655043018862
  0
ARC
  5
13C2D
  8
0
 10
3714.0542706913001894
 20
157.7436246896021999
 30
0.0
 40
0.0196850393999986
 50
89.1029271006078289
 51
270.8947991212506849
  0
ARC
  5
13C2E
  8
0
 10
3714.6838842608872255
 20
157.1127138547147979
 30
0.0
 40
0.0118110236000022
 50
177.7632195177176015
 51
2.1778167691732828
  0
ARC
  5
13C2F
  8
0
 10
3714.6838842608872255
 20
157.1127138547147979
 30
0.0
 40
0.0196850393999992
 50
178.0734899912048945
 51
1.8675462956826689
  0
ARC
  5
13C30
  8
0
 10
3714.7497645650869345
 20
157.1161664951148111
 30
0.0
 40
0.0118110235999999
 50
183.9281686712382111
 51
8.0128086136500336
  0
ARC
  5
13C31
  8
0
 10
3714.7497645650869345
 20
157.1161664951148111
 30
0.0
 40
0.0196850393999995
 50
184.1724001348048034
 51
7.7685771500701177
  0
ARC
  5
13C32
  8
0
 10
3714.8149230708868345
 20
157.1264865886147959
 30
0.0
 40
0.0118110236000029
 50
190.0926942604806129
 51
13.8488707311604298
  0
ARC
  5
13C33
  8
0
 10
3714.8149312408681908
 20
157.1264813732113907
 30
0.0
 40
0.0196782405431198
 50
190.2520703218987137
 51
13.6907512026460498
  0
ARC
  5
13C34
  8
0
 10
3714.878645888086794
 20
157.1435610660147972
 30
0.0
 40
0.0196850393999987
 50
196.3687784773514977
 51
19.5740145958777205
  0
ARC
  5
13C35
  8
0
 10
3714.8786499418129097
 20
157.143559024403686
 30
0.0
 40
0.0118078296824945
 50
196.2396233450380123
 51
19.7037563429743905
  0
ARC
  5
13C36
  8
0
 10
3714.940234856087045
 20
157.1672028558147929
 30
0.0
 40
0.0196850394000006
 50
202.4640951694314879
 51
25.4805529893737592
  0
ARC
  5
13C37
  8
0
 10
3714.940234856087045
 20
157.1672028558147929
 30
0.0
 40
0.0118110235999972
 50
202.4132928422035036
 51
25.5313553166035412
  0
ARC
  5
13C38
  8
0
 10
3714.9990151933870948
 20
157.1971529335147864
 30
0.0
 40
0.0196850393999998
 50
208.5560955898475015
 51
31.3910144314392205
  0
ARC
  5
13C39
  8
0
 10
3714.9990151933870948
 20
157.1971529335147864
 30
0.0
 40
0.011811023599998
 50
208.5658549597550859
 51
31.38125506153321
  0
ARC
  5
13C3A
  8
0
 10
3715.0543428901869447
 20
157.233083160014786
 30
0.0
 40
0.019685039400001
 50
214.6437720193941061
 51
36.8947991194039417
  0
ARC
  5
13C3B
  8
0
 10
3715.0543428901869447
 20
157.233083160014786
 30
0.0
 40
0.0118110235999999
 50
214.7110110518825934
 51
37.2391407065604128
  0
ARC
  5
13C3C
  8
0
 10
3715.105611764787227
 20
157.2745998760148041
 30
0.0
 40
0.0196850394000007
 50
220.7261624510369131
 51
43.2275776454080969
  0
ARC
  5
13C3D
  8
0
 10
3715.105611764787227
 20
157.2745998760148041
 30
0.0
 40
0.0118110235999997
 50
220.8471695388936098
 51
43.1065705575528071
  0
ARC
  5
13C3E
  8
0
 10
3715.1522601044871408
 20
157.3212482157146894
 30
0.0
 40
0.011811023599998
 50
226.9728389730146034
 51
48.9849967573944411
  0
ARC
  5
13C3F
  8
0
 10
3715.1522601044871408
 20
157.3212482157148031
 30
0.0
 40
0.0196850393999994
 50
226.8023638068160892
 51
49.1554719235942912
  0
ARC
  5
13C40
  8
0
 10
3715.193776820587118
 20
157.3725170903148012
 30
0.0
 40
0.0118110236000025
 50
233.0866413250884079
 51
54.8757525327509512
  0
ARC
  5
13C41
  8
0
 10
3715.193776820587118
 20
157.3725170903148012
 30
0.0
 40
0.0196850394000001
 50
232.8715400386618057
 51
55.0908538191805093
  0
ARC
  5
13C42
  8
0
 10
3715.2297070469871869
 20
157.4278447871147932
 30
0.0
 40
0.0118110235999994
 50
239.1873290169440054
 51
60.7800354566380321
  0
ARC
  5
13C43
  8
0
 10
3715.2297070469871869
 20
157.4278447871147932
 30
0.0
 40
0.0196850394000028
 50
238.9329324147749105
 51
61.0344320588234694
  0
ARC
  5
13C44
  8
0
 10
3715.2596571247868269
 20
157.4866251244147861
 30
0.0
 40
0.0196850394000007
 50
244.9858670358117934
 51
66.9868260899383046
  0
ARC
  5
13C45
  8
0
 10
3715.2596571247868269
 20
157.4866251244147861
 30
0.0
 40
0.0118110236000033
 50
245.2737972032398091
 51
66.6988959225113263
  0
ARC
  5
13C46
  8
0
 10
3715.2833430049067829
 20
157.5482368184233906
 30
0.0
 40
0.0117761665642642
 50
251.1797759319389911
 51
72.8049562355868005
  0
ARC
  5
13C47
  8
0
 10
3715.2832989144872045
 20
157.5482140924148098
 30
0.0
 40
0.0196850393999975
 50
251.0297632087630006
 51
72.948558139589835
  0
ARC
  5
13C48
  8
0
 10
3715.3003733918872058
 20
157.6119369096147977
 30
0.0
 40
0.0196850393999998
 50
257.0641386925195775
 51
78.9200487506713557
  0
ARC
  5
13C49
  8
0
 10
3715.3003733918872058
 20
157.6119369096147977
 30
0.0
 40
0.0118110236000028
 50
257.400447037457127
 51
78.5837404057422333
  0
ARC
  5
13C4A
  8
0
 10
3715.310693485387219
 20
157.6770954154148114
 30
0.0
 40
0.0118110235999942
 50
263.4392379746784059
 51
84.550989062930995
  0
ARC
  5
13C4B
  8
0
 10
3715.3107982311657906
 20
157.6770844061896923
 30
0.0
 40
0.0196869658436248
 50
262.7821297354718126
 51
85.2080989358165795
  0
ARC
  5
13C4C
  8
0
 10
3714.6186522520001745
 20
157.1161664951148111
 30
0.0
 40
0.0118110235999999
 50
171.987191386349906
 51
356.0718313287609931
  0
ARC
  5
13C4D
  8
0
 10
3714.5534937461998197
 20
157.1264865886147959
 30
0.0
 40
0.0118110236000029
 50
166.1511292688396111
 51
349.9073057395194155
  0
ARC
  5
13C4E
  8
0
 10
3714.5534855762180086
 20
157.1264813732113907
 30
0.0
 40
0.0196782405431198
 50
166.309248797353888
 51
349.7479296781012863
  0
ARC
  5
13C4F
  8
0
 10
3714.4897709289998602
 20
157.1435610660147972
 30
0.0
 40
0.0196850393999987
 50
160.4259854041222866
 51
343.6312215226485023
  0
ARC
  5
13C50
  8
0
 10
3714.4897668752741993
 20
157.143559024403686
 30
0.0
 40
0.0118078296824945
 50
160.2962436570255988
 51
343.7603766549619877
  0
ARC
  5
13C51
  8
0
 10
3714.4281819609991544
 20
157.1672028558147929
 30
0.0
 40
0.0196850394000006
 50
154.5194470106262088
 51
337.5359048305684837
  0
ARC
  5
13C52
  8
0
 10
3714.4281819609991544
 20
157.1672028558147929
 30
0.0
 40
0.0118110235999972
 50
154.4686446833964055
 51
337.5867071577965248
  0
ARC
  5
13C53
  8
0
 10
3714.3694016237000142
 20
157.1971529335147864
 30
0.0
 40
0.0196850393999998
 50
148.6089855685607972
 51
331.4439044101525269
  0
ARC
  5
13C54
  8
0
 10
3714.3694016237000142
 20
157.1971529335147864
 30
0.0
 40
0.011811023599998
 50
148.61874493846679
 51
331.4341450402449141
  0
ARC
  5
13C55
  8
0
 10
3714.3140739269001642
 20
157.233083160014786
 30
0.0
 40
0.019685039400001
 50
143.1052008805961009
 51
325.3562279806058086
  0
ARC
  5
13C56
  8
0
 10
3714.3140739269001642
 20
157.233083160014786
 30
0.0
 40
0.0118110235999999
 50
142.7608592934396086
 51
325.2889889481174919
  0
ARC
  5
13C57
  8
0
 10
3714.2628050522998819
 20
157.2745998760148041
 30
0.0
 40
0.0196850394000007
 50
136.772422354591896
 51
319.2738375489631153
  0
ARC
  5
13C58
  8
0
 10
3714.2628050522998819
 20
157.2745998760148041
 30
0.0
 40
0.0118110235999997
 50
136.8934294424472
 51
319.1528304611057933
  0
ARC
  5
13C59
  8
0
 10
3714.2161567126008777
 20
157.3212482157146894
 30
0.0
 40
0.011811023599998
 50
131.015003242605502
 51
313.027161026985425
  0
ARC
  5
13C5A
  8
0
 10
3714.2161567126008777
 20
157.3212482157148031
 30
0.0
 40
0.0196850393999994
 50
130.8445280764057088
 51
313.1976361931838824
  0
ARC
  5
13C5B
  8
0
 10
3714.174639996499991
 20
157.3725170903148012
 30
0.0
 40
0.0118110236000025
 50
125.1242474672490061
 51
306.9133586749114784
  0
ARC
  5
13C5C
  8
0
 10
3714.174639996499991
 20
157.3725170903148012
 30
0.0
 40
0.0196850394000001
 50
124.9091461808195049
 51
307.1284599613381943
  0
ARC
  5
13C5D
  8
0
 10
3714.138709770099922
 20
157.4278447871147932
 30
0.0
 40
0.0118110235999994
 50
119.2199645433618969
 51
300.812670983056023
  0
ARC
  5
13C5E
  8
0
 10
3714.138709770099922
 20
157.4278447871147932
 30
0.0
 40
0.0196850394000028
 50
118.9655679411765021
 51
301.0670675852251179
  0
ARC
  5
13C5F
  8
0
 10
3714.1087596922998273
 20
157.4866251244147861
 30
0.0
 40
0.0196850394000007
 50
113.0131739100616954
 51
295.0141329641882066
  0
ARC
  5
13C60
  8
0
 10
3714.1087596922998273
 20
157.4866251244147861
 30
0.0
 40
0.0118110236000033
 50
113.3011040774887022
 51
294.7262027967602194
  0
ARC
  5
13C61
  8
0
 10
3714.0850738121789618
 20
157.5482368184233906
 30
0.0
 40
0.0117761665642642
 50
107.1950437644131995
 51
288.8202240680610089
  0
ARC
  5
13C62
  8
0
 10
3714.0851179025999045
 20
157.5482140924148098
 30
0.0
 40
0.0196850393999975
 50
107.0514418604101934
 51
288.9702367912370278
  0
ARC
  5
13C63
  8
0
 10
3714.0680434251999031
 20
157.6119369096147977
 30
0.0
 40
0.0196850393999998
 50
101.0799512493286016
 51
282.9358613074804225
  0
ARC
  5
13C64
  8
0
 10
3714.0680434251999031
 20
157.6119369096147977
 30
0.0
 40
0.0118110236000028
 50
101.4162595942576957
 51
282.5995529625429867
  0
ARC
  5
13C65
  8
0
 10
3714.05772333169989
 20
157.6770954154148114
 30
0.0
 40
0.0118110235999942
 50
95.4490109370689908
 51
276.5607620253215941
  0
ARC
  5
13C66
  8
0
 10
3714.0576185859208636
 20
157.6770844061896923
 30
0.0
 40
0.0196869658436248
 50
94.7919010641834348
 51
277.2178702645280737
  0
LINE
  5
13C67
  8
0
 10
3715.750522547887158
 20
158.541480718102207
 30
0.0
 11
3715.7505576809871854
 21
156.4148710317022051
 31
0.0
  0
LINE
  5
13C68
  8
0
 10
3715.8087727883489606
 20
156.4148537212855103
 30
0.0
 11
3715.8199077923491132
 21
158.5414634076859954
 31
0.0
  0
LINE
  5
13C69
  8
0
 10
3715.8986480404869326
 20
157.2304717325021954
 30
0.0
 11
3715.8986480404869326
 21
158.5116630236121011
 31
0.0
  0
LINE
  5
13C6A
  8
0
 10
3715.8986480404869326
 20
158.5116630236121011
 30
0.0
 11
3716.0364433160871158
 21
158.5116630236121011
 31
0.0
  0
LINE
  5
13C6B
  8
0
 10
3716.0364433160871158
 20
158.5116630236121011
 30
0.0
 11
3716.0364433160871158
 21
157.2304717270021968
 31
0.0
  0
LINE
  5
13C6C
  8
0
 10
3716.0364433160871158
 20
157.2304717270021968
 30
0.0
 11
3715.8986480404869326
 21
157.2304717325021954
 31
0.0
  0
LINE
  5
13C6D
  8
0
 10
3715.8986480404869326
 20
157.6098380334022124
 30
0.0
 11
3715.9773881979867838
 21
157.6098380331021929
 31
0.0
  0
LINE
  5
13C6E
  8
0
 10
3715.9773881979867838
 20
157.6098380331021929
 30
0.0
 11
3715.9773881979867838
 21
157.782954424002213
 31
0.0
  0
LINE
  5
13C6F
  8
0
 10
3715.9773881979867838
 20
157.782954424002213
 30
0.0
 11
3716.0364433160871158
 21
157.782954424002213
 31
0.0
  0
LINE
  5
13C70
  8
0
 10
3716.6073094577868687
 20
158.5118266802022049
 30
0.0
 11
3716.6073094577868687
 21
157.2304717325021954
 31
0.0
  0
LINE
  5
13C71
  8
0
 10
3716.6073094577868687
 20
157.2304717325021954
 30
0.0
 11
3716.745104733387052
 21
157.2304717325021954
 31
0.0
  0
LINE
  5
13C72
  8
0
 10
3716.745104733387052
 20
157.2304717325021954
 30
0.0
 11
3716.745104733387052
 21
158.5118266802022049
 31
0.0
  0
LINE
  5
13C73
  8
0
 10
3716.745104733387052
 20
158.5118266802022049
 30
0.0
 11
3716.6073094577868687
 21
158.5118266802022049
 31
0.0
  0
LINE
  5
13C74
  8
0
 10
3715.8395929223870553
 20
158.3222897508022129
 30
0.0
 11
3715.8395929223870553
 21
157.9339000318022102
 31
0.0
  0
LINE
  5
13C75
  8
0
 10
3715.8395929223870553
 20
157.9339000318022102
 30
0.0
 11
3715.8986480404869326
 21
157.9339000318022102
 31
0.0
  0
LINE
  5
13C76
  8
0
 10
3715.8395929223870553
 20
158.3222897508022129
 30
0.0
 11
3715.8986480404869326
 21
158.3222897508022129
 31
0.0
  0
LINE
  5
13C77
  8
0
 10
3716.0364433160871158
 20
158.3222897508022129
 30
0.0
 11
3716.6073094577868687
 21
158.3222897508022129
 31
0.0
  0
LINE
  5
13C78
  8
0
 10
3716.745104733387052
 20
158.3222897508022129
 30
0.0
 11
3717.2293567018868998
 21
158.3222897508022129
 31
0.0
  0
LINE
  5
13C79
  8
0
 10
3717.2293567018868998
 20
158.3222897508022129
 30
0.0
 11
3717.2293567018868998
 21
157.9339000318022102
 31
0.0
  0
LINE
  5
13C7A
  8
0
 10
3717.2293567018868998
 20
157.9339000318022102
 30
0.0
 11
3717.0954984341869931
 21
157.9339000318022102
 31
0.0
  0
LINE
  5
13C7B
  8
0
 10
3717.0954984341869931
 20
157.9339000318022102
 30
0.0
 11
3717.0954984341869931
 21
157.1717375771021921
 31
0.0
  0
LINE
  5
13C7C
  8
0
 10
3717.0954984341869931
 20
157.1717375771021921
 30
0.0
 11
3716.8986480404869326
 21
157.1717296412022051
 31
0.0
  0
LINE
  5
13C7D
  8
0
 10
3716.8986480404869326
 20
157.1717296412022051
 30
0.0
 11
3716.8986480404869326
 21
157.9364521806022026
 31
0.0
  0
LINE
  5
13C7E
  8
0
 10
3716.8986480404869326
 20
157.9364521806022026
 30
0.0
 11
3716.745104733387052
 21
157.9364521806022026
 31
0.0
  0
LINE
  5
13C7F
  8
0
 10
3716.6073094577868687
 20
158.2397493672021938
 30
0.0
 11
3716.745104733387052
 21
158.2397493672021938
 31
0.0
  0
LINE
  5
13C80
  8
0
 10
3716.0364433160871158
 20
158.2621986953022031
 30
0.0
 11
3716.6073094577868687
 21
158.2621986953022031
 31
0.0
  0
LINE
  5
13C81
  8
0
 10
3716.745104733387052
 20
158.2621986953022031
 30
0.0
 11
3717.2293567018868998
 21
158.2621986953022031
 31
0.0
  0
LINE
  5
13C82
  8
0
 10
3716.745104733387052
 20
158.1214520652021918
 30
0.0
 11
3717.2293567018868998
 21
158.1214520652021918
 31
0.0
  0
LINE
  5
13C83
  8
0
 10
3716.745104733387052
 20
158.0196699586022078
 30
0.0
 11
3717.2293567018868998
 21
158.0196699586022078
 31
0.0
  0
LINE
  5
13C84
  8
0
 10
3716.0364433160871158
 20
158.0196699586022078
 30
0.0
 11
3716.6073094577868687
 21
158.0196699586022078
 31
0.0
  0
LINE
  5
13C85
  8
0
 10
3716.0364433160871158
 20
158.1214520652021918
 30
0.0
 11
3716.6073094577868687
 21
158.1214520652021918
 31
0.0
  0
LINE
  5
13C86
  8
0
 10
3716.0364433160871158
 20
157.9339000318022102
 30
0.0
 11
3716.6073094577868687
 21
157.9339000318022102
 31
0.0
  0
LINE
  5
13C87
  8
0
 10
3716.745104733387052
 20
157.7549303957021891
 30
0.0
 11
3716.8809315049870747
 21
157.7549303957021891
 31
0.0
  0
LINE
  5
13C88
  8
0
 10
3716.8809315049870747
 20
157.7549303957021891
 30
0.0
 11
3716.8809315049870747
 21
156.9281587422022142
 31
0.0
  0
LINE
  5
13C89
  8
0
 10
3716.8809315049870747
 20
156.9281587422022142
 30
0.0
 11
3716.8612464656871452
 21
156.9281587422022142
 31
0.0
  0
LINE
  5
13C8A
  8
0
 10
3716.8612464656871452
 20
156.9281587422022142
 30
0.0
 11
3716.8612464656871452
 21
156.4148710317022051
 31
0.0
  0
LINE
  5
13C8B
  8
0
 10
3716.7431362294869359
 20
156.4148710317022051
 30
0.0
 11
3716.7431362294869359
 21
156.9281587422022142
 31
0.0
  0
LINE
  5
13C8C
  8
0
 10
3716.7431362294869359
 20
156.9281587422022142
 30
0.0
 11
3716.723451190086962
 21
156.9281587422022142
 31
0.0
  0
LINE
  5
13C8D
  8
0
 10
3716.723451190086962
 20
156.9281587422022142
 30
0.0
 11
3716.723451190086962
 21
157.2304646548022049
 31
0.0
  0
LINE
  5
13C8E
  8
0
 10
3715.750522547887158
 20
158.541480718102207
 30
0.0
 11
3716.9616401664870864
 21
158.541480718102207
 31
0.0
  0
LINE
  5
13C8F
  8
0
 10
3716.9616401664870864
 20
158.541480718102207
 30
0.0
 11
3716.9631872745871988
 21
158.3641996837021964
 31
0.0
  0
LINE
  5
13C90
  8
0
 10
3716.9631872745871988
 20
158.3641996837021964
 30
0.0
 11
3717.0388332157867808
 21
158.3641996837021964
 31
0.0
  0
LINE
  5
13C91
  8
0
 10
3717.0388332157867808
 20
158.3641996837021964
 30
0.0
 11
3717.0403803238868932
 21
158.541480718102207
 31
0.0
  0
LINE
  5
13C92
  8
0
 10
3717.0403803238868932
 20
158.541480718102207
 30
0.0
 11
3718.3395929223870553
 21
158.541480718102207
 31
0.0
  0
LINE
  5
13C93
  8
0
 10
3718.4167859716872044
 20
158.541480718102207
 30
0.0
 11
3719.6294506983867905
 21
158.541480718102207
 31
0.0
  0
LINE
  5
13C94
  8
0
 10
3719.6294506983867905
 20
158.541480718102207
 30
0.0
 11
3719.6457957286870624
 21
156.4148710317022051
 31
0.0
  0
LINE
  5
13C95
  8
0
 10
3719.5600653632877766
 20
158.541480718102207
 30
0.0
 11
3719.5712003672870196
 21
156.4148710317022051
 31
0.0
  0
LINE
  5
13C96
  8
0
 10
3717.3805232327867998
 20
158.541480718102207
 30
0.0
 11
3717.3750259931871369
 21
157.9115594582021913
 31
0.0
  0
LINE
  5
13C97
  8
0
 10
3717.3750259931871369
 20
157.9115594582021913
 30
0.0
 11
3717.2819269967408218
 21
157.9115612041038901
 31
0.0
  0
LINE
  5
13C98
  8
0
 10
3717.2621741634870887
 20
157.9389270555022051
 30
0.0
 11
3717.2569157569869276
 21
158.541480718102207
 31
0.0
  0
LINE
  5
13C99
  8
0
 10
3716.6073094577868687
 20
157.9737603567022006
 30
0.0
 11
3716.745104733387052
 21
157.9737603567022006
 31
0.0
  0
LINE
  5
13C9A
  8
0
 10
3717.2293567018868998
 20
158.0296696944022017
 30
0.0
 11
3717.2613822644220818
 21
158.0296696944022017
 31
0.0
  0
LINE
  5
13C9B
  8
0
 10
3717.2293567018868998
 20
158.2265200881022054
 30
0.0
 11
3717.2596643769470575
 21
158.2265200881022054
 31
0.0
  0
LINE
  5
13C9C
  8
0
 10
3717.3777746129871957
 20
158.2265200881022054
 30
0.0
 11
3717.3947110325871108
 21
158.2265200881022054
 31
0.0
  0
LINE
  5
13C9D
  8
0
 10
3717.3947110325871108
 20
158.2265200881022054
 30
0.0
 11
3717.3947110325871108
 21
158.0296696944022017
 31
0.0
  0
LINE
  5
13C9E
  8
0
 10
3717.3947110325871108
 20
158.0296696944022017
 30
0.0
 11
3717.3760567256122158
 21
158.0296696944022017
 31
0.0
  0
LINE
  5
13C9F
  8
0
 10
3717.3254184555830761
 20
158.0676335593805106
 30
0.0
 11
3717.323205447887176
 21
158.541480718102207
 31
0.0
  0
ARC
  5
13CA0
  8
0
 10
3717.2825873298161241
 20
157.9328496180033028
 30
0.0
 40
0.0212986526832628
 50
163.4206025309943868
 51
268.2233448011205041
  0
ARC
  5
13CA1
  8
0
 10
3717.1794756948052054
 20
158.0572913511803108
 30
0.0
 40
0.1463108788502793
 50
304.1215109174327722
 51
4.066049219359515
  0
LINE
  5
13CA2
  8
0
 10
3715.8395929223870553
 20
158.2621986953022031
 30
0.0
 11
3715.8986480404869326
 21
158.2621986953022031
 31
0.0
  0
LINE
  5
13CA3
  8
0
 10
3715.8182587379201323
 20
158.2265200881022054
 30
0.0
 11
3715.8395929223870553
 21
158.2265200881022054
 31
0.0
  0
LINE
  5
13CA4
  8
0
 10
3715.8986480404869326
 20
158.2397493672021938
 30
0.0
 11
3716.0364433160871158
 21
158.2397493672021938
 31
0.0
  0
LINE
  5
13CA5
  8
0
 10
3715.8395929223870553
 20
158.1536157878022095
 30
0.0
 11
3715.8986480404869326
 21
158.1536157878022095
 31
0.0
  0
LINE
  5
13CA6
  8
0
 10
3715.8395929223870553
 20
158.1214520652021918
 30
0.0
 11
3715.8986480404869326
 21
158.1214520652021918
 31
0.0
  0
LINE
  5
13CA7
  8
0
 10
3715.817228022252948
 20
158.0296696944022017
 30
0.0
 11
3715.8395929223870553
 21
158.0296696944022017
 31
0.0
  0
LINE
  5
13CA8
  8
0
 10
3715.8395929223870553
 20
158.0196699586022078
 30
0.0
 11
3715.8986480404869326
 21
158.0196699586022078
 31
0.0
  0
LINE
  5
13CA9
  8
0
 10
3715.9075063081868393
 20
158.541480718102207
 30
0.0
 11
3715.9080239212871675
 21
158.5118266802022049
 31
0.0
  0
LINE
  5
13CAA
  8
0
 10
3715.9857288524867727
 20
158.5118266802022049
 30
0.0
 11
3715.9862464656871452
 21
158.541480718102207
 31
0.0
  0
LINE
  5
13CAB
  8
0
 10
3715.9962185582598977
 20
157.4434725479021893
 30
0.0
 11
3715.9773881980208898
 21
157.6098380331021929
 31
0.0
  0
ARC
  5
13CAC
  8
0
 10
3716.1696073227649322
 20
157.4663349638890111
 30
0.0
 40
0.1748895472043796
 50
187.5114826649009956
 51
220.4106559105894974
  0
CIRCLE
  5
13CAD
  8
0
 10
3716.3218763868871974
 20
157.5009729369022011
 30
0.0
 40
0.1338582676999991
  0
CIRCLE
  5
13CAE
  8
0
 10
3716.3218763868871974
 20
157.5009729369022011
 30
0.0
 40
0.2362204723999994
  0
ARC
  5
13CAF
  8
0
 10
3716.3090432173098634
 20
157.4895896149849079
 30
0.0
 40
0.1493671682751903
 50
65.4291058589007122
 51
199.1539154136677041
  0
ARC
  5
13CB0
  8
0
 10
3716.3218763868749193
 20
157.5009729368917135
 30
0.0
 40
0.1653543306850881
 50
201.4215020191334133
 51
280.9784979962003035
  0
ARC
  5
13CB1
  8
0
 10
3716.3164426021380677
 20
157.4845086631802076
 30
0.0
 40
0.150464763325038
 50
284.2054380160529945
 51
56.0115406982383135
  0
LINE
  5
13CB2
  8
0
 10
3716.4979447315417929
 20
157.6584532518355957
 30
0.0
 11
3716.6073094577868687
 21
157.6584532518355957
 31
0.0
  0
LINE
  5
13CB3
  8
0
 10
3716.4979447315881771
 20
157.3434926220022021
 30
0.0
 11
3716.6073094577868687
 21
157.3434926220022021
 31
0.0
  0
LINE
  5
13CB4
  8
0
 10
3716.5974669380871092
 20
157.3434926220022021
 30
0.0
 11
3716.5974669380871092
 21
157.6584532518355957
 31
0.0
  0
LINE
  5
13CB5
  8
0
 10
3716.0364433160871158
 20
157.6584532519021877
 30
0.0
 11
3716.1458080421871273
 21
157.6584532519021877
 31
0.0
  0
LINE
  5
13CB6
  8
0
 10
3716.0364433160871158
 20
157.3434926220022021
 30
0.0
 11
3716.1458080422321473
 21
157.3434926219688066
 31
0.0
  0
LINE
  5
13CB7
  8
0
 10
3716.0462858357868754
 20
157.3434926219991894
 30
0.0
 11
3716.0462858357868754
 21
157.6584532519021877
 31
0.0
  0
LINE
  5
13CB8
  8
0
 10
3716.0364433160871158
 20
157.5895556141022098
 30
0.0
 11
3716.0462858357868754
 21
157.5895556141022098
 31
0.0
  0
LINE
  5
13CB9
  8
0
 10
3716.0364433160871158
 20
157.5438754856022001
 30
0.0
 11
3716.0462858357868754
 21
157.5438754856022001
 31
0.0
  0
LINE
  5
13CBA
  8
0
 10
3716.0364433160871158
 20
157.4580703883021897
 30
0.0
 11
3716.0462858357868754
 21
157.4580703883021897
 31
0.0
  0
LINE
  5
13CBB
  8
0
 10
3716.0364433160871158
 20
157.4123902597021925
 30
0.0
 11
3716.0462858357868754
 21
157.4123902597021925
 31
0.0
  0
LINE
  5
13CBC
  8
0
 10
3716.5974669380871092
 20
157.5895556141022098
 30
0.0
 11
3716.6073094577868687
 21
157.5895556141022098
 31
0.0
  0
LINE
  5
13CBD
  8
0
 10
3716.5974669380871092
 20
157.5438754856022001
 30
0.0
 11
3716.6073094577868687
 21
157.5438754856022001
 31
0.0
  0
LINE
  5
13CBE
  8
0
 10
3716.5974669380871092
 20
157.4580703883021897
 30
0.0
 11
3716.6073094577868687
 21
157.4580703883021897
 31
0.0
  0
LINE
  5
13CBF
  8
0
 10
3716.5974669380871092
 20
157.4123902597021925
 30
0.0
 11
3716.6073094577868687
 21
157.4123902597021925
 31
0.0
  0
ARC
  5
13CC0
  8
0
 10
3716.4741455381540618
 20
157.4663349251584066
 30
0.0
 40
0.1748894558167606
 50
319.5893352279961164
 51
352.4885261803050867
  0
LINE
  5
13CC1
  8
0
 10
3716.6073094577868687
 20
157.782954424002213
 30
0.0
 11
3716.6663645758872008
 21
157.782954424002213
 31
0.0
  0
LINE
  5
13CC2
  8
0
 10
3716.6663645758872008
 20
157.782954424002213
 30
0.0
 11
3716.6663645758872008
 21
157.6098380334022124
 31
0.0
  0
LINE
  5
13CC3
  8
0
 10
3716.6663645758872008
 20
157.6098380334022124
 30
0.0
 11
3716.647534215586802
 21
157.4434725479021893
 31
0.0
  0
LINE
  5
13CC4
  8
0
 10
3716.6663645758872008
 20
157.6098380334022124
 30
0.0
 11
3716.745104733387052
 21
157.6098380334022124
 31
0.0
  0
LINE
  5
13CC5
  8
0
 10
3716.745104733387052
 20
157.6368201595022072
 30
0.0
 11
3716.8809315049870747
 21
157.6368201595022072
 31
0.0
  0
LINE
  5
13CC6
  8
0
 10
3716.6663645758872008
 20
157.7815354793021925
 30
0.0
 11
3716.6073094577868687
 21
157.7279292751022126
 31
0.0
  0
LINE
  5
13CC7
  8
0
 10
3715.9773881979867838
 20
157.7815354793021925
 30
0.0
 11
3716.0364433160871158
 21
157.7279292751022126
 31
0.0
  0
LINE
  5
13CC8
  8
0
 10
3716.8809315049870747
 20
157.5482374823021985
 30
0.0
 11
3716.8986480404869326
 21
157.5482374823021985
 31
0.0
  0
LINE
  5
13CC9
  8
0
 10
3717.0954984341869931
 20
157.5482374823021985
 30
0.0
 11
3717.1368370168861475
 21
157.5482374823021985
 31
0.0
  0
LINE
  5
13CCA
  8
0
 10
3716.8809315049870747
 20
157.3710721280021971
 30
0.0
 11
3716.8986480404869326
 21
157.3710721280021971
 31
0.0
  0
LINE
  5
13CCB
  8
0
 10
3717.1368370168861475
 20
157.3120170099022062
 30
0.0
 11
3717.1368370168861475
 21
157.6072924028021873
 31
0.0
  0
LINE
  5
13CCC
  8
0
 10
3717.1368370168861475
 20
157.6072924028021873
 30
0.0
 11
3717.2549472530868115
 21
157.6072926004021895
 31
0.0
  0
LINE
  5
13CCD
  8
0
 10
3717.2549472530868115
 20
157.6072926004021895
 30
0.0
 11
3717.2549472530868115
 21
157.3120170099022062
 31
0.0
  0
LINE
  5
13CCE
  8
0
 10
3717.2549472530868115
 20
157.3120170099022062
 30
0.0
 11
3717.1368370168861475
 21
157.3120170099022062
 31
0.0
  0
LINE
  5
13CCF
  8
0
 10
3717.1151834734869226
 20
157.9339000318022102
 30
0.0
 11
3717.1151834734869226
 21
157.6305371754021962
 31
0.0
  0
LINE
  5
13CD0
  8
0
 10
3717.1151834734869226
 20
157.6305371754021962
 30
0.0
 11
3717.0954984341869931
 21
157.6305371754021962
 31
0.0
  0
LINE
  5
13CD1
  8
0
 10
3717.0954984341869931
 20
157.7622557987021992
 30
0.0
 11
3717.1151834734869226
 21
157.7622557987021992
 31
0.0
  0
LINE
  5
13CD2
  8
0
 10
3716.5246322923871958
 20
157.3434926220022021
 30
0.0
 11
3716.5246223739868583
 21
156.4148710317022051
 31
0.0
  0
LINE
  5
13CD3
  8
0
 10
3716.232348002487015
 20
156.6968639535022021
 30
0.0
 11
3716.3287960618281431
 21
156.6968641924314909
 31
0.0
  0
ARC
  5
13CD4
  8
0
 10
3716.2313808759831772
 20
156.4432781793285017
 30
0.0
 40
0.0197022104651522
 50
270.037583865785507
 51
359.7045028768184238
  0
ARC
  5
13CD5
  8
0
 10
3716.3296817147452202
 20
156.4432609209870009
 30
0.0
 40
0.0196849478850189
 50
180.2019084992045066
 51
270.0002731406311796
  0
LINE
  5
13CD6
  8
0
 10
3716.2510828244207914
 20
156.4431765676434907
 30
0.0
 11
3716.2518524951869949
 21
156.6648864281021929
 31
0.0
  0
LINE
  5
13CD7
  8
0
 10
3716.3092231132868619
 20
156.6648864281021929
 30
0.0
 11
3716.3099968890869604
 21
156.4431915520021903
 31
0.0
  0
ARC
  5
13CD8
  8
0
 10
3716.222908872707194
 20
156.6691696980118991
 30
0.0
 40
0.0292588394008258
 50
351.582085345175301
 51
71.1792915596468987
  0
ARC
  5
13CD9
  8
0
 10
3716.3381663146737992
 20
156.6691697871303006
 30
0.0
 40
0.0292584358917072
 50
108.820104963905294
 51
188.4182080095540073
  0
ARC
  5
13CDA
  8
0
 10
3715.8480154217700147
 20
156.4420042442054921
 30
0.0
 40
0.0196845577035853
 50
180.525306936598497
 51
269.9996973358876176
  0
LINE
  5
13CDB
  8
0
 10
3715.8480153177870307
 20
156.4223196865021919
 30
0.0
 11
3716.0055527485292259
 21
156.4223194743022134
 31
0.0
  0
LINE
  5
13CDC
  8
0
 10
3716.0055527485292259
 20
156.4223194743022134
 30
0.0
 11
3716.0055527485292259
 21
156.4235759731022029
 31
0.0
  0
LINE
  5
13CDD
  8
0
 10
3716.0055527485292259
 20
156.4235759731022029
 30
0.0
 11
3716.2313937998828806
 21
156.4235759731022029
 31
0.0
  0
ARC
  5
13CDE
  8
0
 10
4236.8104398175855749
 20
161.310960896797809
 30
0.0
 40
521.0048612863006383
 50
180.5097088461720887
 51
180.5354749813427873
  0
ARC
  5
13CDF
  8
0
 10
12679.4442621235393744
 20
239.1603987290143039
 30
0.0
 40
8963.9975747941261943
 50
180.5200896829529995
 51
180.5272332768468004
  0
LINE
  5
13CE0
  8
0
 10
3716.3296812744870294
 20
156.423576176802186
 30
0.0
 11
3716.5246224669431285
 21
156.4235740946787985
 31
0.0
  0
LINE
  5
13CE1
  8
0
 10
3715.4642773235868844
 20
156.4148879275022068
 30
0.0
 11
3719.915695922687064
 21
156.4148879275022068
 31
0.0
  0
ARC
  5
13CE2
  8
0
 10
3719.6692331197359636
 20
156.395173726151512
 30
0.0
 40
0.0197142227885568
 50
90.0844963947006789
 51
179.4650891161556103
  0
ARC
  5
13CE3
  8
0
 10
3719.9158369900560501
 20
156.3951731915973085
 30
0.0
 40
0.0197152405971386
 50
1.035667262584985
 51
90.4099688167425768
  0
LINE
  5
13CE4
  8
0
 10
3719.649519756087102
 20
156.3953577745967891
 30
0.0
 11
3719.6424749187867747
 21
155.5880993782022017
 31
0.0
  0
LINE
  5
13CE5
  8
0
 10
3719.94964290698681
 20
155.5880993782022017
 30
0.0
 11
3719.9355490099142116
 21
156.3955295410098927
 31
0.0
  0
ARC
  5
13CE6
  8
0
 10
3715.4641362562178983
 20
156.395173191596399
 30
0.0
 40
0.0197152405980152
 50
89.5900311857848379
 51
178.9643327345908119
  0
ARC
  5
13CE7
  8
0
 10
3715.7107399128458383
 20
156.3951735107729917
 30
0.0
 40
0.0197144384845212
 50
0.535531025089107
 51
89.9148805689003154
  0
LINE
  5
13CE8
  8
0
 10
3715.7304534901868465
 20
156.3953577746021892
 30
0.0
 11
3715.7374983274871738
 21
155.5880993782022017
 31
0.0
  0
LINE
  5
13CE9
  8
0
 10
3716.7431362294869359
 20
155.9424300868022044
 30
0.0
 11
3716.7431362294869359
 21
155.5880993782022017
 31
0.0
  0
LINE
  5
13CEA
  8
0
 10
3716.8612464656871452
 20
155.9424300868022044
 30
0.0
 11
3716.8612464656871452
 21
155.5880993782022017
 31
0.0
  0
LINE
  5
13CEB
  8
0
 10
3716.7628212687868654
 20
155.5880993782022017
 30
0.0
 11
3716.7628212687868654
 21
155.7361792366021973
 31
0.0
  0
LINE
  5
13CEC
  8
0
 10
3716.7628212687868654
 20
155.7361792366021973
 30
0.0
 11
3716.8415614262871713
 21
155.7361792366021973
 31
0.0
  0
LINE
  5
13CED
  8
0
 10
3716.8415614262871713
 20
155.7361792366021973
 30
0.0
 11
3716.8415614262871713
 21
155.5880993782022017
 31
0.0
  0
ARC
  5
13CEE
  8
0
 10
3716.7449800011868319
 20
155.8522869624021894
 30
0.0
 40
0.0804580447999961
 50
180.0016818921965012
 51
239.6374976439091995
  0
ARC
  5
13CEF
  8
0
 10
3716.7449800009330829
 20
155.8522869621504867
 30
0.0
 40
0.0196850390543537
 50
180.0016812050697013
 51
239.6374979120606099
  0
ARC
  5
13CF0
  8
0
 10
3716.1429797839869025
 20
154.8236693371021886
 30
0.0
 40
1.174166190599907
 50
40.6266951725001917
 51
52.2809314617035028
  0
ARC
  5
13CF1
  8
0
 10
3716.1413357083870324
 20
154.8218556737020037
 30
0.0
 40
1.1137676769002489
 50
43.4742316358037471
 51
49.7309945240009625
  0
LINE
  5
13CF2
  8
0
 10
3716.6645219564220497
 20
155.852284600591986
 30
0.0
 11
3716.6645193101871882
 21
155.9424300868022044
 31
0.0
  0
LINE
  5
13CF3
  8
0
 10
3716.7252949618869025
 20
155.8522863842893003
 30
0.0
 11
3716.7252923156870565
 21
155.9424300868022044
 31
0.0
  0
LINE
  5
13CF4
  8
0
 10
3716.735029820868931
 20
155.8353018318265981
 30
0.0
 11
3716.7431362294869359
 21
155.8305092056031924
 31
0.0
  0
LINE
  5
13CF5
  8
0
 10
3716.7043109394680869
 20
155.7828641679327006
 30
0.0
 11
3716.7431362294869359
 21
155.7590400583943904
 31
0.0
  0
LINE
  5
13CF6
  8
0
 10
3713.7136086703872024
 20
156.4444120912021958
 30
0.0
 11
3714.3886086703869296
 21
156.4444120912021958
 31
0.0
  0
LINE
  5
13CF7
  8
0
 10
3714.3886086703869296
 20
156.4444120912021958
 30
0.0
 11
3714.3886086703869296
 21
157.1646609557654131
 31
0.0
  0
LINE
  5
13CF8
  8
0
 10
3713.7136086703872024
 20
155.8538609101022132
 30
0.0
 11
3714.7429393790871472
 21
155.8553409976022124
 31
0.0
  0
LINE
  5
13CF9
  8
0
 10
3714.7429393790871472
 20
155.8553409976022124
 30
0.0
 11
3714.7429393790871472
 21
155.864553187802187
 31
0.0
  0
LINE
  5
13CFA
  8
0
 10
3714.7429393790871472
 20
155.864553187802187
 30
0.0
 11
3714.9776797639869983
 21
155.8634672093022004
 31
0.0
  0
LINE
  5
13CFB
  8
0
 10
3714.9776797639869983
 20
155.8634672093022004
 30
0.0
 11
3714.9776797639869983
 21
157.1639080596231963
 31
0.0
  0
LINE
  5
13CFC
  8
0
 10
3714.3886086703869296
 20
156.4444120912021958
 30
0.0
 11
3714.969553552286925
 21
155.8634672093022004
 31
0.0
  0
ARC
  5
13CFD
  8
0
 10
3715.5576158000981195
 20
156.7836461439314064
 30
0.0
 40
0.0255899062942836
 50
352.6376636394604134
 51
76.9170064185898781
  0
ARC
  5
13CFE
  8
0
 10
3715.6648490149941608
 20
156.7836875818763076
 30
0.0
 40
0.0255431867974879
 50
103.0426028287247959
 51
187.0236369478975007
  0
LINE
  5
13CFF
  8
0
 10
3715.5634083876871046
 20
156.8085718191022124
 30
0.0
 11
3715.6590845436830932
 21
156.8085718191022124
 31
0.0
  0
LINE
  5
13D00
  8
0
 10
3715.582994733286796
 20
156.7803669588853097
 30
0.0
 11
3715.5817873807868637
 21
156.4344873575022064
 31
0.0
  0
LINE
  5
13D01
  8
0
 10
3715.6407055505869721
 20
156.4344873575022064
 30
0.0
 11
3715.6394981980879493
 21
156.7803669588853097
 31
0.0
  0
ARC
  5
13D02
  8
0
 10
3715.5621024106289951
 20
156.4345560922805873
 30
0.0
 40
0.0196850901595905
 50
269.900670910827273
 51
359.799938903947691
  0
ARC
  5
13D03
  8
0
 10
3715.6603904699359191
 20
156.4345560709786866
 30
0.0
 40
0.0196850392765
 50
180.1999996108245057
 51
270.0000001485141183
  0
LINE
  5
13D04
  8
0
 10
3713.2028283791869399
 20
160.9345560711022074
 30
0.0
 11
3713.2028283791869399
 21
160.6077986589021975
 31
0.0
  0
LINE
  5
13D05
  8
0
 10
3713.2028283791869399
 20
160.6077986589021975
 30
0.0
 11
3713.4773881979867838
 21
160.6077986589021975
 31
0.0
  0
LINE
  5
13D06
  8
0
 10
3713.4773881979867838
 20
160.6077986589021975
 30
0.0
 11
3713.4773881979867838
 21
160.2141128624022031
 31
0.0
  0
LINE
  5
13D07
  8
0
 10
3713.4773881979867838
 20
160.2141128624022031
 30
0.0
 11
3713.2028283791869399
 21
160.2141128624022031
 31
0.0
  0
LINE
  5
13D08
  8
0
 10
3713.2028283791869399
 20
160.2141128624022031
 30
0.0
 11
3713.2028283791869399
 21
156.3559920569022097
 31
0.0
  0
LINE
  5
13D09
  8
0
 10
3713.2028283791869399
 20
156.3559920569022097
 30
0.0
 11
3713.4773881979867838
 21
156.3559920569022097
 31
0.0
  0
LINE
  5
13D0A
  8
0
 10
3713.4773881979867838
 20
156.3559920569022097
 30
0.0
 11
3713.4773881979867838
 21
155.9623062604021868
 31
0.0
  0
LINE
  5
13D0B
  8
0
 10
3713.4773881979867838
 20
155.9623062604021868
 30
0.0
 11
3713.2028283791869399
 21
155.9623062604021868
 31
0.0
  0
LINE
  5
13D0C
  8
0
 10
3713.2028283791869399
 20
155.9623062604021868
 30
0.0
 11
3713.2026580896081214
 21
154.7866126261482123
 31
0.0
  0
LINE
  5
13D0D
  8
0
 10
3713.2026580896081214
 20
154.7866126261482123
 30
0.0
 11
3722.1773151566872002
 21
154.7866126261021975
 31
0.0
  0
LINE
  5
13D0E
  8
0
 10
3722.1773151566872002
 20
154.7866126261021975
 30
0.0
 11
3722.1771448670870086
 21
159.8595200656021973
 31
0.0
  0
LINE
  5
13D0F
  8
0
 10
3722.1771448670870086
 20
159.8595200656021973
 30
0.0
 11
3721.9419551270871125
 21
159.8595200656021973
 31
0.0
  0
LINE
  5
13D10
  8
0
 10
3721.9419551270871125
 20
159.8595200656021973
 30
0.0
 11
3721.9419551270871125
 21
160.2522782382021944
 31
0.0
  0
LINE
  5
13D11
  8
0
 10
3721.9419551270871125
 20
160.2522782382021944
 30
0.0
 11
3722.1757944940868583
 21
160.2522782382021944
 31
0.0
  0
LINE
  5
13D12
  8
0
 10
3722.1771448670870086
 20
160.2532058620022042
 30
0.0
 11
3722.1771448670870086
 21
160.9345560711022074
 31
0.0
  0
ARC
  5
13D13
  8
0
 10
3713.5561283553870453
 20
160.9345560711022074
 30
0.0
 40
0.353299976199998
 50
90.0
 51
179.9999999965997972
  0
LINE
  5
13D14
  8
0
 10
3713.5561283553661269
 20
161.2878560473021992
 30
0.0
 11
3721.8238448908869032
 21
161.2878560473021992
 31
0.0
  0
ARC
  5
13D15
  8
0
 10
3721.8263123513488608
 20
160.9370235315641082
 30
0.0
 40
0.3508411926502335
 50
359.5970363861504211
 51
90.4029636172459163
  0
LINE
  5
13D16
  8
0
 10
3722.1757944940868583
 20
160.2522782382021944
 30
0.0
 11
3722.1771448670870086
 21
160.2532058620022042
 31
0.0
  0
LINE
  5
13D17
  8
0
 10
3713.2032781335869913
 20
160.6077986589021975
 30
0.0
 11
3713.2042057573871716
 21
160.6068710351021878
 31
0.0
  0
LINE
  5
13D18
  8
0
 10
3713.2042057573871716
 20
160.6068710351021878
 30
0.0
 11
3713.463411819986959
 21
160.6068710351021878
 31
0.0
  0
LINE
  5
13D19
  8
0
 10
3713.463411819986959
 20
160.6068710351021878
 30
0.0
 11
3713.463411819986959
 21
160.4030589575021963
 31
0.0
  0
LINE
  5
13D1A
  8
0
 10
3713.463411819986959
 20
160.4030589575021963
 30
0.0
 11
3713.2041902354071681
 21
160.4030589575021963
 31
0.0
  0
LINE
  5
13D1B
  8
0
 10
3713.2042057573871716
 20
160.6068710351021878
 30
0.0
 11
3713.2042057573871716
 21
160.2141128624022031
 31
0.0
  0
CIRCLE
  5
13D1C
  8
0
 10
3713.438018119186836
 20
159.8205412545021886
 30
0.0
 40
0.0590573668000012
  0
LINE
  5
13D1D
  8
0
 10
3713.2029543234871198
 20
156.3559920569022097
 30
0.0
 11
3713.2038819473868898
 21
156.3550644331021999
 31
0.0
  0
LINE
  5
13D1E
  8
0
 10
3713.2038819473868898
 20
156.3550644331021999
 30
0.0
 11
3713.4773881979867838
 21
156.3550644331021999
 31
0.0
  0
LINE
  5
13D1F
  8
0
 10
3713.2038819473868898
 20
156.3550644331021999
 30
0.0
 11
3713.2038520355868059
 21
155.9623061825022035
 31
0.0
  0
LINE
  5
13D20
  8
0
 10
3713.2038571041139221
 20
156.0288587022022
 30
0.0
 11
3713.4773881979867838
 21
156.0288587022022
 31
0.0
  0
LINE
  5
13D21
  8
0
 10
3713.2038750941869694
 20
156.2650780375022066
 30
0.0
 11
3713.4773881979867838
 21
156.2650780375022066
 31
0.0
  0
ARC
  5
13D22
  8
0
 10
3713.831718906586957
 20
155.7062096144022121
 30
0.0
 40
0.1181102361999917
 50
179.9999999999967031
 51
270.0
  0
LINE
  5
13D23
  8
0
 10
3713.7136086703872024
 20
160.8636899294021987
 30
0.0
 11
3713.7136086703872024
 21
155.7062096144022121
 31
0.0
  0
CIRCLE
  5
13D24
  8
0
 10
3713.438018119186836
 20
156.7495581791021948
 30
0.0
 40
0.0590573668000012
  0
LINE
  5
13D25
  8
0
 10
3713.831718906586957
 20
160.9818001656022091
 30
0.0
 11
3721.5482543396869914
 21
160.9818001656022091
 31
0.0
  0
LINE
  5
13D26
  8
0
 10
3722.1757944940868583
 20
160.2522782382021944
 30
0.0
 11
3722.1758244057868978
 21
159.8595199650021925
 31
0.0
  0
ARC
  5
13D27
  8
0
 10
3721.5482543396869914
 20
160.8636899294021987
 30
0.0
 40
0.1181102361999997
 50
0.0
 51
90.0
  0
LINE
  5
13D28
  8
0
 10
3721.6663645758872008
 20
160.8636899294021987
 30
0.0
 11
3721.6663645758872008
 21
155.7062096144022121
 31
0.0
  0
ARC
  5
13D29
  8
0
 10
3721.5482543396869914
 20
155.7062096144022121
 30
0.0
 40
0.1181102361999908
 50
270.0
 51
0.0000000000016284
  0
LINE
  5
13D2A
  8
0
 10
3721.5482543396869914
 20
155.5880993782022017
 30
0.0
 11
3717.7449188115861034
 21
155.5880993782022017
 31
0.0
  0
LINE
  5
13D2B
  8
0
 10
3713.831718906586957
 20
155.5880993782022017
 30
0.0
 11
3717.6359727236031176
 21
155.5880993782022017
 31
0.0
  0
LINE
  5
13D2C
  8
0
 10
3715.734406130186926
 20
155.9424300868022044
 30
0.0
 11
3717.635579171210793
 21
155.9424300868022044
 31
0.0
  0
LINE
  5
13D2D
  8
0
 10
3717.6362569558868927
 20
155.332193866402207
 30
0.0
 11
3717.6350544346869356
 21
156.4148710317022051
 31
0.0
  0
LINE
  5
13D2E
  8
0
 10
3717.7449188115861034
 20
156.4148710317022051
 30
0.0
 11
3717.7449188115861034
 21
155.332193866402207
 31
0.0
  0
LINE
  5
13D2F
  8
0
 10
3717.7437162903870558
 20
155.332193866402207
 30
0.0
 11
3717.6362569558868927
 21
155.332193866402207
 31
0.0
  0
LINE
  5
13D30
  8
0
 10
3717.7449188115861034
 20
155.9424300868022044
 30
0.0
 11
3719.6455671160360907
 21
155.9424300868022044
 31
0.0
  0
ARC
  5
13D31
  8
0
 10
3717.4464920218870247
 20
155.9243594821022043
 30
0.0
 40
0.0590754289000411
 50
0.3112508184064012
 51
17.8117386041321488
  0
ARC
  5
13D32
  8
0
 10
3717.4467269221549941
 20
155.9242535006320907
 30
0.0
 40
0.0788382414956207
 50
0.3075058981794764
 51
13.3297755500947908
  0
LINE
  5
13D33
  8
0
 10
3717.5073080607871816
 20
155.5880993782022017
 30
0.0
 11
3717.5055666080679657
 21
155.9246747977022096
 31
0.0
  0
LINE
  5
13D34
  8
0
 10
3717.5255670437868503
 20
155.9246754479021888
 30
0.0
 11
3717.5273159993871559
 21
155.5880993782022017
 31
0.0
  0
LINE
  5
13D35
  8
0
 10
3717.5256332174872114
 20
155.9119625364021999
 30
0.0
 11
3717.6356130112840219
 21
155.9119625364021999
 31
0.0
  0
LINE
  5
13D36
  8
0
 10
3717.7449188115861034
 20
155.9119625364021999
 30
0.0
 11
3717.856679831702877
 21
155.9119625364021999
 31
0.0
  0
LINE
  5
13D37
  8
0
 10
3717.8567684662871216
 20
155.9248226046022126
 30
0.0
 11
3717.856679831702877
 21
155.9119625364021999
 31
0.0
  0
LINE
  5
13D38
  8
0
 10
3717.856679831702877
 20
155.9119625364021999
 30
0.0
 11
3717.8544476911870333
 21
155.5880993782022017
 31
0.0
  0
ARC
  5
13D39
  8
0
 10
3717.9356100055870229
 20
155.9242674576022125
 30
0.0
 40
0.0788404984999019
 50
166.6738582019945909
 51
179.5957073981099086
  0
ARC
  5
13D3A
  8
0
 10
3717.9358427370862046
 20
155.9243737398022063
 30
0.0
 40
0.0590760786000045
 50
162.2029874678331112
 51
179.5920496439950966
  0
LINE
  5
13D3B
  8
0
 10
3717.8767681174867903
 20
155.9247887653021962
 30
0.0
 11
3717.8744577925867816
 21
155.5880993782022017
 31
0.0
  0
LINE
  5
13D3C
  8
0
 10
3717.6358260455499476
 20
155.7201594034590926
 30
0.0
 11
3717.7449188115861034
 21
155.7201561216022014
 31
0.0
  0
LINE
  5
13D3D
  8
0
 10
3718.1329000089867804
 20
155.5880993782022017
 30
0.0
 11
3718.1329000089867804
 21
155.9424300868022044
 31
0.0
  0
LINE
  5
13D3E
  8
0
 10
3718.6210889853869048
 20
155.9424300868022044
 30
0.0
 11
3718.6210889853869048
 21
155.5880993782022017
 31
0.0
  0
LINE
  5
13D3F
  8
0
 10
3718.6523451491520973
 20
155.8523468960775915
 30
0.0
 11
3718.6523343601870693
 21
155.9424300868022044
 31
0.0
  0
LINE
  5
13D40
  8
0
 10
3718.7152018246870284
 20
155.8523424356021962
 30
0.0
 11
3718.715199180286163
 21
155.9424300868022044
 31
0.0
  0
ARC
  5
13D41
  8
0
 10
3718.6347457640581524
 20
155.8523458008289992
 30
0.0
 40
0.0175993851283657
 50
300.363698617353009
 51
0.0035656432634549
  0
LINE
  5
13D42
  8
0
 10
3716.4104590640868082
 20
158.541480718102207
 30
0.0
 11
3716.4131048120871128
 21
158.3899059149021866
 31
0.0
  0
LINE
  5
13D43
  8
0
 10
3716.4131048120871128
 20
158.3899059149021866
 30
0.0
 11
3716.4865311020162153
 21
158.3886242542108107
 31
0.0
  0
LINE
  5
13D44
  8
0
 10
3716.4865311020162153
 20
158.3886242542108107
 30
0.0
 11
3716.4891992215862047
 21
158.541480718102207
 31
0.0
  0
LINE
  5
13D45
  8
0
 10
3715.7816192935870276
 20
158.8958114267022097
 30
0.0
 11
3719.5983539526869208
 21
158.8958114267022097
 31
0.0
  0
ARC
  5
13D46
  8
0
 10
3719.5983539528779147
 20
158.6989610329787013
 30
0.0
 40
0.1968503937234517
 50
5.0000004523779156
 51
89.9999889893736054
  0
LINE
  5
13D47
  8
0
 10
3719.7944552722310618
 20
158.7161176660139859
 30
0.0
 11
3719.9201134956429087
 21
157.2798376000048108
 31
0.0
  0
LINE
  5
13D48
  8
0
 10
3719.9201134956429087
 20
157.2798376000048108
 30
0.0
 11
3719.9355490099142116
 21
156.3955295409980124
 31
0.0
  0
ARC
  5
13D49
  8
0
 10
3719.822357446175829
 20
156.7836461439314064
 30
0.0
 40
0.0255899062942836
 50
103.0829935814100935
 51
187.3623363605395014
  0
ARC
  5
13D4A
  8
0
 10
3719.7151242312788781
 20
156.7836875818763076
 30
0.0
 40
0.0255431867974879
 50
352.9763630521024993
 51
76.9573971712752041
  0
LINE
  5
13D4B
  8
0
 10
3719.8165648585868439
 20
156.8085718191022124
 30
0.0
 11
3719.7208887025899458
 21
156.8085718191022124
 31
0.0
  0
LINE
  5
13D4C
  8
0
 10
3719.7969785129871525
 20
156.7803669588853097
 30
0.0
 11
3719.7981858654870848
 21
156.4344873575022064
 31
0.0
  0
LINE
  5
13D4D
  8
0
 10
3719.7392676956869764
 20
156.4344873575022064
 30
0.0
 11
3719.7404750481869087
 21
156.7803669588853097
 31
0.0
  0
ARC
  5
13D4E
  8
0
 10
3719.8178708356449533
 20
156.4345560922805873
 30
0.0
 40
0.0196850901595905
 50
180.200061096052309
 51
270.099329089172727
  0
ARC
  5
13D4F
  8
0
 10
3719.7195827763380294
 20
156.4345560709786866
 30
0.0
 40
0.0196850392765
 50
269.9999998514858817
 51
359.8000003891747269
  0
LINE
  5
13D50
  8
0
 10
3719.4813252057870159
 20
157.2304717325021954
 30
0.0
 11
3719.4813252057870159
 21
158.5116630236121011
 31
0.0
  0
LINE
  5
13D51
  8
0
 10
3719.4813252057870159
 20
158.5116630236121011
 30
0.0
 11
3719.3435299301868326
 21
158.5116630236121011
 31
0.0
  0
LINE
  5
13D52
  8
0
 10
3719.3435299301868326
 20
158.5116630236121011
 30
0.0
 11
3719.3435299301868326
 21
157.2304717270021968
 31
0.0
  0
LINE
  5
13D53
  8
0
 10
3719.3435299301868326
 20
157.2304717270021968
 30
0.0
 11
3719.4813252057870159
 21
157.2304717325021954
 31
0.0
  0
LINE
  5
13D54
  8
0
 10
3719.4813252057870159
 20
157.6098380334022124
 30
0.0
 11
3719.4025850482871647
 21
157.6098380331021929
 31
0.0
  0
LINE
  5
13D55
  8
0
 10
3719.4025850482871647
 20
157.6098380331021929
 30
0.0
 11
3719.4025850482871647
 21
157.782954424002213
 31
0.0
  0
LINE
  5
13D56
  8
0
 10
3719.4025850482871647
 20
157.782954424002213
 30
0.0
 11
3719.3435299301868326
 21
157.782954424002213
 31
0.0
  0
LINE
  5
13D57
  8
0
 10
3718.7726637884870797
 20
158.5118266802022049
 30
0.0
 11
3718.7726637884870797
 21
157.2304717325021954
 31
0.0
  0
LINE
  5
13D58
  8
0
 10
3718.7726637884870797
 20
157.2304717325021954
 30
0.0
 11
3718.6348685128868965
 21
157.2304717325021954
 31
0.0
  0
LINE
  5
13D59
  8
0
 10
3718.6348685128868965
 20
157.2304717325021954
 30
0.0
 11
3718.6348685128868965
 21
158.5118266802022049
 31
0.0
  0
LINE
  5
13D5A
  8
0
 10
3718.6348685128868965
 20
158.5118266802022049
 30
0.0
 11
3718.7726637884870797
 21
158.5118266802022049
 31
0.0
  0
LINE
  5
13D5B
  8
0
 10
3719.5403803238868932
 20
158.3222897508022129
 30
0.0
 11
3719.5403803238868932
 21
157.9339000318022102
 31
0.0
  0
LINE
  5
13D5C
  8
0
 10
3719.5403803238868932
 20
157.9339000318022102
 30
0.0
 11
3719.4813252057870159
 21
157.9339000318022102
 31
0.0
  0
LINE
  5
13D5D
  8
0
 10
3719.5403803238868932
 20
158.3222897508022129
 30
0.0
 11
3719.4813252057870159
 21
158.3222897508022129
 31
0.0
  0
LINE
  5
13D5E
  8
0
 10
3719.3435299301868326
 20
158.3222897508022129
 30
0.0
 11
3718.7726637884870797
 21
158.3222897508022129
 31
0.0
  0
LINE
  5
13D5F
  8
0
 10
3718.6348685128868965
 20
158.3222897508022129
 30
0.0
 11
3718.1506165443870486
 21
158.3222897508022129
 31
0.0
  0
LINE
  5
13D60
  8
0
 10
3718.1506165443870486
 20
158.3222897508022129
 30
0.0
 11
3718.1506165443870486
 21
157.9339000318022102
 31
0.0
  0
LINE
  5
13D61
  8
0
 10
3718.1506165443870486
 20
157.9339000318022102
 30
0.0
 11
3718.2844748120869554
 21
157.9339000318022102
 31
0.0
  0
LINE
  5
13D62
  8
0
 10
3718.2844748120869554
 20
157.9339000318022102
 30
0.0
 11
3718.2844748120869554
 21
157.1717375771021921
 31
0.0
  0
LINE
  5
13D63
  8
0
 10
3718.2844748120869554
 20
157.1717375771021921
 30
0.0
 11
3718.4813252057861064
 21
157.1717296412022051
 31
0.0
  0
LINE
  5
13D64
  8
0
 10
3718.4813252057861064
 20
157.1717296412022051
 30
0.0
 11
3718.4813252057861064
 21
157.9364521806022026
 31
0.0
  0
LINE
  5
13D65
  8
0
 10
3718.4813252057861064
 20
157.9364521806022026
 30
0.0
 11
3718.6348685128868965
 21
157.9364521806022026
 31
0.0
  0
LINE
  5
13D66
  8
0
 10
3718.7726637884870797
 20
158.2397493672021938
 30
0.0
 11
3718.6348685128868965
 21
158.2397493672021938
 31
0.0
  0
LINE
  5
13D67
  8
0
 10
3719.3435299301868326
 20
158.2621986953022031
 30
0.0
 11
3718.7726637884870797
 21
158.2621986953022031
 31
0.0
  0
LINE
  5
13D68
  8
0
 10
3718.6348685128868965
 20
158.2621986953022031
 30
0.0
 11
3718.1506165443870486
 21
158.2621986953022031
 31
0.0
  0
LINE
  5
13D69
  8
0
 10
3718.6348685128868965
 20
158.1214520652021918
 30
0.0
 11
3718.1506165443870486
 21
158.1214520652021918
 31
0.0
  0
LINE
  5
13D6A
  8
0
 10
3718.6348685128868965
 20
158.0196699586022078
 30
0.0
 11
3718.1506165443870486
 21
158.0196699586022078
 31
0.0
  0
LINE
  5
13D6B
  8
0
 10
3719.3435299301868326
 20
158.0196699586022078
 30
0.0
 11
3718.7726637884870797
 21
158.0196699586022078
 31
0.0
  0
LINE
  5
13D6C
  8
0
 10
3719.3435299301868326
 20
158.1214520652021918
 30
0.0
 11
3718.7726637884870797
 21
158.1214520652021918
 31
0.0
  0
LINE
  5
13D6D
  8
0
 10
3719.3435299301868326
 20
157.9339000318022102
 30
0.0
 11
3718.7726637884870797
 21
157.9339000318022102
 31
0.0
  0
LINE
  5
13D6E
  8
0
 10
3718.4183330797868621
 20
158.541480718102207
 30
0.0
 11
3718.4167859716872044
 21
158.3641996837021964
 31
0.0
  0
LINE
  5
13D6F
  8
0
 10
3718.4167859716872044
 20
158.3641996837021964
 30
0.0
 11
3718.3411400304871677
 21
158.3641996837021964
 31
0.0
  0
LINE
  5
13D70
  8
0
 10
3718.3411400304871677
 20
158.3641996837021964
 30
0.0
 11
3718.3395929223870553
 21
158.541480718102207
 31
0.0
  0
LINE
  5
13D71
  8
0
 10
3717.9994500134871487
 20
158.541480718102207
 30
0.0
 11
3718.0049472530868115
 21
157.9115594582021913
 31
0.0
  0
LINE
  5
13D72
  8
0
 10
3718.0049472530868115
 20
157.9115594582021913
 30
0.0
 11
3718.0980462495322172
 21
157.9115612041038901
 31
0.0
  0
LINE
  5
13D73
  8
0
 10
3718.1177990827868598
 20
157.9389270555022051
 30
0.0
 11
3718.1230574892861114
 21
158.541480718102207
 31
0.0
  0
LINE
  5
13D74
  8
0
 10
3718.7726637884870797
 20
157.9737603567022006
 30
0.0
 11
3718.6348685128868965
 21
157.9737603567022006
 31
0.0
  0
LINE
  5
13D75
  8
0
 10
3718.1506165443870486
 20
158.0296696944022017
 30
0.0
 11
3718.1185909818518667
 21
158.0296696944022017
 31
0.0
  0
LINE
  5
13D76
  8
0
 10
3718.1506165443870486
 20
158.2265200881022054
 30
0.0
 11
3718.120308869326891
 21
158.2265200881022054
 31
0.0
  0
LINE
  5
13D77
  8
0
 10
3718.002198633288117
 20
158.2265200881022054
 30
0.0
 11
3717.9852622136868376
 21
158.2265200881022054
 31
0.0
  0
LINE
  5
13D78
  8
0
 10
3717.9852622136868376
 20
158.2265200881022054
 30
0.0
 11
3717.9852622136868376
 21
158.0296696944022017
 31
0.0
  0
LINE
  5
13D79
  8
0
 10
3717.9852622136868376
 20
158.0296696944022017
 30
0.0
 11
3718.0039165206621874
 21
158.0296696944022017
 31
0.0
  0
LINE
  5
13D7A
  8
0
 10
3718.0545547906908723
 20
158.0676335593805106
 30
0.0
 11
3718.0567677983872272
 21
158.541480718102207
 31
0.0
  0
ARC
  5
13D7B
  8
0
 10
3718.0973859164578244
 20
157.9328496180033028
 30
0.0
 40
0.0212986526832633
 50
271.7766551988796095
 51
16.5793974690047889
  0
ARC
  5
13D7C
  8
0
 10
3718.2004975514701073
 20
158.0572913511803108
 30
0.0
 40
0.1463108788502793
 50
175.933950780641311
 51
235.8784890825671994
  0
LINE
  5
13D7D
  8
0
 10
3719.5403803238868932
 20
158.2621986953022031
 30
0.0
 11
3719.4813252057870159
 21
158.2621986953022031
 31
0.0
  0
LINE
  5
13D7E
  8
0
 10
3719.5617145083551804
 20
158.2265200881022054
 30
0.0
 11
3719.5403803238868932
 21
158.2265200881022054
 31
0.0
  0
LINE
  5
13D7F
  8
0
 10
3719.4813252057870159
 20
158.2397493672021938
 30
0.0
 11
3719.3435299301868326
 21
158.2397493672021938
 31
0.0
  0
LINE
  5
13D80
  8
0
 10
3719.5403803238868932
 20
158.1536157878022095
 30
0.0
 11
3719.4813252057870159
 21
158.1536157878022095
 31
0.0
  0
LINE
  5
13D81
  8
0
 10
3719.5403803238868932
 20
158.1214520652021918
 30
0.0
 11
3719.4813252057870159
 21
158.1214520652021918
 31
0.0
  0
LINE
  5
13D82
  8
0
 10
3719.56274522402191
 20
158.0296696944022017
 30
0.0
 11
3719.5403803238868932
 21
158.0296696944022017
 31
0.0
  0
LINE
  5
13D83
  8
0
 10
3719.5403803238868932
 20
158.0196699586022078
 30
0.0
 11
3719.4813252057870159
 21
158.0196699586022078
 31
0.0
  0
LINE
  5
13D84
  8
0
 10
3719.4724669380871092
 20
158.541480718102207
 30
0.0
 11
3719.471949324986781
 21
158.5118266802022049
 31
0.0
  0
LINE
  5
13D85
  8
0
 10
3719.3942443937871758
 20
158.5118266802022049
 30
0.0
 11
3719.3937267805868032
 21
158.541480718102207
 31
0.0
  0
LINE
  5
13D86
  8
0
 10
3719.3837546880140508
 20
157.4434725479021893
 30
0.0
 11
3719.4025850482530586
 21
157.6098380331021929
 31
0.0
  0
ARC
  5
13D87
  8
0
 10
3719.2103659235099258
 20
157.4663349638890111
 30
0.0
 40
0.1748895472043796
 50
319.5893440894099058
 51
352.4885173350990044
  0
CIRCLE
  5
13D88
  8
0
 10
3719.0580968593872058
 20
157.5009729369022011
 30
0.0
 40
0.1338582676999991
  0
CIRCLE
  5
13D89
  8
0
 10
3719.0580968593872058
 20
157.5009729369022011
 30
0.0
 40
0.2362204723999994
  0
ARC
  5
13D8A
  8
0
 10
3719.0709300289640851
 20
157.4895896149849079
 30
0.0
 40
0.1493671682751903
 50
340.8460845863323243
 51
114.570894141099302
  0
ARC
  5
13D8B
  8
0
 10
3719.0580968593990292
 20
157.5009729368917135
 30
0.0
 40
0.1653543306850881
 50
259.0215020037995828
 51
338.578497980866473
  0
ARC
  5
13D8C
  8
0
 10
3719.0635306441367902
 20
157.4845086631802076
 30
0.0
 40
0.150464763325038
 50
123.9884593017616936
 51
255.7945619839470055
  0
LINE
  5
13D8D
  8
0
 10
3718.8820285147330651
 20
157.6584532518355957
 30
0.0
 11
3718.7726637884870797
 21
157.6584532518355957
 31
0.0
  0
LINE
  5
13D8E
  8
0
 10
3718.8820285146871356
 20
157.3434926220022021
 30
0.0
 11
3718.7726637884870797
 21
157.3434926220022021
 31
0.0
  0
LINE
  5
13D8F
  8
0
 10
3718.7825063081868393
 20
157.3434926220022021
 30
0.0
 11
3718.7825063081868393
 21
157.6584532518355957
 31
0.0
  0
LINE
  5
13D90
  8
0
 10
3719.3435299301868326
 20
157.6584532519021877
 30
0.0
 11
3719.2341652040868212
 21
157.6584532519021877
 31
0.0
  0
LINE
  5
13D91
  8
0
 10
3719.3435299301868326
 20
157.3434926220022021
 30
0.0
 11
3719.2341652040408917
 21
157.3434926219688066
 31
0.0
  0
LINE
  5
13D92
  8
0
 10
3719.3336874104861636
 20
157.3434926219991894
 30
0.0
 11
3719.3336874104861636
 21
157.6584532519021877
 31
0.0
  0
LINE
  5
13D93
  8
0
 10
3719.3435299301868326
 20
157.5895556141022098
 30
0.0
 11
3719.3336874104861636
 21
157.5895556141022098
 31
0.0
  0
LINE
  5
13D94
  8
0
 10
3719.3435299301868326
 20
157.5438754856022001
 30
0.0
 11
3719.3336874104861636
 21
157.5438754856022001
 31
0.0
  0
LINE
  5
13D95
  8
0
 10
3719.3435299301868326
 20
157.4580703883021897
 30
0.0
 11
3719.3336874104861636
 21
157.4580703883021897
 31
0.0
  0
LINE
  5
13D96
  8
0
 10
3719.3435299301868326
 20
157.4123902597021925
 30
0.0
 11
3719.3336874104861636
 21
157.4123902597021925
 31
0.0
  0
LINE
  5
13D97
  8
0
 10
3718.7825063081868393
 20
157.5895556141022098
 30
0.0
 11
3718.7726637884870797
 21
157.5895556141022098
 31
0.0
  0
LINE
  5
13D98
  8
0
 10
3718.7825063081868393
 20
157.5438754856022001
 30
0.0
 11
3718.7726637884870797
 21
157.5438754856022001
 31
0.0
  0
LINE
  5
13D99
  8
0
 10
3718.7825063081868393
 20
157.4580703883021897
 30
0.0
 11
3718.7726637884870797
 21
157.4580703883021897
 31
0.0
  0
LINE
  5
13D9A
  8
0
 10
3718.7825063081868393
 20
157.4123902597021925
 30
0.0
 11
3718.7726637884870797
 21
157.4123902597021925
 31
0.0
  0
ARC
  5
13D9B
  8
0
 10
3718.9058277081198867
 20
157.4663349251584066
 30
0.0
 40
0.1748894558167606
 50
187.5114738196947997
 51
220.410664772003912
  0
LINE
  5
13D9C
  8
0
 10
3718.7726637884870797
 20
157.782954424002213
 30
0.0
 11
3718.7136086703872024
 21
157.782954424002213
 31
0.0
  0
LINE
  5
13D9D
  8
0
 10
3718.7136086703872024
 20
157.782954424002213
 30
0.0
 11
3718.7136086703872024
 21
157.6098380334022124
 31
0.0
  0
LINE
  5
13D9E
  8
0
 10
3718.7136086703872024
 20
157.6098380334022124
 30
0.0
 11
3718.7324390306871464
 21
157.4434725479021893
 31
0.0
  0
LINE
  5
13D9F
  8
0
 10
3718.7136086703872024
 20
157.6098380334022124
 30
0.0
 11
3718.6348685128868965
 21
157.6098380334022124
 31
0.0
  0
LINE
  5
13DA0
  8
0
 10
3718.7136086703872024
 20
157.7815354793021925
 30
0.0
 11
3718.7726637884870797
 21
157.7279292751022126
 31
0.0
  0
LINE
  5
13DA1
  8
0
 10
3719.4025850482871647
 20
157.7815354793021925
 30
0.0
 11
3719.3435299301868326
 21
157.7279292751022126
 31
0.0
  0
LINE
  5
13DA2
  8
0
 10
3718.5423488278870536
 20
157.5482374823021985
 30
0.0
 11
3718.4813252057861064
 21
157.5482374823021985
 31
0.0
  0
LINE
  5
13DA3
  8
0
 10
3718.5423488278870536
 20
157.3710721280021971
 30
0.0
 11
3718.4813252057861064
 21
157.3710721280021971
 31
0.0
  0
LINE
  5
13DA4
  8
0
 10
3718.2647897727870259
 20
157.9339000318022102
 30
0.0
 11
3718.2647897727870259
 21
157.6305371754021962
 31
0.0
  0
LINE
  5
13DA5
  8
0
 10
3718.2647897727870259
 20
157.6305371754021962
 30
0.0
 11
3718.2844748120869554
 21
157.6305371754021962
 31
0.0
  0
LINE
  5
13DA6
  8
0
 10
3718.2844748120869554
 20
157.7622557987021992
 30
0.0
 11
3718.2647897727870259
 21
157.7622557987021992
 31
0.0
  0
LINE
  5
13DA7
  8
0
 10
3718.8553409538872074
 20
157.3434926220022021
 30
0.0
 11
3718.8553508722870902
 21
156.4148710317022051
 31
0.0
  0
LINE
  5
13DA8
  8
0
 10
3719.1476252437869334
 20
156.6968639535022021
 30
0.0
 11
3719.0511771844458053
 21
156.6968641924314909
 31
0.0
  0
ARC
  5
13DA9
  8
0
 10
3719.1485923702921355
 20
156.4432781793285017
 30
0.0
 40
0.0197022104651522
 50
180.2954971231814909
 51
269.962416134214493
  0
ARC
  5
13DAA
  8
0
 10
3719.050291531529183
 20
156.4432609209870009
 30
0.0
 40
0.0196849478850189
 50
269.9997268593687068
 51
359.7980915007955218
  0
LINE
  5
13DAB
  8
0
 10
3719.128890421853157
 20
156.4431765676434907
 30
0.0
 11
3719.1281207510869535
 21
156.6648864281021929
 31
0.0
  0
LINE
  5
13DAC
  8
0
 10
3719.0707501329870865
 20
156.6648864281021929
 30
0.0
 11
3719.069976357186988
 21
156.4431915520021903
 31
0.0
  0
ARC
  5
13DAD
  8
0
 10
3719.1570643735672093
 20
156.6691696980118991
 30
0.0
 40
0.0292588394008258
 50
108.8207084403531013
 51
188.4179146548246138
  0
ARC
  5
13DAE
  8
0
 10
3719.0418069316001493
 20
156.6691697871303006
 30
0.0
 40
0.0292584358917072
 50
351.5817919904459927
 51
71.179895036094706
  0
ARC
  5
13DAF
  8
0
 10
3719.5319578245039338
 20
156.4420042442054921
 30
0.0
 40
0.0196845577035853
 50
270.0003026641124961
 51
359.474693063401503
  0
LINE
  5
13DB0
  8
0
 10
3719.5319579284869178
 20
156.4223196865021919
 30
0.0
 11
3719.3744204977451773
 21
156.4223194743022134
 31
0.0
  0
LINE
  5
13DB1
  8
0
 10
3719.3744204977451773
 20
156.4223194743022134
 30
0.0
 11
3719.3744204977451773
 21
156.4235759731022029
 31
0.0
  0
LINE
  5
13DB2
  8
0
 10
3719.3744204977451773
 20
156.4235759731022029
 30
0.0
 11
3719.1485794463901584
 21
156.4235759731022029
 31
0.0
  0
ARC
  5
13DB3
  8
0
 10
3198.5695334286879188
 20
161.310960896797809
 30
0.0
 40
521.0048612863006383
 50
359.4645250186571843
 51
359.4902911538270018
  0
ARC
  5
13DB4
  8
0
 10
-5244.0642888772681545
 20
239.1603987290143039
 30
0.0
 40
8963.9975747941261943
 50
359.4727667231531996
 51
359.4799103170461194
  0
LINE
  5
13DB5
  8
0
 10
3719.050291971786919
 20
156.423576176802186
 30
0.0
 11
3718.8553507793321842
 21
156.4235740946787985
 31
0.0
  0
LINE
  5
13DB6
  8
0
 10
3718.9695141821871402
 20
158.541480718102207
 30
0.0
 11
3718.9668684341868357
 21
158.3899059149021866
 31
0.0
  0
LINE
  5
13DB7
  8
0
 10
3718.9668684341868357
 20
158.3899059149021866
 30
0.0
 11
3718.8934421442581879
 21
158.3886242542108107
 31
0.0
  0
LINE
  5
13DB8
  8
0
 10
3718.8934421442581879
 20
158.3886242542108107
 30
0.0
 11
3718.8907740246868343
 21
158.541480718102207
 31
0.0
  0
LINE
  5
13DB9
  8
0
 10
3718.5423488278870536
 20
156.4148879275022068
 30
0.0
 11
3718.5423488278870536
 21
157.7529618918021868
 31
0.0
  0
LINE
  5
13DBA
  8
0
 10
3718.5423488278870536
 20
157.7529618918021868
 30
0.0
 11
3718.6210889853869048
 21
157.7529578040021931
 31
0.0
  0
LINE
  5
13DBB
  8
0
 10
3718.6210889853869048
 20
157.7529578040021931
 30
0.0
 11
3718.6210889853869048
 21
156.4148710317022051
 31
0.0
  0
LINE
  5
13DBC
  8
0
 10
3718.1329000089867804
 20
156.4148879275022068
 30
0.0
 11
3718.1329000089867804
 21
157.7529618918021868
 31
0.0
  0
LINE
  5
13DBD
  8
0
 10
3718.1329000089867804
 20
157.7529618918021868
 30
0.0
 11
3718.2116401664870864
 21
157.7529578040021931
 31
0.0
  0
LINE
  5
13DBE
  8
0
 10
3718.2116401664870864
 20
157.7529578040021931
 30
0.0
 11
3718.2116401664870864
 21
156.4148879275022068
 31
0.0
  0
LINE
  5
13DBF
  8
0
 10
3718.2116401664870864
 20
157.5482374823021985
 30
0.0
 11
3718.2844748120869554
 21
157.5482374823021985
 31
0.0
  0
LINE
  5
13DC0
  8
0
 10
3718.2844748120869554
 20
157.5550382003021923
 30
0.0
 11
3718.4813252057861064
 21
157.5550382003021923
 31
0.0
  0
LINE
  5
13DC1
  8
0
 10
3718.2116401664870864
 20
157.3710721280021971
 30
0.0
 11
3718.2844748120869554
 21
157.3710721280021971
 31
0.0
  0
LINE
  5
13DC2
  8
0
 10
3716.5246223739868583
 20
156.5274793949022012
 30
0.0
 11
3716.7431362294869359
 21
156.629374079102206
 31
0.0
  0
LINE
  5
13DC3
  8
0
 10
3716.8612464656871452
 20
156.6844497867022028
 30
0.0
 11
3717.2171820565868074
 21
156.850425278602188
 31
0.0
  0
LINE
  5
13DC4
  8
0
 10
3717.3835671989868388
 20
156.8873119766022057
 30
0.0
 11
3717.9964060472871097
 21
156.8873119766022057
 31
0.0
  0
LINE
  5
13DC5
  8
0
 10
3718.2116401664870864
 20
156.8276466267022045
 30
0.0
 11
3718.5423488278870536
 21
156.6734346452022066
 31
0.0
  0
LINE
  5
13DC6
  8
0
 10
3718.6210889853869048
 20
156.6367175068021993
 30
0.0
 11
3718.8553508722870902
 21
156.5274793949022012
 31
0.0
  0
ARC
  5
13DC7
  8
0
 10
3717.3835671990059382
 20
156.4936111890295933
 30
0.0
 40
0.3937007875725615
 50
90.0000000027618654
 51
114.9999999885958033
  0
ARC
  5
13DC8
  8
0
 10
3717.9964060472871097
 20
156.4936111892023121
 30
0.0
 40
0.393700787399915
 50
69.7147213467811468
 51
90.0
  0
LINE
  5
13DC9
  8
0
 10
3717.37883861768114
 20
158.348442948796702
 30
0.0
 11
3717.5718763868871974
 21
158.541480718102207
 31
0.0
  0
LINE
  5
13DCA
  8
0
 10
3717.8080968593872058
 20
158.541480718102207
 30
0.0
 11
3718.0011346285868967
 21
158.3484429488021874
 31
0.0
  0
LINE
  5
13DCB
  8
0
 10
3718.1329000089867804
 20
157.5954815768022002
 30
0.0
 11
3718.2116401664870864
 21
157.5954815768022002
 31
0.0
  0
LINE
  5
13DCC
  8
0
 10
3718.5423488278870536
 20
157.5954815768022002
 30
0.0
 11
3718.6210889853869048
 21
157.5954815768022002
 31
0.0
  0
LINE
  5
13DCD
  8
0
 10
3719.6459928675158153
 20
155.991216374202196
 30
0.0
 11
3719.9426034754869761
 21
155.9913881424022009
 31
0.0
  0
LINE
  5
13DCE
  8
0
 10
3715.4373697708551845
 20
155.9913881434025029
 30
0.0
 11
3715.7339803787581332
 21
155.991216374202196
 31
0.0
  0
ARC
  5
13DCF
  8
0
 10
3719.2372093982639853
 20
154.8242600433347889
 30
0.0
 40
1.1740060185845269
 50
120.3657290972786029
 51
121.6548981097552939
  0
ARC
  5
13DD0
  8
0
 10
3719.2438635808521212
 20
154.8135568963184028
 30
0.0
 40
1.123752110635341
 50
120.3297669256313043
 51
123.6550899208933032
  0
ARC
  5
13DD1
  8
0
 10
3718.6347437798867759
 20
155.8523424356021962
 30
0.0
 40
0.0804580448000074
 50
300.3658661598063873
 51
359.9999999999976126
  0
LINE
  5
13DD2
  8
0
 10
3715.3868370168861475
 20
155.391248984502198
 30
0.0
 11
3715.3868370168861475
 21
155.2337686695022114
 31
0.0
  0
LINE
  5
13DD3
  8
0
 10
3715.3868370168861475
 20
155.2337686695022114
 30
0.0
 11
3715.780537804287178
 21
155.2337686695022114
 31
0.0
  0
LINE
  5
13DD4
  8
0
 10
3715.780537804287178
 20
155.2337686695022114
 30
0.0
 11
3715.780537804287178
 21
155.391248984502198
 31
0.0
  0
LINE
  5
13DD5
  8
0
 10
3715.780537804287178
 20
155.391248984502198
 30
0.0
 11
3715.3868370168861475
 21
155.391248984502198
 31
0.0
  0
LINE
  5
13DD6
  8
0
 10
3715.4268943028869217
 20
155.391248984502198
 30
0.0
 11
3715.4241454737862114
 21
155.2337686695022114
 31
0.0
  0
LINE
  5
13DD7
  8
0
 10
3715.7392162148871648
 20
155.391248984502198
 30
0.0
 11
3715.7405905246869224
 21
155.2337686695022114
 31
0.0
  0
LINE
  5
13DD8
  8
0
 10
3715.4262070955878698
 20
155.3518789057021934
 30
0.0
 11
3715.7395520225750261
 21
155.3518789057021934
 31
0.0
  0
LINE
  5
13DD9
  8
0
 10
3715.4250450397898931
 20
155.2853047717021866
 30
0.0
 11
3715.7401407759662106
 21
155.2853047717021866
 31
0.0
  0
LINE
  5
13DDA
  8
0
 10
3719.5994354420868149
 20
155.391248984502198
 30
0.0
 11
3719.5994354420868149
 21
155.2337686695022114
 31
0.0
  0
LINE
  5
13DDB
  8
0
 10
3719.5994354420868149
 20
155.2337686695022114
 30
0.0
 11
3719.9931362294869359
 21
155.2337686695022114
 31
0.0
  0
LINE
  5
13DDC
  8
0
 10
3719.9931362294869359
 20
155.2337686695022114
 30
0.0
 11
3719.9931362294869359
 21
155.391248984502198
 31
0.0
  0
LINE
  5
13DDD
  8
0
 10
3719.9931362294869359
 20
155.391248984502198
 30
0.0
 11
3719.5994354420868149
 21
155.391248984502198
 31
0.0
  0
LINE
  5
13DDE
  8
0
 10
3719.6407570314868281
 20
155.391248984502198
 30
0.0
 11
3719.639382721587026
 21
155.2337686695022114
 31
0.0
  0
LINE
  5
13DDF
  8
0
 10
3719.955827772586872
 20
155.2337686695022114
 30
0.0
 11
3719.9530789433870268
 21
155.391248984502198
 31
0.0
  0
LINE
  5
13DE0
  8
0
 10
3719.6404134540111954
 20
155.3518789057021934
 30
0.0
 11
3719.9537661507010853
 21
155.3518789057021934
 31
0.0
  0
LINE
  5
13DE1
  8
0
 10
3719.6398324702868194
 20
155.2853047717021866
 30
0.0
 11
3719.9549282065518128
 21
155.2853047717021866
 31
0.0
  0
LINE
  5
13DE2
  8
0
 10
3722.1760643357870322
 20
156.7091060698022034
 30
0.0
 11
3721.9419551270871125
 21
156.7091060698022034
 31
0.0
  0
LINE
  5
13DE3
  8
0
 10
3721.9419551270871125
 20
156.7091060698022034
 30
0.0
 11
3721.9419551270871125
 21
156.3163478972022062
 31
0.0
  0
LINE
  5
13DE4
  8
0
 10
3721.9419551270871125
 20
156.3163478972022062
 30
0.0
 11
3722.1781755994870764
 21
156.3163478972022062
 31
0.0
  0
LINE
  5
13DE5
  8
0
 10
3714.3886086703869296
 20
159.1609475243022018
 30
0.0
 11
3714.3886086703869296
 21
158.3219385694389985
 31
0.0
  0
LINE
  5
13DE6
  8
0
 10
3714.9791598514871112
 20
159.1609475243022018
 30
0.0
 11
3714.9791598514871112
 21
158.3219385693880099
 31
0.0
  0
CIRCLE
  5
13DE8
  8
0
 10
3717.6899866231869964
 20
127.8938745208021999
 30
0.0
 40
1.2512006757999989
  0
CIRCLE
  5
13DE9
  8
0
 10
3714.6838842608872255
 20
157.7432997626021915
 30
0.0
 40
0.6496233856032695
  0
LINE
  5
13DEA
  8
0
 10
3712.3159824011868295
 20
163.0880987913133993
 30
0.0
 11
3712.3159824011868295
 21
163.1274694569021904
 31
0.0
  0
LINE
  5
13DEB
  8
0
 10
3712.3159824011868295
 20
163.1274694569021904
 30
0.0
 11
3713.300212578987157
 21
163.1274694569021904
 31
0.0
  0
LINE
  5
13DEC
  8
0
 10
3713.300212578987157
 20
163.1274694569021904
 30
0.0
 11
3713.3002228437399026
 21
163.0880987913133993
 31
0.0
  0
ENDSEC
  0
EOF
