  0
SECTION
  2
HEADER
  9
$ACADVER
  1
AC1009
  9
$INSBASE
 10
46.4468035580870833
 20
-74.9915532567733862
 30
0.0
  9
$EXTMIN
 10
43.223900431418059
 20
-77.8537628245597944
 30
-0.0000000000000058
  9
$EXTMAX
 10
49.669629551189928
 20
-74.9825213083685753
 30
0.0000000000000104
  9
$LIMMIN
 10
0.0
 20
0.0
  9
$LIMMAX
 10
11.6929133858000007
 20
8.2677165353999982
  9
$ORTHOMODE
 70
     0
  9
$REGENMODE
 70
     1
  9
$FILLMODE
 70
     1
  9
$QTEXTMODE
 70
     0
  9
$MIRRTEXT
 70
     0
  9
$DRAGMODE
 70
     2
  9
$LTSCALE
 40
0.6431102362
  9
$OSMODE
 70
  4095
  9
$ATTMODE
 70
     1
  9
$TEXTSIZE
 40
0.2
  9
$TRACEWID
 40
0.05
  9
$TEXTSTYLE
  7
STANDARD
  9
$CLAYER
  8
0
  9
$CELTYPE
  6
BYLAYER
  9
$CECOLOR
 62
   256
  9
$DIMSCALE
 40
1.0
  9
$DIMASZ
 40
0.1875
  9
$DIMEXO
 40
0.0625
  9
$DIMDLI
 40
0.4443307087
  9
$DIMRND
 40
0.0
  9
$DIMDLE
 40
0.0
  9
$DIMEXE
 40
0.125
  9
$DIMTP
 40
0.01
  9
$DIMTM
 40
0.01
  9
$DIMTXT
 40
1.0
  9
$DIMCEN
 40
0.1052362205
  9
$DIMTSZ
 40
0.0
  9
$DIMTOL
 70
     1
  9
$DIMLIM
 70
     0
  9
$DIMTIH
 70
     1
  9
$DIMTOH
 70
     1
  9
$DIMSE1
 70
     0
  9
$DIMSE2
 70
     0
  9
$DIMTAD
 70
     0
  9
$DIMZIN
 70
     0
  9
$DIMBLK
  1

  9
$DIMASO
 70
     1
  9
$DIMSHO
 70
     1
  9
$DIMPOST
  1
\X
  9
$DIMAPOST
  1

  9
$DIMALT
 70
     1
  9
$DIMALTD
 70
     2
  9
$DIMALTF
 40
25.3999999999999986
  9
$DIMLFAC
 40
1.0
  9
$DIMTOFL
 70
     0
  9
$DIMTVP
 40
0.0
  9
$DIMTIX
 70
     0
  9
$DIMSOXD
 70
     0
  9
$DIMSAH
 70
     0
  9
$DIMBLK1
  1

  9
$DIMBLK2
  1

  9
$DIMSTYLE
  2
STANDARD
  9
$DIMCLRD
 70
     0
  9
$DIMCLRE
 70
     0
  9
$DIMCLRT
 70
     0
  9
$DIMTFAC
 40
1.0
  9
$DIMGAP
 40
0.09
  9
$LUNITS
 70
     2
  9
$LUPREC
 70
     4
  9
$SKETCHINC
 40
0.1
  9
$FILLETRAD
 40
0.0
  9
$AUNITS
 70
     0
  9
$AUPREC
 70
     0
  9
$MENU
  1
.
  9
$ELEVATION
 40
0.0
  9
$PELEVATION
 40
0.0
  9
$THICKNESS
 40
0.0
  9
$LIMCHECK
 70
     0
  9
$BLIPMODE
 70
     0
  9
$CHAMFERA
 40
0.0
  9
$CHAMFERB
 40
0.0
  9
$SKPOLY
 70
     0
  9
$TDCREATE
 40
2458172.4620254631154239
  9
$TDUPDATE
 40
2459887.8544444451108575
  9
$TDINDWG
 40
0.1465568634
  9
$TDUSRTIMER
 40
0.1465568634
  9
$USRTIMER
 70
     1
  9
$ANGBASE
 50
0.0
  9
$ANGDIR
 70
     0
  9
$PDMODE
 70
     0
  9
$PDSIZE
 40
0.3125
  9
$PLINEWID
 40
0.0
  9
$COORDS
 70
     1
  9
$SPLFRAME
 70
     0
  9
$SPLINETYPE
 70
     6
  9
$SPLINESEGS
 70
     8
  9
$ATTDIA
 70
     1
  9
$ATTREQ
 70
     1
  9
$HANDLING
 70
     1
  9
$HANDSEED
  5
81AE
  9
$SURFTAB1
 70
     6
  9
$SURFTAB2
 70
     6
  9
$SURFTYPE
 70
     6
  9
$SURFU
 70
     6
  9
$SURFV
 70
     6
  9
$UCSNAME
  2

  9
$UCSORG
 10
0.0
 20
0.0
 30
0.0
  9
$UCSXDIR
 10
1.0
 20
0.0
 30
0.0
  9
$UCSYDIR
 10
0.0
 20
1.0
 30
0.0
  9
$PUCSNAME
  2

  9
$PUCSORG
 10
0.0
 20
0.0
 30
0.0
  9
$PUCSXDIR
 10
1.0
 20
0.0
 30
0.0
  9
$PUCSYDIR
 10
0.0
 20
1.0
 30
0.0
  9
$USERI1
 70
     0
  9
$USERI2
 70
     0
  9
$USERI3
 70
     0
  9
$USERI4
 70
     0
  9
$USERI5
 70
     0
  9
$USERR1
 40
0.0
  9
$USERR2
 40
0.0
  9
$USERR3
 40
0.0
  9
$USERR4
 40
0.0
  9
$USERR5
 40
0.0
  9
$WORLDVIEW
 70
     1
  9
$SHADEDGE
 70
     3
  9
$SHADEDIF
 70
    70
  9
$TILEMODE
 70
     1
  9
$MAXACTVP
 70
    64
  9
$PLIMCHECK
 70
     0
  9
$PEXTMIN
 10
1.0000000000000000E+20
 20
1.0000000000000000E+20
 30
1.0000000000000000E+20
  9
$PEXTMAX
 10
-1.0000000000000000E+20
 20
-1.0000000000000000E+20
 30
-1.0000000000000000E+20
  9
$PLIMMIN
 10
0.0
 20
0.0
  9
$PLIMMAX
 10
12.0
 20
9.0
  9
$UNITMODE
 70
     0
  9
$VISRETAIN
 70
     1
  9
$PLINEGEN
 70
     0
  9
$PSLTSCALE
 70
     1
  0
ENDSEC
  0
SECTION
  2
TABLES
  0
TABLE
  2
VPORT
 70
     1
  0
VPORT
  2
*ACTIVE
 70
     0
 10
0.0
 20
0.0
 11
1.0
 21
1.0
 12
-78.1643936087686484
 22
-81.7304162368420037
 13
0.0
 23
0.0
 14
1.0
 24
1.0
 15
0.0
 25
0.0
 16
0.0
 26
0.0
 36
30.6214257250603907
 17
124.6111586000725993
 27
5.3122741703778242
 37
0.0
 40
2.9670955113795801
 41
2.1792237442922371
 42
50.0
 43
0.0
 44
0.0
 50
0.0
 51
0.0
 71
     0
 72
   100
 73
     1
 74
     1
 75
     0
 76
     0
 77
     0
 78
     0
  0
ENDTAB
  0
TABLE
  2
LTYPE
 70
     2
  0
LTYPE
  2
CONTINUOUS
 70
     0
  3
Solid line
 72
    65
 73
     0
 40
0.0
  0
LTYPE
  2
PHANTOM2
 70
     0
  3
___ _ _ ___ _ _ ___ _ _ ___ _ _
 72
    65
 73
     6
 40
1.25
 49
0.625
 49
-0.125
 49
0.125
 49
-0.125
 49
0.125
 49
-0.125
  0
ENDTAB
  0
TABLE
  2
LAYER
 70
     2
  0
LAYER
  2
0
 70
     0
 62
   255
  6
CONTINUOUS
  0
LAYER
  2
DEFPOINTS
 70
     0
 62
     7
  6
CONTINUOUS
  0
ENDTAB
  0
TABLE
  2
STYLE
 70
     1
  0
STYLE
  2
STANDARD
 70
     0
 40
0.0
 41
0.8
 50
0.0
 71
     0
 42
0.2
  3
txt
  4

  0
ENDTAB
  0
TABLE
  2
VIEW
 70
     0
  0
ENDTAB
  0
TABLE
  2
UCS
 70
     0
  0
ENDTAB
  0
TABLE
  2
APPID
 70
     9
  0
APPID
  2
ACAD
 70
     0
  0
APPID
  2
ACAD_MLEADERVER
 70
     0
  0
APPID
  2
ACAD_EXEMPT_FROM_CAD_STANDARDS
 70
     0
  0
APPID
  2
ACAD_DSTYLE_DIMJAG
 70
     0
  0
APPID
  2
ACAD_DSTYLE_DIMTALN
 70
     0
  0
APPID
  2
ACAD_NAV_VCDISPLAY
 70
     0
  0
APPID
  2
ACAECLAYERSTANDARD
 70
     0
  0
APPID
  2
ACCMTRANSPARENCY
 70
     0
  0
APPID
  2
ACDBATTR
 70
     0
  0
ENDTAB
  0
TABLE
  2
DIMSTYLE
 70
     1
  0
DIMSTYLE
  2
STANDARD
 70
     0
  3

  4

  5

  6

  7

 40
1.0
 41
0.1875
 42
0.0625
 43
0.38
 44
0.125
 45
0.0
 46
0.0
 47
0.01
 48
0.01
140
0.15625
141
0.09
142
0.0
143
25.3999999999999986
144
1.0
145
0.0
146
1.0
147
0.09
 71
     1
 72
     0
 73
     1
 74
     1
 75
     0
 76
     0
 77
     0
 78
     4
170
     0
171
     2
172
     0
173
     0
174
     0
175
     0
176
     0
177
     0
178
     0
  0
ENDTAB
  0
ENDSEC
  0
SECTION
  2
BLOCKS
  0
BLOCK
  8
0
  2
$MODEL_SPACE
 70
     0
 10
0.0
 20
0.0
 30
0.0
  3
$MODEL_SPACE
  1

  0
ENDBLK
  5
21
  8
0
  0
BLOCK
 67
     1
  8
0
  2
$PAPER_SPACE
 70
     0
 10
0.0
 20
0.0
 30
0.0
  3
$PAPER_SPACE
  1

  0
ENDBLK
  5
1D
 67
     1
  8
0
  0
BLOCK
  8
0
  2
_FILLED
 70
     0
 10
0.0
 20
0.0
 30
0.0
  3
_FILLED
  1

  0
SOLID
  5
69C2
  8
0
  6
BYBLOCK
 62
     0
 10
0.0
 20
0.0
 30
0.0
 11
-1.0
 21
0.1666666667
 31
0.0
 12
-1.0
 22
-0.1666666667
 32
0.0
 13
-1.0
 23
-0.1666666667
 33
0.0
  0
ENDBLK
  5
69C3
  8
0
  6
BYBLOCK
 62
     0
  0
ENDSEC
  0
SECTION
  2
ENTITIES
  0
ATTDEF
  5
76B8
  8
DEFPOINTS
 10
46.447329159440649
 20
-74.9872996969683498
 30
0.0
 40
0.001
  1
K-75596A
  3

  2
MODELNUMBER
 70
     0
1001
ACDBATTR
1070
     0
1070
     1
  0
ATTDEF
  5
76B9
  8
DEFPOINTS
 10
46.447329159440649
 20
-74.988966363635015
 30
0.0
 40
0.001
  1
LOURE
  3

  2
TRADENAME
 70
     0
1001
ACDBATTR
1070
     0
1070
     1
  0
ATTDEF
  5
76BA
  8
DEFPOINTS
 10
46.447329159440649
 20
-74.9906330303016802
 30
0.0
 40
0.001
  1
VALVE TRIM
  3

  2
PRODUCT
 70
     0
1001
ACDBATTR
1070
     0
1070
     1
  0
LINE
  5
8060
  8
0
 10
45.3679457596459272
 20
-75.720711716339224
 30
0.0
 11
45.3679457596459272
 21
-75.7348609380330799
 31
0.0
  0
LINE
  5
8061
  8
0
 10
45.3975909597370872
 20
-75.7202021263587994
 30
0.0
 11
45.397590959737073
 21
-76.6844666425733834
 31
0.0
  0
LINE
  5
8062
  8
0
 10
45.397590959737073
 20
-76.9167501071733852
 30
0.0
 11
45.397590959737073
 21
-77.8072049152294483
 31
0.0
  0
LINE
  5
8063
  8
0
 10
47.525659720170438
 20
-75.7207103939733912
 30
0.0
 11
47.525659720170438
 21
-75.7345628550785079
 31
0.0
  0
LINE
  5
8064
  8
0
 10
47.4960161565370811
 20
-75.7201910921930192
 30
0.0
 11
47.4960161565370811
 21
-76.6844666425733834
 31
0.0
  0
LINE
  5
8065
  8
0
 10
47.4960161565370811
 20
-76.9167501071733852
 30
0.0
 11
47.4960161565370811
 21
-77.8072049152403196
 31
0.0
  0
LINE
  5
8066
  8
0
 10
43.2263290529370821
 20
-74.9915532567733862
 30
0.0
 11
49.6672739348370769
 21
-74.9915532567733862
 31
0.0
  0
LINE
  5
8067
  8
0
 10
49.6672739348370769
 20
-74.9915532567733862
 30
0.0
 11
49.6082142387014784
 21
-75.6666323431245189
 31
0.0
  0
ARC
  5
8068
  8
0
 10
49.5664089433990469
 20
-75.6604044938382714
 30
0.0
 40
0.0422666395879277
 50
273.9142680466339925
 51
351.5268056886648083
  0
ARC
  5
8069
  8
0
 10
46.40280528833852
 20
61.2892994336647234
 30
0.0
 40
137.0284628776063869
 50
270.4571096545798241
 51
271.3241234598334017
  0
ARC
  5
806A
  8
0
 10
47.5258986524967
 20
-75.7141883980178108
 30
0.0
 40
0.0203758579984912
 50
197.2916192837436995
 51
269.3281201880973867
  0
ARC
  5
806B
  8
0
 10
47.4943794786039035
 20
-77.0498044394080353
 30
0.0
 40
1.3296143545430681
 50
88.7570933230630743
 51
89.929472210227928
  0
ARC
  5
806C
  8
0
 10
47.5228293487143176
 20
-75.7395440341142603
 30
0.0
 40
0.0190451307040751
 50
81.4533904894748702
 51
88.8237918186385258
  0
LINE
  5
806D
  8
0
 10
43.2263290529370821
 20
-74.9915532567733862
 30
0.0
 11
43.2852134663796875
 21
-75.6645815725045736
 31
0.0
  0
ARC
  5
806E
  8
0
 10
43.3290408717180924
 20
-75.6607786058672218
 30
0.0
 40
0.0439920903565787
 50
184.9592151755016971
 51
231.009003377022907
  0
ARC
  5
806F
  8
0
 10
43.3246255831476788
 20
-75.6631768725073641
 30
0.0
 40
0.039396906790577
 50
233.8064483375547979
 51
269.545244933151082
  0
ARC
  5
8070
  8
0
 10
46.5989457541831626
 20
66.868351114708048
 30
0.0
 40
142.6085253120052982
 50
268.6842362064754184
 51
269.5173263770457197
  0
ARC
  5
8071
  8
0
 10
45.3676407501106027
 20
-75.7145179320596071
 30
0.0
 40
0.0203452924002871
 50
270.8589905428718794
 51
343.6541486099545182
  0
ARC
  5
8072
  8
0
 10
45.3854699252865004
 20
-76.0455677442228932
 30
0.0
 40
0.3253283498770966
 50
89.7016976580985386
 51
93.0877939856114835
  0
ARC
  5
8073
  8
0
 10
45.4081253581196123
 20
-79.660242939383366
 30
0.0
 40
3.9400548957912518
 50
89.6951766887610376
 51
90.3048233112389767
  0
LINE
  5
8074
  8
0
 10
45.4290870227370789
 20
-75.7202438035376417
 30
0.0
 11
47.4645200937370717
 21
-75.7202623692584638
 31
0.0
  0
ARC
  5
8075
  8
0
 10
47.4932411613873029
 20
-81.4527798569447299
 30
0.0
 40
5.7325894364026864
 50
89.9722646252229339
 51
90.2870609978764378
  0
ARC
  5
8076
  8
0
 10
45.4290870225996102
 20
-77.8072049152294483
 30
0.0
 40
0.0314960628625434
 50
179.9999998980219118
 51
268.7479747907676142
  0
ARC
  5
8077
  8
0
 10
46.4468035599312401
 20
-31.2413847557171209
 30
0.0
 40
46.6084362165308903
 50
268.7479747907672163
 51
271.2520252047343092
  0
ARC
  5
8078
  8
0
 10
47.4645200936055005
 20
-77.8072049152403196
 30
0.0
 40
0.0314960629315874
 50
271.252025204731126
 51
0.0000001217612003
  0
ARC
  5
8079
  8
0
 10
45.4172759989663675
 20
-76.6844666427440984
 30
0.0
 40
0.0196850392292882
 50
179.9999995031178059
 51
270.0000002054139827
  0
LINE
  5
807A
  8
0
 10
45.4172759990369386
 20
-76.7041516819733857
 30
0.0
 11
47.4763311171370006
 21
-76.7041516745913725
 31
0.0
  0
ARC
  5
807B
  8
0
 10
47.4763311170664295
 20
-76.684466635120728
 30
0.0
 40
0.0196850394706427
 50
270.0000002054180186
 51
359.999978308100026
  0
ARC
  5
807C
  8
0
 10
47.3720004085370689
 20
-76.6890468199733846
 30
0.0
 40
0.0196850393999996
 50
284.999975798781179
 51
309.8774808920907731
  0
LINE
  5
807D
  8
0
 10
47.377095271637387
 20
-76.7080611079213668
 30
0.0
 11
47.3121804764479919
 21
-76.7254549748817425
 31
0.0
  0
ARC
  5
807E
  8
0
 10
47.3325599297522572
 20
-76.8015121299888932
 30
0.0
 40
0.0787401610359908
 50
105.0000000103315045
 51
179.2914683105211964
  0
ARC
  5
807F
  8
0
 10
46.4478115228769113
 20
-76.7905705869083732
 30
0.0
 40
0.8060758994158009
 50
335.3984820031971026
 51
359.2914683105212248
  0
LINE
  5
8080
  8
0
 10
47.2483072433772477
 20
-76.8852540441733794
 30
0.0
 11
47.4645200935370681
 21
-76.8852540441733794
 31
0.0
  0
ARC
  5
8081
  8
0
 10
47.4645200935370681
 20
-76.9167501071733852
 30
0.0
 40
0.0314960629999988
 50
359.9999999999968168
 51
89.9999999999983658
  0
LINE
  5
8082
  8
0
 10
45.6452970919468868
 20
-76.8852540441733794
 30
0.0
 11
45.4290870227370789
 21
-76.8852540441733936
 31
0.0
  0
ARC
  5
8083
  8
0
 10
45.4290870227370789
 20
-76.9167501071733852
 30
0.0
 40
0.0314960630000005
 50
89.9999999999983658
 51
179.9999999999967031
  0
ARC
  5
8084
  8
0
 10
45.5216067077370781
 20
-76.6890468199733846
 30
0.0
 40
0.0196850394000057
 50
230.1225191079039973
 51
255.0000242012065996
  0
LINE
  5
8085
  8
0
 10
45.5165118526682235
 20
-76.7080611100733876
 30
0.0
 11
45.5814266623085018
 21
-76.7254549515052844
 31
0.0
  0
ARC
  5
8086
  8
0
 10
45.5610472602974994
 20
-76.8015120437414396
 30
0.0
 40
0.0787400870316121
 50
0.7062612029174752
 51
75.0000242012069407
  0
ARC
  5
8087
  8
0
 10
46.4456308783658969
 20
-76.7906075977292204
 30
0.0
 40
0.8059107391692183
 50
180.7062612029174034
 51
204.5983248844646027
  0
ARC
  5
8088
  8
0
 10
47.4487720825940187
 20
-76.9167501156830866
 30
0.0
 40
0.0314960835569392
 50
90.0501133148892592
 51
179.9999845196635988
  0
ARC
  5
8089
  8
0
 10
47.3132694101830396
 20
-76.9167501071733852
 30
0.0
 40
0.1040065888540429
 50
337.6004288631992267
 51
0.0
  0
ARC
  5
808A
  8
0
 10
47.2618161755796393
 20
-76.8955430647973373
 30
0.0
 40
0.1596588484442199
 50
321.6618341671468215
 51
337.6004288631992267
  0
ARC
  5
808B
  8
0
 10
47.1922785815389219
 20
-76.8405503318027741
 30
0.0
 40
0.2483136715909747
 50
306.0862221204841944
 51
321.6618341671468215
  0
ARC
  5
808C
  8
0
 10
46.9447781619819722
 20
-76.4985761735120917
 30
0.0
 40
0.6704535129762708
 50
290.6040458840237761
 51
305.965676187716781
  0
ARC
  5
808D
  8
0
 10
46.5728810197720975
 20
-75.4624158600740458
 30
0.0
 40
1.7712860727335711
 50
275.4828945315435931
 51
290.0695294451340942
  0
ARC
  5
808E
  8
0
 10
46.4489028141388829
 20
-74.5301865019565213
 30
0.0
 40
2.7113136531189079
 50
269.9554185953854244
 51
276.2085438794647985
  0
ARC
  5
808F
  8
0
 10
45.4448350335799205
 20
-76.9167501156831861
 30
0.0
 40
0.0314960835571648
 50
0.0000154805081083
 51
89.949886412950832
  0
ARC
  5
8090
  8
0
 10
45.5881404144408009
 20
-76.916750107173371
 30
0.0
 40
0.111809297303723
 50
180.0000000000065086
 51
218.939290707576788
  0
ARC
  5
8091
  8
0
 10
45.7189018304647092
 20
-76.8244016207438136
 30
0.0
 40
0.2717551406477036
 50
216.7559109104425943
 51
232.9249276381860909
  0
ARC
  5
8092
  8
0
 10
45.9471162800066111
 20
-76.5013166035606105
 30
0.0
 40
0.6672296841734388
 50
234.0151517645541901
 51
249.4459383402086985
  0
ARC
  5
8093
  8
0
 10
46.195178208042968
 20
-75.8776474705654351
 30
0.0
 40
1.3383553343183541
 50
248.8762912420928046
 51
256.0611281841365212
  0
ARC
  5
8094
  8
0
 10
46.3652013769674909
 20
-75.193179049205753
 30
0.0
 40
2.0436247051719501
 50
256.057278803893098
 51
263.9971191564025048
  0
ARC
  5
8095
  8
0
 10
46.4447044301082101
 20
-74.5301928927716943
 30
0.0
 40
2.711307246108595
 50
263.7914387074159777
 51
270.0441394234397876
  0
LINE
  5
8096
  8
0
 10
45.8727863939370835
 20
-77.1765926268733864
 30
0.0
 11
47.0190338676003776
 21
-77.1765926268733864
 31
0.0
  0
LINE
  5
8097
  8
0
 10
46.1941596363370692
 20
-77.1962776661733869
 30
0.0
 11
46.6994474798370689
 21
-77.1962776661733869
 31
0.0
  0
ARC
  5
8098
  8
0
 10
46.6994474798370689
 20
-77.2159627055684865
 30
0.0
 40
0.0196850393950943
 50
2.0000027016445721
 51
90.0
  0
LINE
  5
8099
  8
0
 10
46.7191205276056465
 20
-77.2152757066733813
 30
0.0
 11
46.719563361823667
 21
-77.2279568023592731
 31
0.0
  0
ARC
  5
809A
  8
0
 10
46.194159636294728
 20
-77.2159627054210631
 30
0.0
 40
0.019685039247678
 50
89.9999998767166147
 51
177.9999977127015995
  0
LINE
  5
809B
  8
0
 10
46.1744865886685076
 20
-77.2152757066733813
 30
0.0
 11
46.1740437566720772
 21
-77.2279567413700647
 31
0.0
  0
LINE
  5
809C
  8
0
 10
46.2499531644370734
 20
-77.1962776661733869
 30
0.0
 11
46.2499531644370734
 21
-77.1765926268733864
 31
0.0
  0
LINE
  5
809D
  8
0
 10
46.2597956841370674
 20
-77.1962776661733869
 30
0.0
 11
46.2597956841370674
 21
-77.1765926268733864
 31
0.0
  0
LINE
  5
809E
  8
0
 10
46.1514822363336776
 20
-77.2255978211412781
 30
0.0
 11
46.1526919388370729
 21
-77.1765926268733864
 31
0.0
  0
LINE
  5
809F
  8
0
 10
46.740915177437067
 20
-77.1765926268733864
 30
0.0
 11
46.742124887445037
 21
-77.2255978882415661
 31
0.0
  0
LINE
  5
80A0
  8
0
 10
46.6338114321370725
 20
-77.1962776661733869
 30
0.0
 11
46.6338114321370725
 21
-77.1765926268733864
 31
0.0
  0
LINE
  5
80A1
  8
0
 10
46.6436539518370807
 20
-77.1962776661733869
 30
0.0
 11
46.6436539518370807
 21
-77.1765926268733864
 31
0.0
  0
LINE
  5
80A2
  8
0
 10
45.4763311172189972
 20
-76.9167531338072337
 30
0.0
 11
45.6496538540518486
 21
-76.9167531338072337
 31
0.0
  0
LINE
  5
80A3
  8
0
 10
47.2439499031080814
 20
-76.9167531338072337
 30
0.0
 11
47.4172759989547501
 21
-76.9167531338072337
 31
0.0
  0
LINE
  5
80A4
  8
0
 10
45.397590959737073
 20
-77.2786669665099737
 30
0.0
 11
47.4960161565370811
 21
-77.2786669665099737
 31
0.0
  0
ENDSEC
  0
EOF
