  0
SECTION
  2
HEADER
  9
$ACADVER
  1
AC1009
  9
$INSBASE
 10
8614.9048303572162695
 20
2270.0087642418361611
 30
0.0
  9
$EXTMIN
 10
8604.3591131179055083
 20
2269.9335709025958749
 30
-0.0015258207003583
  9
$EXTMAX
 10
8625.4166064402052143
 20
2294.2631616815970119
 30
0.0000000349246037
  9
$LIMMIN
 10
0.0
 20
0.0
  9
$LIMMAX
 10
11.6929133858000007
 20
8.2677165353999982
  9
$ORTHOMODE
 70
     0
  9
$REGENMODE
 70
     1
  9
$FILLMODE
 70
     1
  9
$QTEXTMODE
 70
     0
  9
$MIRRTEXT
 70
     0
  9
$DRAGMODE
 70
     2
  9
$LTSCALE
 40
0.6431102362
  9
$OSMODE
 70
  4063
  9
$ATTMODE
 70
     1
  9
$TEXTSIZE
 40
0.2
  9
$TRACEWID
 40
0.05
  9
$TEXTSTYLE
  7
STANDARD
  9
$CLAYER
  8
0
  9
$CELTYPE
  6
BYLAYER
  9
$CECOLOR
 62
     1
  9
$DIMSCALE
 40
1.0
  9
$DIMASZ
 40
0.1875
  9
$DIMEXO
 40
0.0625
  9
$DIMDLI
 40
0.4443307087
  9
$DIMRND
 40
0.0
  9
$DIMDLE
 40
0.0
  9
$DIMEXE
 40
0.125
  9
$DIMTP
 40
0.01
  9
$DIMTM
 40
0.01
  9
$DIMTXT
 40
2.0
  9
$DIMCEN
 40
0.1052362205
  9
$DIMTSZ
 40
0.0
  9
$DIMTOL
 70
     1
  9
$DIMLIM
 70
     0
  9
$DIMTIH
 70
     1
  9
$DIMTOH
 70
     1
  9
$DIMSE1
 70
     0
  9
$DIMSE2
 70
     0
  9
$DIMTAD
 70
     0
  9
$DIMZIN
 70
     0
  9
$DIMBLK
  1

  9
$DIMASO
 70
     1
  9
$DIMSHO
 70
     1
  9
$DIMPOST
  1
\X
  9
$DIMAPOST
  1

  9
$DIMALT
 70
     1
  9
$DIMALTD
 70
     2
  9
$DIMALTF
 40
25.3999999999999986
  9
$DIMLFAC
 40
1.0
  9
$DIMTOFL
 70
     0
  9
$DIMTVP
 40
0.0
  9
$DIMTIX
 70
     0
  9
$DIMSOXD
 70
     0
  9
$DIMSAH
 70
     0
  9
$DIMBLK1
  1

  9
$DIMBLK2
  1

  9
$DIMSTYLE
  2
STANDARD
  9
$DIMCLRD
 70
     0
  9
$DIMCLRE
 70
     0
  9
$DIMCLRT
 70
     0
  9
$DIMTFAC
 40
1.0
  9
$DIMGAP
 40
0.09
  9
$LUNITS
 70
     2
  9
$LUPREC
 70
     4
  9
$SKETCHINC
 40
0.1
  9
$FILLETRAD
 40
0.0
  9
$AUNITS
 70
     0
  9
$AUPREC
 70
     0
  9
$MENU
  1
.
  9
$ELEVATION
 40
0.0
  9
$PELEVATION
 40
0.0
  9
$THICKNESS
 40
0.0
  9
$LIMCHECK
 70
     0
  9
$BLIPMODE
 70
     0
  9
$CHAMFERA
 40
0.0
  9
$CHAMFERB
 40
0.0
  9
$SKPOLY
 70
     0
  9
$TDCREATE
 40
2458060.468368056230247
  9
$TDUPDATE
 40
2459429.866516204085201
  9
$TDINDWG
 40
0.4605394676
  9
$TDUSRTIMER
 40
0.4605394676
  9
$USRTIMER
 70
     1
  9
$ANGBASE
 50
0.0
  9
$ANGDIR
 70
     0
  9
$PDMODE
 70
     0
  9
$PDSIZE
 40
0.3125
  9
$PLINEWID
 40
0.0
  9
$COORDS
 70
     1
  9
$SPLFRAME
 70
     0
  9
$SPLINETYPE
 70
     6
  9
$SPLINESEGS
 70
     8
  9
$ATTDIA
 70
     1
  9
$ATTREQ
 70
     1
  9
$HANDLING
 70
     1
  9
$HANDSEED
  5
120E3
  9
$SURFTAB1
 70
     6
  9
$SURFTAB2
 70
     6
  9
$SURFTYPE
 70
     6
  9
$SURFU
 70
     6
  9
$SURFV
 70
     6
  9
$UCSNAME
  2

  9
$UCSORG
 10
0.0
 20
0.0
 30
0.0
  9
$UCSXDIR
 10
1.0
 20
0.0
 30
0.0
  9
$UCSYDIR
 10
0.0
 20
1.0
 30
0.0
  9
$PUCSNAME
  2

  9
$PUCSORG
 10
0.0
 20
0.0
 30
0.0
  9
$PUCSXDIR
 10
1.0
 20
0.0
 30
0.0
  9
$PUCSYDIR
 10
0.0
 20
1.0
 30
0.0
  9
$USERI1
 70
     0
  9
$USERI2
 70
     0
  9
$USERI3
 70
     0
  9
$USERI4
 70
     0
  9
$USERI5
 70
     0
  9
$USERR1
 40
0.0
  9
$USERR2
 40
0.0
  9
$USERR3
 40
0.0
  9
$USERR4
 40
0.0
  9
$USERR5
 40
0.0
  9
$WORLDVIEW
 70
     1
  9
$SHADEDGE
 70
     3
  9
$SHADEDIF
 70
    70
  9
$TILEMODE
 70
     1
  9
$MAXACTVP
 70
    64
  9
$PLIMCHECK
 70
     0
  9
$PEXTMIN
 10
1.0000000000000000E+20
 20
1.0000000000000000E+20
 30
1.0000000000000000E+20
  9
$PEXTMAX
 10
-1.0000000000000000E+20
 20
-1.0000000000000000E+20
 30
-1.0000000000000000E+20
  9
$PLIMMIN
 10
0.0
 20
0.0
  9
$PLIMMAX
 10
12.0
 20
9.0
  9
$UNITMODE
 70
     0
  9
$VISRETAIN
 70
     1
  9
$PLINEGEN
 70
     0
  9
$PSLTSCALE
 70
     1
  0
ENDSEC
  0
SECTION
  2
TABLES
  0
TABLE
  2
VPORT
 70
     1
  0
VPORT
  2
*ACTIVE
 70
     0
 10
0.0
 20
0.0
 11
1.0
 21
1.0
 12
3799.589519935305816
 22
2034.2897420245190006
 13
0.0
 23
0.0
 14
1.0
 24
1.0
 15
0.0
 25
0.0
 16
0.0
 26
0.0
 36
9.5192988075487186
 17
4815.2983398437490905
 27
247.8086242675780966
 37
0.0
 40
24.6995324953516189
 41
2.39168765743073
 42
50.0
 43
0.0
 44
0.0
 50
0.0
 51
0.0
 71
     0
 72
   100
 73
     1
 74
     1
 75
     0
 76
     0
 77
     0
 78
     0
  0
ENDTAB
  0
TABLE
  2
LTYPE
 70
     2
  0
LTYPE
  2
CONTINUOUS
 70
     0
  3
Solid line
 72
    65
 73
     0
 40
0.0
  0
LTYPE
  2
PHANTOM2
 70
     0
  3
___ _ _ ___ _ _ ___ _ _ ___ _ _
 72
    65
 73
     6
 40
1.25
 49
0.625
 49
-0.125
 49
0.125
 49
-0.125
 49
0.125
 49
-0.125
  0
ENDTAB
  0
TABLE
  2
LAYER
 70
     2
  0
LAYER
  2
0
 70
     0
 62
   255
  6
CONTINUOUS
  0
LAYER
  2
DEFPOINTS
 70
     0
 62
     7
  6
CONTINUOUS
  0
ENDTAB
  0
TABLE
  2
STYLE
 70
     1
  0
STYLE
  2
STANDARD
 70
     0
 40
0.0
 41
0.8
 50
0.0
 71
     0
 42
0.2
  3
txt
  4

  0
ENDTAB
  0
TABLE
  2
VIEW
 70
     0
  0
ENDTAB
  0
TABLE
  2
UCS
 70
     0
  0
ENDTAB
  0
TABLE
  2
APPID
 70
    10
  0
APPID
  2
ACAD
 70
     0
  0
APPID
  2
ACAD_MLEADERVER
 70
     0
  0
APPID
  2
ACAD_EXEMPT_FROM_CAD_STANDARDS
 70
     0
  0
APPID
  2
ACAD_NAV_VCDISPLAY
 70
     0
  0
APPID
  2
ACAECLAYERSTANDARD
 70
     0
  0
APPID
  2
ACCMTRANSPARENCY
 70
     0
  0
APPID
  2
ACAD_DSTYLE_DIMJAG
 70
     0
  0
APPID
  2
ACAD_DSTYLE_DIMTALN
 70
     0
  0
APPID
  2
ACDBATTR
 70
     0
  0
APPID
  2
ACADANNOTATIVE
 70
     0
  0
ENDTAB
  0
TABLE
  2
DIMSTYLE
 70
     1
  0
DIMSTYLE
  2
STANDARD
 70
     0
  3

  4

  5

  6

  7

 40
1.0
 41
0.1875
 42
0.0625
 43
0.38
 44
0.125
 45
0.0
 46
0.0
 47
0.01
 48
0.01
140
0.15625
141
0.09
142
0.0
143
25.3999999999999986
144
1.0
145
0.0
146
1.0
147
0.09
 71
     1
 72
     0
 73
     1
 74
     1
 75
     0
 76
     0
 77
     0
 78
     4
170
     0
171
     2
172
     0
173
     0
174
     0
175
     0
176
     0
177
     0
178
     0
  0
ENDTAB
  0
ENDSEC
  0
SECTION
  2
BLOCKS
  0
BLOCK
  8
0
  2
$MODEL_SPACE
 70
     0
 10
0.0
 20
0.0
 30
0.0
  3
$MODEL_SPACE
  1

  0
ENDBLK
  5
21
  8
0
  0
BLOCK
 67
     1
  8
0
  2
$PAPER_SPACE
 70
     0
 10
0.0
 20
0.0
 30
0.0
  3
$PAPER_SPACE
  1

  0
ENDBLK
  5
1D
 67
     1
  8
0
  0
BLOCK
  8
0
  2
_FILLED
 70
     0
 10
0.0
 20
0.0
 30
0.0
  3
_FILLED
  1

  0
SOLID
  5
11EF3
  8
0
  6
BYBLOCK
 62
     0
 10
0.0
 20
0.0
 30
0.0
 11
-1.0
 21
0.1666666667
 31
0.0
 12
-1.0
 22
-0.1666666667
 32
0.0
 13
-1.0
 23
-0.1666666667
 33
0.0
  0
ENDBLK
  5
11EF4
  8
0
  6
BYBLOCK
 62
     0
  0
ENDSEC
  0
SECTION
  2
ENTITIES
  0
ATTDEF
  5
3930
  8
DEFPOINTS
 10
8614.9058693279548606
 20
2270.0072500844448768
 30
0.0
 40
0.001
  1
K-75920X-S
  3

  2
MODELNUMBER
 70
     0
1001
ACDBATTR
1070
     0
1070
     1
  0
ATTDEF
  5
3931
  8
DEFPOINTS
 10
8614.9058693279548606
 20
2270.0055834177787801
 30
0.0
 40
0.001
  1
SAN RAPHAEL
  3

  2
TRADENAME
 70
     0
1001
ACDBATTR
1070
     0
1070
     1
  0
ATTDEF
  5
3932
  8
DEFPOINTS
 10
8614.9058693279548606
 20
2270.0039167511117739
 30
0.0
 40
0.001
  1
TOILET
  3

  2
PRODUCT
 70
     0
1001
ACDBATTR
1070
     0
1070
     1
  0
ARC
  5
11FAE
  8
0
 10
8606.1769718126379303
 20
2292.9537833392350876
 30
0.0
 40
0.1191838274743965
 50
152.8812860337750124
 51
268.0081878287721793
  0
LINE
  5
11FAF
  8
0
 10
8606.1728293786272843
 20
2292.83467152214007
 30
0.0
 11
8623.6368313358052546
 21
2292.83467152214007
 31
0.0
  0
ARC
  5
11FB0
  8
0
 10
8606.5988167403320404
 20
2292.915845868219094
 30
0.0
 40
0.1511789634633543
 50
270.3514076070778174
 51
327.5242858583835073
  0
ARC
  5
11FB1
  8
0
 10
8606.276603975926264
 20
2292.614669330479046
 30
0.0
 40
0.1500008059611282
 50
90.1303675165041653
 51
169.3229172103874873
  0
LINE
  5
11FB2
  8
0
 10
8606.2762626730273041
 20
2292.7646697481500269
 30
0.0
 11
8623.5333980414052348
 21
2292.7646697481500269
 31
0.0
  0
ARC
  5
11FB3
  8
0
 10
8615.7971310579723649
 20
2187.3828465059877999
 30
0.0
 40
106.8126404867115014
 50
90.4786480199155818
 51
93.8564076623224679
  0
ARC
  5
11FB4
  8
0
 10
8609.3974467110892874
 20
2285.2425852614569521
 30
0.0
 40
8.7462705355407451
 50
95.1436375417202953
 51
106.2006371875323936
  0
ARC
  5
11FB5
  8
0
 10
8606.8440311171543726
 20
2292.641285177743157
 30
0.0
 40
0.8557499009822016
 50
136.521782261831504
 51
154.6174017488945935
  0
ARC
  5
11FB6
  8
0
 10
8607.4444698584193247
 20
2291.9114042884411901
 30
0.0
 40
1.7974434336435789
 50
105.728453067579494
 51
132.8062725944126896
  0
LINE
  5
11FB7
  8
0
 10
8605.9981981564033049
 20
2291.930780103296911
 30
0.0
 11
8606.1292001367655757
 21
2292.6424605159500061
 31
0.0
  0
LINE
  5
11FB8
  8
0
 10
8605.4330383541237097
 20
2291.0969402965210975
 30
0.0
 11
8605.5729205135667144
 21
2291.8449970499000301
 31
0.0
  0
LINE
  5
11FB9
  8
0
 10
8606.2954293426428194
 20
2290.9203049409188679
 30
0.0
 11
8606.4452639608698519
 21
2291.7221493067431766
 31
0.0
  0
LINE
  5
11FBA
  8
0
 10
8606.150064739265872
 20
2290.7828835596501449
 30
0.0
 11
8605.5430607261660043
 21
2290.9296858289490046
 31
0.0
  0
LINE
  5
11FBB
  8
0
 10
8606.376102672666093
 20
2291.8806909055501819
 30
0.0
 11
8605.7588518967659184
 21
2291.9625041542499275
 31
0.0
  0
ARC
  5
11FBC
  8
0
 10
8606.3540358230766287
 20
2291.7421672477648826
 30
0.0
 40
0.1402702734615082
 50
44.5001704939592884
 51
80.9488208115118084
  0
ARC
  5
11FBD
  8
0
 10
8605.848873477858433
 20
2291.8260939216238512
 30
0.0
 40
0.6053809471637611
 50
350.1132567751266151
 51
1.3620918397255179
  0
ARC
  5
11FBE
  8
0
 10
8605.8073013682005694
 20
2290.9992659533008919
 30
0.0
 40
0.4944732155604843
 50
336.8204999667128732
 51
350.8112629616190929
  0
ARC
  5
11FBF
  8
0
 10
8606.1788334514185408
 20
2290.9331894454571739
 30
0.0
 40
0.1530343036946389
 50
259.1645726750055019
 51
302.8558950591885264
  0
ARC
  5
11FC0
  8
0
 10
8605.5833322953512834
 20
2291.0759914168302203
 30
0.0
 40
0.1517469087976911
 50
172.0648927130800985
 51
254.6100846826259101
  0
ARC
  5
11FC1
  8
0
 10
8605.728562790018259
 20
2291.8045774994798194
 30
0.0
 40
0.1608050318691787
 50
79.1429556965699135
 51
165.4421435549672026
  0
ARC
  5
11FC2
  8
0
 10
8607.0805779389484087
 20
2285.3110672713701206
 30
0.0
 40
0.5772685604751889
 50
189.0780245608378038
 51
257.5467071267618735
  0
ARC
  5
11FC3
  8
0
 10
8635.2255067913210951
 20
2287.472165204031171
 30
0.0
 40
28.8031530747998197
 50
169.6590582846073119
 51
184.4846550480432938
  0
ARC
  5
11FC4
  8
0
 10
8607.0370044623869035
 20
2292.6153986618201088
 30
0.0
 40
0.1492790335483221
 50
90.5912181176706355
 51
169.5472355670538036
  0
LINE
  5
11FC5
  8
0
 10
8606.9560936266661884
 20
2284.7473806146999777
 30
0.0
 11
8622.8535670877663506
 21
2284.7473806146999777
 31
0.0
  0
ARC
  5
11FC6
  8
0
 10
8614.776483516632652
 20
2224.2154319043020223
 30
0.0
 40
62.7675545099991581
 50
83.6891526543781055
 51
89.8828417410528573
  0
ARC
  5
11FC7
  8
0
 10
8615.0256760784868675
 20
2224.2223862379819366
 30
0.0
 40
62.7605852991655411
 50
90.1103232872833786
 51
96.3187709767473734
  0
ARC
  5
11FC8
  8
0
 10
8608.145737868580909
 20
2286.3472388483942268
 30
0.0
 40
0.255939498080417
 50
96.1655192672708239
 51
170.6157421575539956
  0
LINE
  5
11FC9
  8
0
 10
8607.7531157675657596
 20
2285.5178535922500487
 30
0.0
 11
8607.8932236091641244
 21
2286.3889710358498633
 31
0.0
  0
ARC
  5
11FCA
  8
0
 10
8612.8552306981346192
 20
2285.0548103456808349
 30
0.0
 40
5.1230836234583617
 50
174.8143186279357053
 51
176.5742983525437069
  0
ARC
  5
11FCB
  8
0
 10
8618.2251589063398569
 20
1842.6870128616430975
 30
0.0
 40
443.8526666044650142
 50
90.428618823199983
 51
91.2991490704876441
  0
ARC
  5
11FCC
  8
0
 10
8608.1619173284889257
 20
2285.4213775459520548
 30
0.0
 40
1.0042078850991649
 50
90.0000989529075497
 51
105.5195893648918002
  0
ARC
  5
11FCD
  8
0
 10
8619.3993048449337948
 20
2021.8354166371989322
 30
0.0
 40
263.8088868526696729
 50
90.9761872749570841
 51
92.5065512717982159
  0
ARC
  5
11FCE
  8
0
 10
8607.8762946414481121
 20
2285.0375168481168657
 30
0.0
 40
0.3546702610418152
 50
92.3119197978254959
 51
111.5562613221234045
  0
ARC
  5
11FCF
  8
0
 10
8608.4533012974752637
 20
2285.0394492040441037
 30
0.0
 40
0.2500760228556043
 50
13.5917644938364699
 51
88.1448843893896026
  0
ARC
  5
11FD0
  8
0
 10
8608.782782184665848
 20
2285.1180442875111112
 30
0.0
 40
0.0886537555390486
 50
192.9229784800079983
 51
270.2222054455336888
  0
LINE
  5
11FD1
  8
0
 10
8608.0443532457647962
 20
2285.2893941576489851
 30
0.0
 11
8621.7653074686695618
 21
2285.2893941576489851
 31
0.0
  0
ARC
  5
11FD2
  8
0
 10
8608.2782578919795924
 20
2288.5154752533521787
 30
0.0
 40
3.234549523437908
 50
262.0429580240974019
 51
265.8530679520723083
  0
ARC
  5
11FD3
  8
0
 10
8607.8662581237822451
 20
2285.5341461180719307
 30
0.0
 40
0.2249394101117047
 50
250.3090100077637032
 51
260.8523047518426097
  0
ARC
  5
11FD4
  8
0
 10
8609.7495982763830398
 20
2261.0411217069390659
 30
0.0
 40
24.3778965277096411
 50
91.4479900133143815
 51
94.2103865896821162
  0
ARC
  5
11FD5
  8
0
 10
8623.2182011328513909
 20
1694.6391142602690252
 30
0.0
 40
590.9399916327623714
 50
90.8060662309896287
 51
91.3657321024343645
  0
ARC
  5
11FD6
  8
0
 10
8607.6431705668001086
 20
2280.713241237002876
 30
0.0
 40
5.0259734126577102
 50
57.8687069705229433
 51
65.5746533342108791
  0
ARC
  5
11FD7
  8
0
 10
8610.3924473065890197
 20
2285.0726808455187893
 30
0.0
 40
0.2236005058731199
 50
4.2460595366424529
 51
75.7424968657011135
  0
ARC
  5
11FD8
  8
0
 10
8610.7049281579002127
 20
2285.0987650864872194
 30
0.0
 40
0.0899999304277976
 50
186.0776698007396135
 51
270.0107721665871168
  0
LINE
  5
11FD9
  8
0
 10
8610.7049450787653768
 20
2285.0087651576500321
 30
0.0
 11
8611.8887407571091899
 21
2285.0087651576500321
 31
0.0
  0
ARC
  5
11FDA
  8
0
 10
8611.8777878237906407
 20
2285.1406653974008805
 30
0.0
 40
0.1323542216726536
 50
274.7469234302445216
 51
314.403614507780901
  0
LINE
  5
11FDB
  8
0
 10
8608.7831260022758215
 20
2285.029391198671874
 30
0.0
 11
8610.1711392319666629
 21
2285.0293941576501311
 31
0.0
  0
ARC
  5
11FDC
  8
0
 10
8610.1711442421546963
 20
2285.119394160372849
 30
0.0
 40
0.0900000028630856
 50
269.996810414630886
 51
292.9793323076705178
  0
ARC
  5
11FDD
  8
0
 10
8615.9660445308018097
 20
2219.6783560177809704
 30
0.0
 40
74.1828044546696503
 50
90.8196666030703739
 51
94.9476310056683701
  0
ARC
  5
11FDE
  8
0
 10
8608.5427726581074239
 20
2291.6792666487190218
 30
0.0
 40
1.6803911832615941
 50
102.9717395055745044
 51
129.9841938905425991
  0
ARC
  5
11FDF
  8
0
 10
8610.5512377443228615
 20
2284.634842589830896
 30
0.0
 40
9.0037410339545385
 50
96.2685194083874762
 51
105.3647871431214043
  0
ARC
  5
11FE0
  8
0
 10
8607.3155943033234507
 20
2292.9395829209061048
 30
0.0
 40
0.1498940548000267
 50
315.5807242181764991
 51
10.4688860752178901
  0
LINE
  5
11FE1
  8
0
 10
8610.3162906652669335
 20
2284.9693941576501857
 30
0.0
 11
8619.4933700491656055
 21
2284.9693941576501857
 31
0.0
  0
ARC
  5
11FE2
  8
0
 10
8612.1367398769361898
 20
2284.8985202380090413
 30
0.0
 40
0.2223779860249356
 50
24.4459401630141002
 51
138.4189637460468987
  0
ARC
  5
11FE3
  8
0
 10
8612.2237958945261198
 20
2285.0697630089762242
 30
0.0
 40
0.1399607766090334
 50
325.5295832048489046
 51
5.854545959462194
  0
ARC
  5
11FE4
  8
0
 10
8611.7045001495371253
 20
2285.0198109206257868
 30
0.0
 40
0.6616513059198833
 50
5.5706528400354927
 51
24.0441234787636695
  0
ARC
  5
11FE5
  8
0
 10
8607.8350427231653157
 20
2285.3274450308740597
 30
0.0
 40
0.0031368255335365
 50
129.7209613940511019
 51
224.0376751435892118
  0
ARC
  5
11FE6
  8
0
 10
8607.8464923166648077
 20
2285.3398824016358049
 30
0.0
 40
0.0200374265758941
 50
226.8468910753379078
 51
248.5572859074590895
  0
ARC
  5
11FE7
  8
0
 10
8607.84852883140411
 20
2285.3117599053698541
 30
0.0
 40
0.0238221390112978
 50
106.0805525708958044
 51
130.5615563513561028
  0
ARC
  5
11FE8
  8
0
 10
8608.0230892224226409
 20
2284.5684365217462073
 30
0.0
 40
0.7873382776080975
 50
94.6107895108294343
 51
103.3023843837708995
  0
ARC
  5
11FE9
  8
0
 10
8608.2735824835326639
 20
2287.4968206770840879
 30
0.0
 40
2.2185362678744198
 50
258.7078577205962802
 51
264.2636204680648007
  0
ARC
  5
11FEA
  8
0
 10
8607.9005907589144044
 20
2285.5383573006211009
 30
0.0
 40
0.2424505426263314
 50
229.7220036051600971
 51
242.9853856980832916
  0
ARC
  5
11FEB
  8
0
 10
8607.7498805248833378
 20
2285.3596260707959118
 30
0.0
 40
0.0086785463771004
 50
116.6815579293346019
 51
225.957300218458613
  0
ARC
  5
11FEC
  8
0
 10
8612.6981757139510592
 20
2284.1387799437920876
 30
0.0
 40
8.1396560114961414
 50
188.8374356592530035
 51
196.8253397176015937
  0
ARC
  5
11FED
  8
0
 10
8606.9738474759706151
 20
2282.4458004736061412
 30
0.0
 40
2.1706413440538261
 50
197.7869997749554898
 51
218.6967634834238083
  0
ARC
  5
11FEE
  8
0
 10
8605.8559088704841997
 20
2281.5246931640308503
 30
0.0
 40
0.7225293329823249
 50
217.1138302043002
 51
252.6303501375734015
  0
ARC
  5
11FEF
  8
0
 10
8610.0836518928390433
 20
2299.7943786536829975
 30
0.0
 40
19.4730063294190998
 50
256.8097747622517204
 51
259.9550997124164269
  0
ARC
  5
11FF0
  8
0
 10
8606.2764268429527874
 20
2277.9975096834400574
 30
0.0
 40
2.6543302460756402
 50
55.1587469809213289
 51
81.0979630012965913
  0
ARC
  5
11FF1
  8
0
 10
8606.5790891944998293
 20
2276.3031399855040036
 30
0.0
 40
3.7333289012350459
 50
358.0674421255333755
 51
36.1875352354223025
  0
ARC
  5
11FF2
  8
0
 10
8599.9011327553180308
 20
2268.1466241683237968
 30
0.0
 40
14.3869969951953607
 50
51.6034542328093266
 51
56.733653794059002
  0
LINE
  5
11FF3
  8
0
 10
8607.5474594044662808
 20
2280.3277339822579961
 30
0.0
 11
8607.5474594044662808
 21
2279.4797614684489417
 31
0.0
  0
LINE
  5
11FF4
  8
0
 10
8607.5474594044662808
 20
2279.4797614684489417
 30
0.0
 11
8607.6174594044641708
 21
2279.4097614684501423
 31
0.0
  0
LINE
  5
11FF5
  8
0
 10
8607.6174594044641708
 20
2279.4097614684501423
 30
0.0
 11
8608.4056094044663041
 21
2279.4097614684501423
 31
0.0
  0
LINE
  5
11FF6
  8
0
 10
8608.4056094044663041
 20
2279.4097614684501423
 30
0.0
 11
8608.4756094044660131
 21
2279.4797614684489417
 31
0.0
  0
LINE
  5
11FF7
  8
0
 10
8608.4756094044660131
 20
2279.4797614684489417
 30
0.0
 11
8608.4756094044660131
 21
2279.6992876159010848
 31
0.0
  0
ARC
  5
11FF8
  8
0
 10
8604.4721602098215953
 20
2275.0489585172531406
 30
0.0
 40
6.1786622348134923
 50
34.0378952338668697
 51
45.0554455196914034
  0
LINE
  5
11FF9
  8
0
 10
8609.352337342717874
 20
2270.0087642418361611
 30
0.0
 11
8610.3102946320686897
 21
2276.1772405515489481
 31
0.0
  0
LINE
  5
11FFA
  8
0
 10
8609.352337342717874
 20
2270.0087642418361611
 30
0.0
 11
8620.457323371714665
 21
2270.0087642418361611
 31
0.0
  0
ARC
  5
11FFB
  8
0
 10
8612.4031442217201402
 20
2271.0467942554828369
 30
0.0
 40
2.4651178637418489
 50
160.6290346444135935
 51
183.1887364384976991
  0
LINE
  5
11FFC
  8
0
 10
8610.1150404583222553
 20
2271.9242442450390627
 30
0.0
 11
8610.1274703750186745
 21
2271.9271277317448039
 31
0.0
  0
LINE
  5
11FFD
  8
0
 10
8609.9615224250228493
 20
2270.8658411589822208
 30
0.0
 11
8609.9711464960200829
 21
2270.8604579031612047
 31
0.0
  0
ARC
  5
11FFE
  8
0
 10
8610.1265774997154949
 20
2271.9220598572519521
 30
0.0
 40
0.005145928310985
 50
42.8797832357578699
 51
80.0079793095839449
  0
ARC
  5
11FFF
  8
0
 10
8610.2256016836272465
 20
2271.7827666576908996
 30
0.0
 40
0.1795541485522112
 50
128.0067439671244927
 51
134.8836513888095965
  0
ARC
  5
12000
  8
0
 10
8610.2972278770103003
 20
2271.7918808576569063
 30
0.0
 40
0.2313250502893212
 50
153.1844385826096016
 51
161.7216413559538921
  0
ARC
  5
12001
  8
0
 10
8610.3914437247622118
 20
2271.7280411594451834
 30
0.0
 40
0.344512696256039
 50
148.1209000059469929
 51
150.7769069822944914
  0
ARC
  5
12002
  8
0
 10
8610.0609194431763171
 20
2271.8894140267379953
 30
0.0
 40
0.0782752222369222
 50
18.2735125607052709
 51
27.5032725911871587
  0
LINE
  5
12003
  8
0
 10
8609.9711464960200829
 20
2270.8604579031612047
 30
0.0
 11
8609.9728097601982881
 21
2270.8597225719540802
 31
0.0
  0
ARC
  5
12004
  8
0
 10
8609.9541959528614825
 20
2271.0360438410489223
 30
0.0
 40
0.1773010540258041
 50
276.0262556132569216
 51
276.9076482207385084
  0
ARC
  5
12005
  8
0
 10
8609.8423835689900443
 20
2270.9674550059808098
 30
0.0
 40
0.1710714723635278
 50
321.1005688011593975
 51
339.5269011890397906
  0
ARC
  5
12006
  8
0
 10
8605.5890485029358388
 20
2272.042649917359995
 30
0.0
 40
4.5572105345894753
 50
345.5779584015244268
 51
354.3810053720043811
  0
ARC
  5
12007
  8
0
 10
8608.4631116147302237
 20
2271.8123394878389263
 30
0.0
 40
1.675220561159694
 50
352.5952430970085061
 51
3.4776671894116902
  0
ARC
  5
12008
  8
0
 10
8609.9915451409415255
 20
2270.9062608390649984
 30
0.0
 40
0.0503499156827731
 50
201.5763198086318937
 51
233.3959690448033939
  0
LINE
  5
12009
  8
0
 10
8609.9447233168139064
 20
2270.8877451485031997
 30
0.0
 11
8609.9418430540481495
 21
2270.9096715216169287
 31
0.0
  0
LINE
  5
1200A
  8
0
 10
8607.5474594044662808
 20
2279.4797614684489417
 30
0.0
 11
8608.4756094044660131
 21
2279.4797614684489417
 31
0.0
  0
LINE
  5
1200B
  8
0
 10
8604.6551519622917112
 20
2282.8882724805048383
 30
0.0
 11
8625.1545087521408277
 21
2282.8882724805048383
 31
0.0
  0
ARC
  5
1200C
  8
0
 10
8623.6326889017946087
 20
2292.9537833392350876
 30
0.0
 40
0.1191838274743965
 50
271.9918121712278207
 51
27.1187139662249983
  0
ARC
  5
1200D
  8
0
 10
8623.2108439741004986
 20
2292.915845868219094
 30
0.0
 40
0.1511789634633543
 50
212.4757141416164927
 51
269.6485923929221826
  0
ARC
  5
1200E
  8
0
 10
8623.533056738506275
 20
2292.614669330479046
 30
0.0
 40
0.1500008059611282
 50
10.6770827896124398
 51
89.8696324834958347
  0
ARC
  5
1200F
  8
0
 10
8614.012529656460174
 20
2187.3828465059868904
 30
0.0
 40
106.8126404867118993
 50
86.1435923376775321
 51
89.5213519800844324
  0
ARC
  5
12010
  8
0
 10
8620.4122140033432515
 20
2285.2425852614569521
 30
0.0
 40
8.7462705355407451
 50
73.7993628124675212
 51
84.8563624582797331
  0
ARC
  5
12011
  8
0
 10
8622.9656295972763473
 20
2292.641285177743157
 30
0.0
 40
0.8557499009822016
 50
25.3825982511053603
 51
43.4782177381684889
  0
ARC
  5
12012
  8
0
 10
8622.3651908560132142
 20
2291.9114042884411901
 30
0.0
 40
1.7974434336435789
 50
47.1937274055872322
 51
74.2715469324204918
  0
LINE
  5
12013
  8
0
 10
8623.8114625580292341
 20
2291.930780103296911
 30
0.0
 11
8623.6804605776651442
 21
2292.6424605159500061
 31
0.0
  0
ARC
  5
12014
  8
0
 10
8622.7290827754823113
 20
2285.3110672713701206
 30
0.0
 40
0.5772685604751889
 50
282.4532928732381265
 51
350.9219754391621109
  0
ARC
  5
12015
  8
0
 10
8594.5841539231114439
 20
2287.472165204031171
 30
0.0
 40
28.8031530747998197
 50
355.5153449519567062
 51
10.3409417153927201
  0
ARC
  5
12016
  8
0
 10
8622.7726562520456355
 20
2292.6153986618201088
 30
0.0
 40
0.1492790335483221
 50
10.4527644329461502
 51
89.4087818823293787
  0
ARC
  5
12017
  8
0
 10
8621.6264879177233524
 20
2286.3048021123531726
 30
0.0
 40
0.3019187623183741
 50
16.1874069530868283
 51
80.5518761630687266
  0
LINE
  5
12018
  8
0
 10
8622.0565449468667794
 20
2285.5178535922500487
 30
0.0
 11
8621.9164371052684146
 21
2286.3889710358498633
 31
0.0
  0
ARC
  5
12019
  8
0
 10
8616.9544300162961008
 20
2285.0548103456808349
 30
0.0
 40
5.1230836234583617
 50
3.4257016474562518
 51
5.1856813720643018
  0
ARC
  5
1201A
  8
0
 10
8611.5845645711433463
 20
1842.690011652945941
 30
0.0
 40
443.849667161018715
 50
88.7008502527399685
 51
89.5713909821312342
  0
ARC
  5
1201B
  8
0
 10
8621.6477433859436132
 20
2285.4213775459520548
 30
0.0
 40
1.0042078850991649
 50
74.4804106351081288
 51
89.9999010470924645
  0
ARC
  5
1201C
  8
0
 10
8610.4103558695096581
 20
2021.8354166375020213
 30
0.0
 40
263.8088868523669248
 50
87.4934487282017699
 51
89.0238127250429159
  0
ARC
  5
1201D
  8
0
 10
8621.9333660729826079
 20
2285.0375168481168657
 30
0.0
 40
0.3546702610418152
 50
68.4437386778765955
 51
87.6880802021744756
  0
ARC
  5
1201E
  8
0
 10
8621.3563594169572752
 20
2285.0394492040441037
 30
0.0
 40
0.2500760228556043
 50
91.8551156106103832
 51
166.4082355061634928
  0
ARC
  5
1201F
  8
0
 10
8621.0268785297666909
 20
2285.1180442875111112
 30
0.0
 40
0.0886537555390486
 50
269.7777945544661975
 51
347.0770215199920017
  0
ARC
  5
12020
  8
0
 10
8621.5314028224529466
 20
2288.5154752533521787
 30
0.0
 40
3.234549523437908
 50
274.1469320479278053
 51
277.9570419759027118
  0
ARC
  5
12021
  8
0
 10
8621.9434025906484749
 20
2285.5341461180719307
 30
0.0
 40
0.2249394101117047
 50
279.1476952481573903
 51
289.6909899922362115
  0
ARC
  5
12022
  8
0
 10
8620.0600624380494992
 20
2261.0411217069390659
 30
0.0
 40
24.3778965277096411
 50
85.7896134103178838
 51
88.5520099866856185
  0
ARC
  5
12023
  8
0
 10
8606.5914595815811481
 20
1694.6391142603069966
 30
0.0
 40
590.9399916327248548
 50
88.6342678975656355
 51
89.1939337690103855
  0
ARC
  5
12024
  8
0
 10
8622.1664901476306113
 20
2280.713241237002876
 30
0.0
 40
5.0259734126577102
 50
114.4253466657891067
 51
122.1312930294770069
  0
ARC
  5
12025
  8
0
 10
8619.4172134078435192
 20
2285.0726808455187893
 30
0.0
 40
0.2236005058731199
 50
104.2575031342988012
 51
175.7539404633575089
  0
ARC
  5
12026
  8
0
 10
8619.1047325565323263
 20
2285.0987650864872194
 30
0.0
 40
0.0899999304277976
 50
269.9892278334128832
 51
353.9223301992602728
  0
LINE
  5
12027
  8
0
 10
8619.1047156356671621
 20
2285.0087651576500321
 30
0.0
 11
8617.9209199573233491
 21
2285.0087651576500321
 31
0.0
  0
ARC
  5
12028
  8
0
 10
8617.9318728906418983
 20
2285.1406653974008805
 30
0.0
 40
0.1323542216726536
 50
225.5963854922190137
 51
265.2530765697554216
  0
LINE
  5
12029
  8
0
 10
8621.0265347121548984
 20
2285.029391198671874
 30
0.0
 11
8619.638521482465876
 21
2285.0293941576501311
 31
0.0
  0
ARC
  5
1202A
  8
0
 10
8619.6385164722778427
 20
2285.119394160372849
 30
0.0
 40
0.0900000028630856
 50
247.0206676923295106
 51
270.003189585369114
  0
ARC
  5
1202B
  8
0
 10
8613.8436161836307292
 20
2219.6783560177859727
 30
0.0
 40
74.182804454664165
 50
85.0523689943316441
 51
89.1803333969296261
  0
ARC
  5
1202C
  8
0
 10
8621.266888056325115
 20
2291.6792666487190218
 30
0.0
 40
1.6803911832615941
 50
50.0158061094573227
 51
77.028260494425453
  0
ARC
  5
1202D
  8
0
 10
8619.2584229701096774
 20
2284.634842589830896
 30
0.0
 40
9.0037410339545385
 50
74.6352128568785247
 51
83.731480591612538
  0
ARC
  5
1202E
  8
0
 10
8622.4940664111090882
 20
2292.9395829209061048
 30
0.0
 40
0.1498940548000267
 50
169.5311139247820904
 51
224.4192757818235009
  0
ARC
  5
1202F
  8
0
 10
8617.6729208374963491
 20
2284.8985202380090413
 30
0.0
 40
0.2223779860249356
 50
41.5810362539530587
 51
155.554059836985914
  0
ARC
  5
12030
  8
0
 10
8617.5858648199064191
 20
2285.0697630089762242
 30
0.0
 40
0.1399607766090334
 50
174.1454540405377998
 51
214.470416795151209
  0
ARC
  5
12031
  8
0
 10
8618.1051605648954137
 20
2285.0198109206257868
 30
0.0
 40
0.6616513059198833
 50
155.9558765212362914
 51
174.4293471599644931
  0
ARC
  5
12032
  8
0
 10
8621.9746179912672233
 20
2285.3274450308740597
 30
0.0
 40
0.0031368255335365
 50
315.9623248564108167
 51
50.2790386059488768
  0
ARC
  5
12033
  8
0
 10
8621.9631683977677312
 20
2285.3398824016358049
 30
0.0
 40
0.0200374265758941
 50
291.4427140925408821
 51
313.1531089246620922
  0
ARC
  5
12034
  8
0
 10
8621.96113188302661
 20
2285.3117599053698541
 30
0.0
 40
0.0238221390112978
 50
49.4384436486438688
 51
73.9194474291041388
  0
ARC
  5
12035
  8
0
 10
8621.7865714920098981
 20
2284.5684365217462073
 30
0.0
 40
0.7873382776080975
 50
76.6976156162291147
 51
85.3892104891705515
  0
ARC
  5
12036
  8
0
 10
8621.536078230901694
 20
2287.4968206770840879
 30
0.0
 40
2.2185362678744198
 50
275.7363795319351993
 51
281.2921422794037198
  0
ARC
  5
12037
  8
0
 10
8621.9090699555181345
 20
2285.5383573006211009
 30
0.0
 40
0.2424505426263314
 50
297.0146143019168221
 51
310.2779963948398745
  0
ARC
  5
12038
  8
0
 10
8622.0597801895492012
 20
2285.3596260707959118
 30
0.0
 40
0.0086785463771004
 50
314.042699781541387
 51
63.3184420706654123
  0
ARC
  5
12039
  8
0
 10
8617.1114850004814798
 20
2284.1387799437920876
 30
0.0
 40
8.1396560114961414
 50
343.1746602823984063
 51
351.1625643407469965
  0
ARC
  5
1203A
  8
0
 10
8622.8358132384637429
 20
2282.4458004736061412
 30
0.0
 40
2.1706413440538261
 50
321.3032365165761917
 51
342.2130002250444818
  0
ARC
  5
1203B
  8
0
 10
8623.9537518439483392
 20
2281.5246931640308503
 30
0.0
 40
0.7225293329823249
 50
287.3696498624266269
 51
322.8861697956999137
  0
ARC
  5
1203C
  8
0
 10
8619.7260088215934957
 20
2299.7943786536829975
 30
0.0
 40
19.4730063294190998
 50
280.0449002875835731
 51
283.1902252377482796
  0
ARC
  5
1203D
  8
0
 10
8623.5332338714797515
 20
2277.9975096834400574
 30
0.0
 40
2.6543302460756402
 50
98.902036998699387
 51
124.8412530190787066
  0
ARC
  5
1203E
  8
0
 10
8623.2305715199327096
 20
2276.3031399855040036
 30
0.0
 40
3.7333289012350459
 50
143.8124647645776975
 51
181.9325578744665108
  0
ARC
  5
1203F
  8
0
 10
8629.9085279591145081
 20
2268.1466241683237968
 30
0.0
 40
14.3869969951953607
 50
123.2663462059410051
 51
128.3965457671907018
  0
ARC
  5
12040
  8
0
 10
8625.3375005046127626
 20
2275.0489585172531406
 30
0.0
 40
6.1786622348134923
 50
134.9445544803085966
 51
145.962104766133109
  0
LINE
  5
12041
  8
0
 10
8620.457323371714665
 20
2270.0087642418361611
 30
0.0
 11
8619.4993660823656683
 21
2276.1772405515489481
 31
0.0
  0
ARC
  5
12042
  8
0
 10
8617.4065164927123988
 20
2271.0467942554828369
 30
0.0
 40
2.4651178637418489
 50
356.8112635615023009
 51
19.3709653555863817
  0
LINE
  5
12043
  8
0
 10
8619.6946202561084647
 20
2271.9242442450390627
 30
0.0
 11
8619.6821903394138644
 21
2271.9271277317448039
 31
0.0
  0
LINE
  5
12044
  8
0
 10
8619.8481382894115086
 20
2270.8658411589822208
 30
0.0
 11
8619.8385142184124561
 21
2270.8604579031612047
 31
0.0
  0
ARC
  5
12045
  8
0
 10
8619.683083214717044
 20
2271.9220598572519521
 30
0.0
 40
0.005145928310985
 50
99.9920206904160551
 51
137.1202167642420875
  0
ARC
  5
12046
  8
0
 10
8619.5840590308034734
 20
2271.7827666576908996
 30
0.0
 40
0.1795541485522112
 50
45.1163486111903467
 51
51.9932560328754505
  0
ARC
  5
12047
  8
0
 10
8619.5124328374222387
 20
2271.7918808576569063
 30
0.0
 40
0.2313250502893212
 50
18.2783586440460084
 51
26.81556141739037
  0
ARC
  5
12048
  8
0
 10
8619.4182169896703272
 20
2271.7280411594451834
 30
0.0
 40
0.344512696256039
 50
29.2230930177054802
 51
31.8790999940529893
  0
ARC
  5
12049
  8
0
 10
8619.7487412712562218
 20
2271.8894140267379953
 30
0.0
 40
0.0782752222369222
 50
152.4967274088128022
 51
161.7264874392946865
  0
LINE
  5
1204A
  8
0
 10
8619.8385142184124561
 20
2270.8604579031612047
 30
0.0
 11
8619.8368509542324318
 21
2270.8597225719540802
 31
0.0
  0
ARC
  5
1204B
  8
0
 10
8619.8554647615692375
 20
2271.0360438410489223
 30
0.0
 40
0.1773010540258041
 50
263.0923517792616053
 51
263.9737443867430784
  0
ARC
  5
1204C
  8
0
 10
8619.9672771454424947
 20
2270.9674550059808098
 30
0.0
 40
0.1710714723635278
 50
200.4730988109602094
 51
218.8994311988406878
  0
ARC
  5
1204D
  8
0
 10
8624.2206122114967002
 20
2272.042649917359995
 30
0.0
 40
4.5572105345894753
 50
185.6189946279955905
 51
194.4220415984754879
  0
ARC
  5
1204E
  8
0
 10
8621.3465490997023153
 20
2271.8123394878389263
 30
0.0
 40
1.675220561159694
 50
176.5223328105882956
 51
187.4047569029914939
  0
ARC
  5
1204F
  8
0
 10
8619.8181155734928325
 20
2270.9062608390649984
 30
0.0
 40
0.0503499156827731
 50
306.6040309551966061
 51
338.4236801913680779
  0
LINE
  5
12050
  8
0
 10
8619.8649373976186325
 20
2270.8877451485031997
 30
0.0
 11
8619.8678176603843895
 21
2270.9096715216169287
 31
0.0
  0
ARC
  5
12051
  8
0
 10
8607.7884680905735877
 20
2285.3274974151740935
 30
0.0
 40
0.0030981883531065
 50
140.5313966240287868
 51
229.6904112474188935
  0
ARC
  5
12052
  8
0
 10
8607.7958502807741752
 20
2285.3343998191639912
 30
0.0
 40
0.013188826047686
 50
224.6267557294789867
 51
239.7327517919077877
  0
ARC
  5
12053
  8
0
 10
8607.7979096969684178
 20
2285.3182363494170204
 30
0.0
 40
0.016314118737109
 50
109.9148256913963024
 51
136.4973500601666103
  0
ARC
  5
12054
  8
0
 10
8607.9245849567269033
 20
2284.8131486873899121
 30
0.0
 40
0.5379680359356535
 50
97.088990718364343
 51
102.8031332937482034
  0
ARC
  5
12055
  8
0
 10
8607.8262260753235751
 20
2285.2501614637681087
 30
0.0
 40
0.0900288945864017
 50
103.3946415284921017
 51
112.101569787902605
  0
ARC
  5
12056
  8
0
 10
8608.6975728686938965
 20
2277.3104501694620012
 30
0.0
 40
8.0802697756219271
 50
91.0724302459831421
 51
95.9626463570355241
  0
ARC
  5
12057
  8
0
 10
8622.0211926238607703
 20
2285.3274974151740935
 30
0.0
 40
0.0030981883531065
 50
310.3095887525810781
 51
39.4686033759711421
  0
ARC
  5
12058
  8
0
 10
8622.0140846440972382
 20
2285.3339924625329331
 30
0.0
 40
0.0127078812848072
 50
300.8721691257168231
 51
315.8118804365960273
  0
ARC
  5
12059
  8
0
 10
8622.0117510174641211
 20
2285.3182363494170204
 30
0.0
 40
0.016314118737109
 50
43.5026499398333826
 51
70.0851743086036834
  0
ARC
  5
1205A
  8
0
 10
8621.8850757577056356
 20
2284.8131486873899121
 30
0.0
 40
0.5379680359356535
 50
77.196866706251754
 51
82.9110092816356712
  0
ARC
  5
1205B
  8
0
 10
8621.9834346391071449
 20
2285.2501614637681087
 30
0.0
 40
0.0900288945864017
 50
67.8984302120973808
 51
76.6053584715078841
  0
ARC
  5
1205C
  8
0
 10
8621.1120879724512633
 20
2277.3104522308581181
 30
0.0
 40
8.0802677122154183
 50
84.0373530182218929
 51
88.9275703788235461
  0
LINE
  5
1205D
  8
0
 10
8604.6551519622917112
 20
2282.8882724805048383
 30
0.0
 11
8605.8465627327168477
 21
2290.85628469429912
 31
0.0
  0
LINE
  5
1205E
  8
0
 10
8625.1545087521408277
 20
2282.8882724805048383
 30
0.0
 11
8623.8114625580292341
 21
2291.930780103296911
 31
0.0
  0
ENDSEC
  0
EOF
