  0
SECTION
  2
HEADER
  9
$ACADVER
  1
AC1009
  9
$INSBASE
 10
8614.9051413696142845
 20
2270.0031447847341042
 30
0.0
  9
$EXTMIN
 10
8604.3606851785152685
 20
2239.5964653198770975
 30
-0.0015258207003583
  9
$EXTMAX
 10
8625.4181823481267202
 20
2270.0775305239171757
 30
0.0000000349246037
  9
$LIMMIN
 10
0.0
 20
0.0
  9
$LIMMAX
 10
11.6929133858000007
 20
8.2677165353999982
  9
$ORTHOMODE
 70
     0
  9
$REGENMODE
 70
     1
  9
$FILLMODE
 70
     1
  9
$QTEXTMODE
 70
     0
  9
$MIRRTEXT
 70
     0
  9
$DRAGMODE
 70
     2
  9
$LTSCALE
 40
0.6431102362
  9
$OSMODE
 70
  4063
  9
$ATTMODE
 70
     1
  9
$TEXTSIZE
 40
0.2
  9
$TRACEWID
 40
0.05
  9
$TEXTSTYLE
  7
STANDARD
  9
$CLAYER
  8
0
  9
$CELTYPE
  6
BYLAYER
  9
$CECOLOR
 62
     1
  9
$DIMSCALE
 40
1.0
  9
$DIMASZ
 40
0.1875
  9
$DIMEXO
 40
0.0625
  9
$DIMDLI
 40
0.4443307087
  9
$DIMRND
 40
0.0
  9
$DIMDLE
 40
0.0
  9
$DIMEXE
 40
0.125
  9
$DIMTP
 40
0.01
  9
$DIMTM
 40
0.01
  9
$DIMTXT
 40
2.0
  9
$DIMCEN
 40
0.1052362205
  9
$DIMTSZ
 40
0.0
  9
$DIMTOL
 70
     1
  9
$DIMLIM
 70
     0
  9
$DIMTIH
 70
     1
  9
$DIMTOH
 70
     1
  9
$DIMSE1
 70
     0
  9
$DIMSE2
 70
     0
  9
$DIMTAD
 70
     0
  9
$DIMZIN
 70
     0
  9
$DIMBLK
  1

  9
$DIMASO
 70
     1
  9
$DIMSHO
 70
     1
  9
$DIMPOST
  1
\X
  9
$DIMAPOST
  1

  9
$DIMALT
 70
     1
  9
$DIMALTD
 70
     2
  9
$DIMALTF
 40
25.3999999999999986
  9
$DIMLFAC
 40
1.0
  9
$DIMTOFL
 70
     0
  9
$DIMTVP
 40
0.0
  9
$DIMTIX
 70
     0
  9
$DIMSOXD
 70
     0
  9
$DIMSAH
 70
     0
  9
$DIMBLK1
  1

  9
$DIMBLK2
  1

  9
$DIMSTYLE
  2
STANDARD
  9
$DIMCLRD
 70
     0
  9
$DIMCLRE
 70
     0
  9
$DIMCLRT
 70
     0
  9
$DIMTFAC
 40
1.0
  9
$DIMGAP
 40
0.09
  9
$LUNITS
 70
     2
  9
$LUPREC
 70
     4
  9
$SKETCHINC
 40
0.1
  9
$FILLETRAD
 40
0.0
  9
$AUNITS
 70
     0
  9
$AUPREC
 70
     0
  9
$MENU
  1
.
  9
$ELEVATION
 40
0.0
  9
$PELEVATION
 40
0.0
  9
$THICKNESS
 40
0.0
  9
$LIMCHECK
 70
     0
  9
$BLIPMODE
 70
     0
  9
$CHAMFERA
 40
0.0
  9
$CHAMFERB
 40
0.0
  9
$SKPOLY
 70
     0
  9
$TDCREATE
 40
2458060.468368056230247
  9
$TDUPDATE
 40
2459429.8665972221642733
  9
$TDINDWG
 40
0.4625996528
  9
$TDUSRTIMER
 40
0.4625996528
  9
$USRTIMER
 70
     1
  9
$ANGBASE
 50
0.0
  9
$ANGDIR
 70
     0
  9
$PDMODE
 70
     0
  9
$PDSIZE
 40
0.3125
  9
$PLINEWID
 40
0.0
  9
$COORDS
 70
     1
  9
$SPLFRAME
 70
     0
  9
$SPLINETYPE
 70
     6
  9
$SPLINESEGS
 70
     8
  9
$ATTDIA
 70
     1
  9
$ATTREQ
 70
     1
  9
$HANDLING
 70
     1
  9
$HANDSEED
  5
12116
  9
$SURFTAB1
 70
     6
  9
$SURFTAB2
 70
     6
  9
$SURFTYPE
 70
     6
  9
$SURFU
 70
     6
  9
$SURFV
 70
     6
  9
$UCSNAME
  2

  9
$UCSORG
 10
0.0
 20
0.0
 30
0.0
  9
$UCSXDIR
 10
1.0
 20
0.0
 30
0.0
  9
$UCSYDIR
 10
0.0
 20
1.0
 30
0.0
  9
$PUCSNAME
  2

  9
$PUCSORG
 10
0.0
 20
0.0
 30
0.0
  9
$PUCSXDIR
 10
1.0
 20
0.0
 30
0.0
  9
$PUCSYDIR
 10
0.0
 20
1.0
 30
0.0
  9
$USERI1
 70
     0
  9
$USERI2
 70
     0
  9
$USERI3
 70
     0
  9
$USERI4
 70
     0
  9
$USERI5
 70
     0
  9
$USERR1
 40
0.0
  9
$USERR2
 40
0.0
  9
$USERR3
 40
0.0
  9
$USERR4
 40
0.0
  9
$USERR5
 40
0.0
  9
$WORLDVIEW
 70
     1
  9
$SHADEDGE
 70
     3
  9
$SHADEDIF
 70
    70
  9
$TILEMODE
 70
     1
  9
$MAXACTVP
 70
    64
  9
$PLIMCHECK
 70
     0
  9
$PEXTMIN
 10
1.0000000000000000E+20
 20
1.0000000000000000E+20
 30
1.0000000000000000E+20
  9
$PEXTMAX
 10
-1.0000000000000000E+20
 20
-1.0000000000000000E+20
 30
-1.0000000000000000E+20
  9
$PLIMMIN
 10
0.0
 20
0.0
  9
$PLIMMAX
 10
12.0
 20
9.0
  9
$UNITMODE
 70
     0
  9
$VISRETAIN
 70
     1
  9
$PLINEGEN
 70
     0
  9
$PSLTSCALE
 70
     1
  0
ENDSEC
  0
SECTION
  2
TABLES
  0
TABLE
  2
VPORT
 70
     1
  0
VPORT
  2
*ACTIVE
 70
     0
 10
0.0
 20
0.0
 11
1.0
 21
1.0
 12
3799.5910939195709943
 22
2007.0283736543190116
 13
0.0
 23
0.0
 14
1.0
 24
1.0
 15
0.0
 25
0.0
 16
0.0
 26
0.0
 36
9.5192988075487186
 17
4815.2983398437490905
 27
247.8086242675780966
 37
0.0
 40
31.7389092739295791
 41
2.39168765743073
 42
50.0
 43
0.0
 44
0.0
 50
0.0
 51
0.0
 71
     0
 72
   100
 73
     1
 74
     1
 75
     0
 76
     0
 77
     0
 78
     0
  0
ENDTAB
  0
TABLE
  2
LTYPE
 70
     2
  0
LTYPE
  2
CONTINUOUS
 70
     0
  3
Solid line
 72
    65
 73
     0
 40
0.0
  0
LTYPE
  2
PHANTOM2
 70
     0
  3
___ _ _ ___ _ _ ___ _ _ ___ _ _
 72
    65
 73
     6
 40
1.25
 49
0.625
 49
-0.125
 49
0.125
 49
-0.125
 49
0.125
 49
-0.125
  0
ENDTAB
  0
TABLE
  2
LAYER
 70
     2
  0
LAYER
  2
0
 70
     0
 62
   255
  6
CONTINUOUS
  0
LAYER
  2
DEFPOINTS
 70
     0
 62
     7
  6
CONTINUOUS
  0
ENDTAB
  0
TABLE
  2
STYLE
 70
     1
  0
STYLE
  2
STANDARD
 70
     0
 40
0.0
 41
0.8
 50
0.0
 71
     0
 42
0.2
  3
txt
  4

  0
ENDTAB
  0
TABLE
  2
VIEW
 70
     0
  0
ENDTAB
  0
TABLE
  2
UCS
 70
     0
  0
ENDTAB
  0
TABLE
  2
APPID
 70
    10
  0
APPID
  2
ACAD
 70
     0
  0
APPID
  2
ACAD_MLEADERVER
 70
     0
  0
APPID
  2
ACAD_EXEMPT_FROM_CAD_STANDARDS
 70
     0
  0
APPID
  2
ACAD_NAV_VCDISPLAY
 70
     0
  0
APPID
  2
ACAECLAYERSTANDARD
 70
     0
  0
APPID
  2
ACCMTRANSPARENCY
 70
     0
  0
APPID
  2
ACAD_DSTYLE_DIMJAG
 70
     0
  0
APPID
  2
ACAD_DSTYLE_DIMTALN
 70
     0
  0
APPID
  2
ACDBATTR
 70
     0
  0
APPID
  2
ACADANNOTATIVE
 70
     0
  0
ENDTAB
  0
TABLE
  2
DIMSTYLE
 70
     1
  0
DIMSTYLE
  2
STANDARD
 70
     0
  3

  4

  5

  6

  7

 40
1.0
 41
0.1875
 42
0.0625
 43
0.38
 44
0.125
 45
0.0
 46
0.0
 47
0.01
 48
0.01
140
0.15625
141
0.09
142
0.0
143
25.3999999999999986
144
1.0
145
0.0
146
1.0
147
0.09
 71
     1
 72
     0
 73
     1
 74
     1
 75
     0
 76
     0
 77
     0
 78
     4
170
     0
171
     2
172
     0
173
     0
174
     0
175
     0
176
     0
177
     0
178
     0
  0
ENDTAB
  0
ENDSEC
  0
SECTION
  2
BLOCKS
  0
BLOCK
  8
0
  2
$MODEL_SPACE
 70
     0
 10
0.0
 20
0.0
 30
0.0
  3
$MODEL_SPACE
  1

  0
ENDBLK
  5
21
  8
0
  0
BLOCK
 67
     1
  8
0
  2
$PAPER_SPACE
 70
     0
 10
0.0
 20
0.0
 30
0.0
  3
$PAPER_SPACE
  1

  0
ENDBLK
  5
1D
 67
     1
  8
0
  0
BLOCK
  8
0
  2
_FILLED
 70
     0
 10
0.0
 20
0.0
 30
0.0
  3
_FILLED
  1

  0
SOLID
  5
11EE6
  8
0
  6
BYBLOCK
 62
     0
 10
0.0
 20
0.0
 30
0.0
 11
-1.0
 21
0.1666666667
 31
0.0
 12
-1.0
 22
-0.1666666667
 32
0.0
 13
-1.0
 23
-0.1666666667
 33
0.0
  0
ENDBLK
  5
11EE7
  8
0
  6
BYBLOCK
 62
     0
  0
ENDSEC
  0
SECTION
  2
ENTITIES
  0
ATTDEF
  5
3930
  8
DEFPOINTS
 10
8614.9058693279548606
 20
2270.0072500844448768
 30
0.0
 40
0.001
  1
K-75920X-S
  3

  2
MODELNUMBER
 70
     0
1001
ACDBATTR
1070
     0
1070
     1
  0
ATTDEF
  5
3931
  8
DEFPOINTS
 10
8614.9058693279548606
 20
2270.0055834177787801
 30
0.0
 40
0.001
  1
SAN RAPHAEL
  3

  2
TRADENAME
 70
     0
1001
ACDBATTR
1070
     0
1070
     1
  0
ATTDEF
  5
3932
  8
DEFPOINTS
 10
8614.9058693279548606
 20
2270.0039167511117739
 30
0.0
 40
0.001
  1
TOILET
  3

  2
PRODUCT
 70
     0
1001
ACDBATTR
1070
     0
1070
     1
  0
ARC
  5
11FC1
  8
0
 10
8783.444668024443672
 20
2283.3283918759989319
 30
0.0
 40
179.4045788081510864
 50
184.7469490701467976
 51
189.7114615333661902
  0
ARC
  5
11FC2
  8
0
 10
8604.9064975595683791
 20
2268.4814426222910697
 30
0.0
 40
0.2510347616918886
 50
100.8875938149091951
 51
179.9319969088633115
  0
ARC
  5
11FC3
  8
0
 10
8604.6913329354447342
 20
2270.0854960817910069
 30
0.0
 40
1.367862340901961
 50
277.0442288491213958
 51
281.0830130609854223
  0
ARC
  5
11FC4
  8
0
 10
8606.5807026531874726
 20
2267.7963248642640792
 30
0.0
 40
0.4784665143359273
 50
95.2804927479814836
 51
131.1156840130124124
  0
ARC
  5
11FC5
  8
0
 10
8606.8094372175928584
 20
2267.5831361909631596
 30
0.0
 40
0.7901447116624695
 50
133.4465980776342064
 51
150.329952147032003
  0
ARC
  5
11FC6
  8
0
 10
8606.6111445005244605
 20
2267.7143559672490483
 30
0.0
 40
0.5531231140652898
 50
151.973031214199608
 51
179.0401712974517068
  0
ARC
  5
11FC7
  8
0
 10
8605.4735475836114347
 20
2267.6603551244747905
 30
0.0
 40
0.5879651314158219
 50
2.3827756909222981
 51
6.1771191877436031
  0
ARC
  5
11FC8
  8
0
 10
10139.1315284425490972
 20
-121152.0225188948970754
 30
0.0
 40
123429.8105561770062195
 50
90.7095021523415852
 51
90.7114446122317446
  0
ARC
  5
11FC9
  8
0
 10
8607.1390533413123194
 20
2260.394121009976061
 30
0.0
 40
0.2509538811005479
 50
187.8738705154817978
 51
289.7996437031592905
  0
LINE
  5
11FCA
  8
0
 10
8606.7581214708025072
 20
2261.5195519495841836
 30
0.0
 11
8606.0610043448814395
 21
2267.6847999480478393
 31
0.0
  0
ARC
  5
11FCB
  8
0
 10
8819.292083839456609
 20
2285.1839937594832008
 30
0.0
 40
213.8473543588839902
 50
186.3533882908878923
 51
186.6661511924035892
  0
ARC
  5
11FCC
  8
0
 10
8645.1315212468380196
 20
2266.9883720448378881
 30
0.0
 40
38.7611378007097471
 50
188.1109414166714942
 51
189.4171064317305877
  0
ARC
  5
11FCD
  8
0
 10
8607.2510885726442211
 20
2260.7144506876411469
 30
0.0
 40
0.3647665577982165
 50
190.7752664400883873
 51
283.8433497570730992
  0
ARC
  5
11FCE
  8
0
 10
8614.8257220344894449
 20
2240.4178145819169004
 30
0.0
 40
21.1532575429291683
 50
89.7848840352148585
 51
111.0609777226515007
  0
ARC
  5
11FCF
  8
0
 10
8614.724910108381664
 20
2243.6981037342011405
 30
0.0
 40
18.2053762978929896
 50
89.4327686985102019
 51
113.506933144456795
  0
ARC
  5
11FD0
  8
0
 10
8607.2438692776395328
 20
2260.9837287068071419
 30
0.0
 40
0.630570140384293
 50
278.6187281234085162
 51
290.3849416310436027
  0
ARC
  5
11FD1
  8
0
 10
8622.0231814063481579
 20
2264.9187449665578242
 30
0.0
 40
16.5935528628414986
 50
180.9472848015504098
 51
186.9558104470216051
  0
ARC
  5
11FD2
  8
0
 10
8605.5550419709925336
 20
2264.6344862669529903
 30
0.0
 40
0.1235449631732413
 50
108.5782476711670057
 51
175.3916932092305956
  0
ARC
  5
11FD3
  8
0
 10
8605.6424607498047408
 20
2264.4629720319881017
 30
0.0
 40
0.3152386408085027
 50
99.1066330364440091
 51
113.7140278099364963
  0
ARC
  5
11FD4
  8
0
 10
8605.6809355291134125
 20
2262.9238181726850598
 30
0.0
 40
0.1300001300820791
 50
186.4552564365552882
 51
250.722880428961389
  0
ARC
  5
11FD5
  8
0
 10
8605.7416576469131542
 20
2263.0917234439089043
 30
0.0
 40
0.3085438427811841
 50
250.3726936629228987
 51
272.4887797756995269
  0
LINE
  5
11FD6
  8
0
 10
8605.5925671806635364
 20
2264.7742372443340173
 30
0.0
 11
8606.1499476646713447
 21
2264.8610099383581655
 31
0.0
  0
LINE
  5
11FD7
  8
0
 10
8606.2768533996641054
 20
2264.7318980433351499
 30
0.0
 11
8606.4507452596753865
 21
2262.9535689604340405
 31
0.0
  0
ARC
  5
11FD8
  8
0
 10
8605.899829791049342
 20
2262.9667485927211601
 30
0.0
 40
0.5572856025626634
 50
346.152191458794789
 51
354.5168412922369043
  0
ARC
  5
11FD9
  8
0
 10
8605.5518748880549538
 20
2262.8476569778317753
 30
0.0
 40
0.9050885553540878
 50
4.171700865179476
 51
6.7200549631968567
  0
ARC
  5
11FDA
  8
0
 10
8606.0310202851724171
 20
2264.7255820411101013
 30
0.0
 40
0.2459142372140833
 50
1.4717328804841801
 51
30.3939965196748396
  0
ARC
  5
11FDB
  8
0
 10
8606.1757219227420137
 20
2264.6792631346529561
 30
0.0
 40
0.1835652827632447
 50
68.453399054945848
 51
98.0715266965406443
  0
ARC
  5
11FDC
  8
0
 10
8606.3583968824805197
 20
2262.9885019851958532
 30
0.0
 40
0.1757183714359829
 50
273.1884761235018004
 51
298.0096663133238053
  0
ARC
  5
11FDD
  8
0
 10
8581.5952977197775908
 20
2769.8342701816791305
 30
0.0
 40
507.6260505809132724
 50
272.7279437151947832
 51
272.7972265253351907
  0
ARC
  5
11FDE
  8
0
 10
8615.1246284647386346
 20
2245.3715533950480676
 30
0.0
 40
5.6470756677732501
 50
225.7412715527958085
 51
267.7725014863759156
  0
ARC
  5
11FDF
  8
0
 10
8638.4135919761865807
 20
2257.0027160431941411
 30
0.0
 40
32.0454102397606988
 50
187.0578494526778002
 51
203.3176008002108119
  0
ARC
  5
11FE0
  8
0
 10
8617.8014783483686188
 20
2248.4935605733940065
 30
0.0
 40
9.7547270273433035
 50
205.3425212114470071
 51
227.2785840158514929
  0
ARC
  5
11FE1
  8
0
 10
8615.2186932861532114
 20
2248.0943024448788492
 30
0.0
 40
12.4969526118772905
 50
91.437717456564485
 51
111.0637607555520958
  0
ARC
  5
11FE2
  8
0
 10
8612.8150758600568224
 20
2255.0275528982410833
 30
0.0
 40
5.1690919759729708
 50
113.8231126404429006
 51
160.5086100062858918
  0
ARC
  5
11FE3
  8
0
 10
8619.7292124683481234
 20
2252.5051260390700918
 30
0.0
 40
12.5288372468424605
 50
160.1845395625391859
 51
180.7392644699741027
  0
ARC
  5
11FE4
  8
0
 10
8609.0664227380875673
 20
2258.9231842587992105
 30
0.0
 40
2.6073911619637871
 50
146.5673749063332991
 51
178.1280119838268092
  0
ARC
  5
11FE5
  8
0
 10
8628.9985323966775468
 20
2257.475773377943824
 30
0.0
 40
22.5901568687062593
 50
182.0380032572628011
 51
190.8685528639128961
  0
ARC
  5
11FE6
  8
0
 10
8637.8175056393720297
 20
2257.0856058858707911
 30
0.0
 40
31.2444344532320102
 50
187.1138493737580859
 51
202.0518458640513018
  0
ARC
  5
11FE7
  8
0
 10
8617.8654483720729331
 20
2248.9433530655101094
 30
0.0
 40
9.6951682452963226
 50
201.7227107248567108
 51
231.3413432499770863
  0
ARC
  5
11FE8
  8
0
 10
8615.0801084330269077
 20
2245.7100344516397854
 30
0.0
 40
5.4326039246468714
 50
232.9787509551815958
 51
268.15436421684268
  0
ARC
  5
11FE9
  8
0
 10
8620.7794154810544569
 20
2250.2843557641599546
 30
0.0
 40
13.1278280448292701
 50
141.4545546226123065
 51
157.7579887335882916
  0
ARC
  5
11FEA
  8
0
 10
8610.5523686191481829
 20
2258.4212804726789727
 30
0.0
 40
0.0593660800050377
 50
90.05274020035246
 51
132.9019493769793883
  0
ARC
  5
11FEB
  8
0
 10
8622.358283816723997
 20
2250.5696493293507956
 30
0.0
 40
14.6184595616865405
 50
173.4024961835353906
 51
179.1290928229751955
  0
ARC
  5
11FEC
  8
0
 10
8621.7344932715805044
 20
2250.9796785614898909
 30
0.0
 40
13.9942409177689893
 50
180.7690618313253026
 51
187.5397818266640115
  0
ARC
  5
11FED
  8
0
 10
8618.6862119643847109
 20
2250.9963601420881787
 30
0.0
 40
10.9216787290344808
 50
157.0587135119436937
 51
173.4129173832833999
  0
ARC
  5
11FEE
  8
0
 10
8623.5623835099104326
 20
2251.5686159173669694
 30
0.0
 40
15.8873290088176304
 50
188.7804728525044879
 51
211.9044674882952961
  0
LINE
  5
11FEF
  8
0
 10
8610.8279362802641117
 20
2257.9179468402339808
 30
0.0
 11
8610.8279362802641117
 21
2258.4792128297340241
 31
0.0
  0
ARC
  5
11FF0
  8
0
 10
8610.7679144834637555
 20
2257.2653317951248937
 30
0.0
 40
1.2153640533915699
 50
87.169247277852449
 51
89.5831623653556619
  0
LINE
  5
11FF1
  8
0
 10
8610.7767564088644576
 20
2258.4806636850339601
 30
0.0
 11
8610.5523139732649724
 21
2258.4806465275341907
 31
0.0
  0
ARC
  5
11FF2
  8
0
 10
8610.8325644849901437
 20
2257.9180883368508148
 30
0.0
 40
0.0046303671867043
 50
181.7511400163006954
 51
240.9503036761275041
  0
ARC
  5
11FF3
  8
0
 10
8610.8393437309787259
 20
2257.9314065796220348
 30
0.0
 40
0.0195724098898132
 50
242.5327666524399035
 51
262.8785776263612775
  0
ARC
  5
11FF4
  8
0
 10
8610.8493887544718746
 20
2257.9661987071549447
 30
0.0
 40
0.0556295453740955
 50
257.0448790644878159
 51
262.2626806826639267
  0
LINE
  5
11FF5
  8
0
 10
8610.8279362802641117
 20
2258.1364381674338802
 30
0.0
 11
8610.8528185745562951
 21
2258.1364381674338802
 31
0.0
  0
LINE
  5
11FF6
  8
0
 10
8610.8279362802641117
 20
2258.0773712759591945
 30
0.0
 11
8610.85290048978095
 21
2258.077371314021093
 31
0.0
  0
LINE
  5
11FF7
  8
0
 10
8610.8472565001648036
 20
2258.1364381674338802
 30
0.0
 11
8610.8476626789633883
 21
2258.3774718724339436
 31
0.0
  0
ARC
  5
11FF8
  8
0
 10
8610.9073689511715202
 20
2258.3769448953180472
 30
0.0
 40
0.059708597752065
 50
89.6986167926718423
 51
179.4943114087757863
  0
LINE
  5
11FF9
  8
0
 10
8610.853131112331539
 20
2257.911075628834169
 30
0.0
 11
8610.8525833437633992
 21
2258.3062802064350763
 31
0.0
  0
LINE
  5
11FFA
  8
0
 10
8610.9076830246649479
 20
2258.4366526670341955
 30
0.0
 11
8611.2986193567594455
 21
2258.4366701263611503
 31
0.0
  0
ARC
  5
11FFB
  8
0
 10
8611.2974579374513269
 20
2258.0936438770741006
 30
0.0
 40
0.3430282154494424
 50
81.5240068270898064
 51
89.8060085183889356
  0
ARC
  5
11FFC
  8
0
 10
8603.7291901996813976
 20
2257.8496874814418334
 30
0.0
 40
7.1380114038633993
 50
3.667507365408134
 51
4.2403182782538487
  0
LINE
  5
11FFD
  8
0
 10
8611.3554307349586452
 20
2257.911075628834169
 30
0.0
 11
8611.3524859365625161
 21
2258.3706859826338587
 31
0.0
  0
LINE
  5
11FFE
  8
0
 10
8611.3524859365625161
 20
2258.3706859826338587
 30
0.0
 11
8611.3480185820644692
 21
2258.4329254383342231
 31
0.0
  0
LINE
  5
11FFF
  8
0
 10
8611.3539868004681921
 20
2258.1364381674338802
 30
0.0
 11
8611.3860809910711396
 21
2258.1364381674338802
 31
0.0
  0
LINE
  5
12000
  8
0
 10
8611.3743983889635274
 20
2258.1364381674338802
 30
0.0
 11
8611.374398388863483
 21
2258.5952397990340614
 31
0.0
  0
ARC
  5
12001
  8
0
 10
8611.394538667944289
 20
2258.5953345287562115
 30
0.0
 40
0.0201405018586511
 50
117.9338857540368934
 51
180.2694884823835935
  0
ARC
  5
12002
  8
0
 10
8568.8951437896321295
 20
2257.9731504298429172
 30
0.0
 40
42.4912479174030011
 50
359.9162974600444045
 51
0.4998049146155389
  0
ARC
  5
12003
  8
0
 10
8612.4690301265654853
 20
2258.4650476068009084
 30
0.0
 40
1.091012538381406
 50
180.2982272570615123
 51
186.3802606433009998
  0
ARC
  5
12004
  8
0
 10
8609.5839596758942207
 20
2258.4793689976468158
 30
0.0
 40
1.7941841676689041
 50
359.3612990160664253
 51
3.702814660774695
  0
LINE
  5
12005
  8
0
 10
8611.3851252565636969
 20
2258.5241017646058026
 30
0.0
 11
8611.3851252627646318
 21
2259.4384465982338952
 31
0.0
  0
ARC
  5
12006
  8
0
 10
8611.4131890744174598
 20
2258.5218201868360666
 30
0.0
 40
0.0281564108109909
 50
175.352097125398501
 51
269.8542153574899203
  0
LINE
  5
12007
  8
0
 10
8611.4131174327394547
 20
2258.4936638671688343
 30
0.0
 11
8611.5306052624637232
 21
2258.4932584245339058
 31
0.0
  0
ARC
  5
12008
  8
0
 10
8596.8445453760596138
 20
2378.2418649587561958
 30
0.0
 40
120.6458002662132003
 50
276.9918829360785253
 51
277.0114933440214031
  0
ARC
  5
12009
  8
0
 10
8611.8850879142974009
 20
2259.4384614304549359
 30
0.0
 40
0.4999626517539058
 50
90.0079872239291632
 51
180.0016997742735896
  0
ARC
  5
1200A
  8
0
 10
8612.42512525656457
 20
2259.4384466380338381
 30
0.0
 40
0.5
 50
0.0
 51
90.0
  0
LINE
  5
1200B
  8
0
 10
8611.885018217826655
 20
2259.938424077351101
 30
0.0
 11
8612.42512525656457
 21
2259.9384466380352023
 31
0.0
  0
LINE
  5
1200C
  8
0
 10
8612.92512525656457
 20
2259.4384466380338381
 30
0.0
 11
8612.92512525656457
 21
2258.5241012577339461
 31
0.0
  0
LINE
  5
1200D
  8
0
 10
8611.5715903003274434
 20
2258.498291980187787
 30
0.0
 11
8612.7397030528973119
 21
2258.498291980187787
 31
0.0
  0
LINE
  5
1200E
  8
0
 10
8611.7025029342566995
 20
2258.498291980187787
 30
0.0
 11
8611.7023707889657089
 21
2258.4932183611340406
 31
0.0
  0
LINE
  5
1200F
  8
0
 10
8611.7023707889657089
 20
2258.4932183611340406
 30
0.0
 11
8612.607880909465166
 21
2258.4932160253338225
 31
0.0
  0
LINE
  5
12010
  8
0
 10
8612.607880909465166
 20
2258.4932160253338225
 30
0.0
 11
8612.6077468207931815
 21
2258.498291980187787
 31
0.0
  0
LINE
  5
12011
  8
0
 10
8611.6417845584055613
 20
2258.498291980187787
 30
0.0
 11
8611.642389215863659
 21
2258.4581271077340716
 31
0.0
  0
LINE
  5
12012
  8
0
 10
8611.642389215863659
 20
2258.4581271077340716
 30
0.0
 11
8611.3980068409109663
 21
2258.4581275375107907
 31
0.0
  0
ARC
  5
12013
  8
0
 10
8611.39795965947269
 20
2258.4384902606498144
 30
0.0
 40
0.0196373335410591
 50
89.8623387482336398
 51
178.5343633725472046
  0
LINE
  5
12014
  8
0
 10
8611.6421705972388736
 20
2258.4726490310408735
 30
0.0
 11
8611.925110921563828
 21
2258.4726490394341454
 31
0.0
  0
ARC
  5
12015
  8
0
 10
8611.9248448375346925
 20
2258.4169099450309659
 30
0.0
 40
0.0557397295080617
 50
83.1674188322410686
 51
89.7264868363799053
  0
ARC
  5
12016
  8
0
 10
8611.8565154424813954
 20
2257.9881480070321231
 30
0.0
 40
0.4898750175423056
 50
78.3964258738915305
 51
81.1980194203766388
  0
ARC
  5
12017
  8
0
 10
8612.0063490224565612
 20
2258.7306362400759099
 30
0.0
 40
0.2675885052538369
 50
258.947142794885508
 51
264.5878825830462233
  0
ARC
  5
12018
  8
0
 10
8612.114299201153699
 20
2260.6065819811001347
 30
0.0
 40
2.1464775122411139
 50
266.4425144268586223
 51
267.865470953758404
  0
LINE
  5
12019
  8
0
 10
8612.0343516224675113
 20
2258.461593847048789
 30
0.0
 11
8612.266324630658346
 21
2258.461593847048789
 31
0.0
  0
LINE
  5
1201A
  8
0
 10
8612.6684659112634108
 20
2258.498291980187787
 30
0.0
 11
8612.667861295863986
 21
2258.4581270972339553
 31
0.0
  0
LINE
  5
1201B
  8
0
 10
8612.667861295863986
 20
2258.4581270972339553
 30
0.0
 11
8612.9181816294658347
 21
2258.4581273066341964
 31
0.0
  0
LINE
  5
1201C
  8
0
 10
8612.9181816294658347
 20
2258.4581273066341964
 30
0.0
 11
8612.9217580394670222
 21
2258.508446383520095
 31
0.0
  0
ARC
  5
1201D
  8
0
 10
8612.2695938230081083
 20
2259.144840625148845
 30
0.0
 40
0.6832545992551438
 50
269.7258538192535866
 51
274.1654346293020126
  0
ARC
  5
1201E
  8
0
 10
8612.2894451687861874
 20
2258.8562838880638992
 30
0.0
 40
0.3940198681703595
 50
274.3342381170770068
 51
282.6784573620009837
  0
LINE
  5
1201F
  8
0
 10
8612.6680798990091716
 20
2258.4726490061220829
 30
0.0
 11
8612.3851323140715976
 21
2258.4726490061220829
 31
0.0
  0
ARC
  5
12020
  8
0
 10
8612.3857266923423595
 20
2258.4107086793878807
 30
0.0
 40
0.0619431784892335
 50
90.5497924042236377
 51
99.1051211818741251
  0
LINE
  5
12021
  8
0
 10
8612.9239381543466152
 20
2258.5136130252340081
 30
0.0
 11
8616.8863445848819538
 21
2258.5136130252340081
 31
0.0
  0
ARC
  5
12022
  8
0
 10
8614.9514060363671888
 20
2245.5352934272450511
 30
0.0
 40
4.7457672808379572
 50
222.7078025709836879
 51
269.4414365524650066
  0
ARC
  5
12023
  8
0
 10
8621.7317146601271816
 20
2251.2526470988259462
 30
0.0
 40
13.6117470425326399
 50
177.0532287124541142
 51
221.0340699191216061
  0
ARC
  5
12024
  8
0
 10
8617.414718744408674
 20
2251.3828728912289989
 30
0.0
 40
9.2942188261527043
 50
135.8562230030561864
 51
176.4868383897124886
  0
ARC
  5
12025
  8
0
 10
8610.8947396214061882
 20
2257.854470079848852
 30
0.0
 40
0.1495072096280693
 50
157.7521320807188943
 51
179.4380405773432017
  0
LINE
  5
12026
  8
0
 10
8604.9542785171652213
 20
2268.7431447847338859
 30
0.0
 11
8624.8560042220633477
 21
2268.7431447847338859
 31
0.0
  0
ARC
  5
12027
  8
0
 10
8601.5139683082325064
 20
2258.0019744477767745
 30
0.0
 40
11.1007051186198993
 50
65.1001039154008083
 51
73.2840572187381412
  0
LINE
  5
12028
  8
0
 10
8610.7563625367602071
 20
2257.911075628834169
 30
0.0
 11
8619.0539202024665428
 21
2257.911075628834169
 31
0.0
  0
LINE
  5
12029
  8
0
 10
8610.745239602847505
 20
2257.8559364293591898
 30
0.0
 11
8619.0650431363847019
 21
2257.8559364293591898
 31
0.0
  0
ARC
  5
1202A
  8
0
 10
8612.8968810316491727
 20
2258.5219867609112043
 30
0.0
 40
0.0283232649579476
 50
270.2933453965281956
 51
4.281447314634379
  0
LINE
  5
1202B
  8
0
 10
8612.8970260416535893
 20
2258.4936638671688343
 30
0.0
 11
8612.7795382119275018
 21
2258.4932584245339058
 31
0.0
  0
ARC
  5
1202C
  8
0
 10
8613.1014641959845903
 20
2261.201097970866158
 30
0.0
 40
2.7269087531286091
 50
262.3764694302079192
 51
263.2201193184562271
  0
ARC
  5
1202D
  8
0
 10
8625.1189498037838348
 20
2270.0854960817919164
 30
0.0
 40
1.3678623409029149
 50
258.9169869390145777
 51
262.9557711508786042
  0
ARC
  5
1202E
  8
0
 10
8623.2295800860410964
 20
2267.7963248642640792
 30
0.0
 40
0.4784665143358512
 50
48.884315986891977
 51
84.7195072520185022
  0
ARC
  5
1202F
  8
0
 10
8623.0008455216357106
 20
2267.5831361909631596
 30
0.0
 40
0.7901447116624695
 50
29.6700478529679614
 51
46.5534019223657936
  0
ARC
  5
12030
  8
0
 10
7090.6788600146546742
 20
-121152.014004824202857
 30
0.0
 40
123429.8020414500933839
 50
89.2885553877682412
 51
89.2904978478668596
  0
ARC
  5
12031
  8
0
 10
8622.6712293979144306
 20
2260.394121009976061
 30
0.0
 40
0.2509538811005479
 50
250.2003562968407095
 51
352.1261294845181737
  0
LINE
  5
12032
  8
0
 10
8623.0521612684242427
 20
2261.5195519495841836
 30
0.0
 11
8623.7492783943471295
 21
2267.6847999480478393
 31
0.0
  0
ARC
  5
12033
  8
0
 10
8410.51819889977196
 20
2285.1839937594832008
 30
0.0
 40
213.8473543588839902
 50
353.3338488075963824
 51
353.6466117091121077
  0
ARC
  5
12034
  8
0
 10
8584.6787614923905494
 20
2266.9883720448378881
 30
0.0
 40
38.7611378007097471
 50
350.5828935682694123
 51
351.8890585833283922
  0
ARC
  5
12035
  8
0
 10
8622.5591941665843478
 20
2260.7144506876411469
 30
0.0
 40
0.3647665577982165
 50
256.1566502429270145
 51
349.224733559911499
  0
ARC
  5
12036
  8
0
 10
8614.984560704739124
 20
2240.4178145819169004
 30
0.0
 40
21.1532575429291683
 50
68.939022277348414
 51
90.2151159647851415
  0
ARC
  5
12037
  8
0
 10
8615.0853726308469049
 20
2243.6981037342011405
 30
0.0
 40
18.2053762978929896
 50
66.4930668555431907
 51
90.5672313014898265
  0
ARC
  5
12038
  8
0
 10
8622.5664134615890362
 20
2260.9837287068071419
 30
0.0
 40
0.630570140384293
 50
249.615058368956511
 51
261.3812718765914838
  0
ARC
  5
12039
  8
0
 10
8614.6856542744881153
 20
2245.3715533950480676
 30
0.0
 40
5.6470756677732261
 50
272.2274985136240844
 51
314.2587284472040778
  0
ARC
  5
1203A
  8
0
 10
8591.3966907630419882
 20
2257.0027160431941411
 30
0.0
 40
32.0454102397606988
 50
336.6823991997891881
 51
352.9421505473222282
  0
ARC
  5
1203B
  8
0
 10
8612.0088043908581312
 20
2248.4935605733940065
 30
0.0
 40
9.7547270273433035
 50
312.7214159841483934
 51
334.6574787885530213
  0
ARC
  5
1203C
  8
0
 10
8614.5915894530753576
 20
2248.0943024448788492
 30
0.0
 40
12.4969526118772905
 50
68.9362392444479184
 51
88.562282543435515
  0
ARC
  5
1203D
  8
0
 10
8616.9952068791717466
 20
2255.0275528982410833
 30
0.0
 40
5.1690919759729708
 50
19.4913899937141011
 51
66.1768873595570568
  0
ARC
  5
1203E
  8
0
 10
8610.0810702708786266
 20
2252.5051260390700918
 30
0.0
 40
12.5288372468424605
 50
359.2607355300258973
 51
19.8154604374607892
  0
ARC
  5
1203F
  8
0
 10
8620.7438600011410017
 20
2258.9231842587992105
 30
0.0
 40
2.6073911619637871
 50
1.8719880161731539
 51
33.4326250936667293
  0
ARC
  5
12040
  8
0
 10
8591.9927770998565393
 20
2257.0856058858707911
 30
0.0
 40
31.2444344532320102
 50
337.9481541359488119
 51
352.886150626241772
  0
ARC
  5
12041
  8
0
 10
8611.9448343671556358
 20
2248.9433530655101094
 30
0.0
 40
9.6951682452963226
 50
308.6586567500228284
 51
338.2772892751432892
  0
ARC
  5
12042
  8
0
 10
8614.7301743062016612
 20
2245.7100344516397854
 30
0.0
 40
5.4326039246468714
 50
271.84563578315732
 51
307.0212490448183758
  0
ARC
  5
12043
  8
0
 10
8609.0308672581741121
 20
2250.2843557641599546
 30
0.0
 40
13.1278280448292701
 50
22.2420112664116907
 51
38.5454453773877077
  0
ARC
  5
12044
  8
0
 10
8619.257914120082205
 20
2258.4212804726789727
 30
0.0
 40
0.0593660800050377
 50
47.0980506230205478
 51
89.9472597996475258
  0
ARC
  5
12045
  8
0
 10
8611.1240707748474961
 20
2250.9963601420881787
 30
0.0
 40
10.9216787290344808
 50
6.5870826167166268
 51
22.9412864880562708
  0
ARC
  5
12046
  8
0
 10
8606.2287952128081088
 20
2251.5756988104931224
 30
0.0
 40
15.9072908560231703
 50
328.1102413247111826
 51
351.2048183344523977
  0
LINE
  5
12047
  8
0
 10
8618.9823464589644573
 20
2257.9179468402339808
 30
0.0
 11
8618.9823464589644573
 21
2258.4792128297340241
 31
0.0
  0
ARC
  5
12048
  8
0
 10
8619.0423682557648135
 20
2257.2653317951248937
 30
0.0
 40
1.2153640533915699
 50
90.4168376346443523
 51
92.8307527221475652
  0
LINE
  5
12049
  8
0
 10
8619.0335263303641113
 20
2258.4806636850339601
 30
0.0
 11
8619.2579687659617775
 21
2258.4806465275341907
 31
0.0
  0
ARC
  5
1204A
  8
0
 10
8618.9777182542384253
 20
2257.9180883368508148
 30
0.0
 40
0.0046303671867043
 50
299.0496963238724106
 51
358.2488599836992762
  0
ARC
  5
1204B
  8
0
 10
8618.970939008251662
 20
2257.9314065796220348
 30
0.0
 40
0.0195724098898132
 50
277.1214223736386089
 51
297.4672333475601249
  0
ARC
  5
1204C
  8
0
 10
8618.9608939847566944
 20
2257.9661987071549447
 30
0.0
 40
0.0556295453740955
 50
277.7373193173360733
 51
282.9551209355121841
  0
LINE
  5
1204D
  8
0
 10
8618.9823464589644573
 20
2258.1364381674338802
 30
0.0
 11
8618.9574641646722739
 21
2258.1364381674338802
 31
0.0
  0
LINE
  5
1204E
  8
0
 10
8618.9823464589644573
 20
2258.0773712759591945
 30
0.0
 11
8618.957382249447619
 21
2258.077371314021093
 31
0.0
  0
LINE
  5
1204F
  8
0
 10
8618.9630262390637654
 20
2258.1364381674338802
 30
0.0
 11
8618.9626200602651807
 21
2258.3774718724339436
 31
0.0
  0
ARC
  5
12050
  8
0
 10
8618.9029137880606868
 20
2258.3769448953180472
 30
0.0
 40
0.059708597752065
 50
0.5056885912242314
 51
90.3013832073281435
  0
LINE
  5
12051
  8
0
 10
8618.9571516268970299
 20
2257.911075628834169
 30
0.0
 11
8618.9576993954651698
 21
2258.3062802064350763
 31
0.0
  0
LINE
  5
12052
  8
0
 10
8618.9025997145636211
 20
2258.4366526670341955
 30
0.0
 11
8618.5116633824673045
 21
2258.4366701263611503
 31
0.0
  0
ARC
  5
12053
  8
0
 10
8618.5128248017772421
 20
2258.0936438770741006
 30
0.0
 40
0.3430282154494424
 50
90.1939914816110786
 51
98.4759931729101936
  0
ARC
  5
12054
  8
0
 10
8626.0810925395471713
 20
2257.8496874814418334
 30
0.0
 40
7.1380114038633993
 50
175.7596817217462046
 51
176.3324926345918868
  0
LINE
  5
12055
  8
0
 10
8618.4548520042681048
 20
2257.911075628834169
 30
0.0
 11
8618.4577968026642338
 21
2258.3706859826338587
 31
0.0
  0
LINE
  5
12056
  8
0
 10
8618.4577968026642338
 20
2258.3706859826338587
 30
0.0
 11
8618.4622641571640997
 21
2258.4329254383342231
 31
0.0
  0
LINE
  5
12057
  8
0
 10
8618.4562959387603769
 20
2258.1364381674338802
 30
0.0
 11
8618.4242017481574294
 21
2258.1364381674338802
 31
0.0
  0
LINE
  5
12058
  8
0
 10
8618.4358843502650416
 20
2258.1364381674338802
 30
0.0
 11
8618.435884350366905
 21
2258.5952397990340614
 31
0.0
  0
ARC
  5
12059
  8
0
 10
8618.4157440712824609
 20
2258.5953345287562115
 30
0.0
 40
0.0201405018586511
 50
359.7305115176163781
 51
62.0661142459630568
  0
ARC
  5
1205A
  8
0
 10
8660.9151389495946205
 20
2257.9731504298429172
 30
0.0
 40
42.4912479174030011
 50
179.500195085384405
 51
180.0837025399555102
  0
ARC
  5
1205B
  8
0
 10
8617.3412526126612647
 20
2258.4650476068009084
 30
0.0
 40
1.091012538381406
 50
353.6197393566989717
 51
359.7017727429384877
  0
ARC
  5
1205C
  8
0
 10
8620.2263230633343483
 20
2258.4793689976468158
 30
0.0
 40
1.7941841676689041
 50
176.2971853392253081
 51
180.6387009839334894
  0
LINE
  5
1205D
  8
0
 10
8618.4251574826648721
 20
2258.5241017646058026
 30
0.0
 11
8618.4251574764639372
 21
2259.4384465982338952
 31
0.0
  0
ARC
  5
1205E
  8
0
 10
8618.3970936648092902
 20
2258.5218201868360666
 30
0.0
 40
0.0281564108109909
 50
270.1457846425100797
 51
4.6479028746015221
  0
LINE
  5
1205F
  8
0
 10
8618.3971653064872953
 20
2258.4936638671688343
 30
0.0
 11
8618.2796774767648458
 21
2258.4932584245339058
 31
0.0
  0
ARC
  5
12060
  8
0
 10
8632.9657373631707742
 20
2378.2418649587561958
 30
0.0
 40
120.6458002662132003
 50
262.9885066559785969
 51
263.0081170639214747
  0
ARC
  5
12061
  8
0
 10
8617.9251948249311681
 20
2259.4384614304549359
 30
0.0
 40
0.4999626517539058
 50
359.998300225726382
 51
89.9920127760708652
  0
ARC
  5
12062
  8
0
 10
8617.38515748266218
 20
2259.4384466380338381
 30
0.0
 40
0.5
 50
90.0
 51
180.0
  0
LINE
  5
12063
  8
0
 10
8617.925264521400095
 20
2259.938424077351101
 30
0.0
 11
8617.38515748266218
 21
2259.9384466380352023
 31
0.0
  0
LINE
  5
12064
  8
0
 10
8616.885157482665818
 20
2259.4384466380338381
 30
0.0
 11
8616.885157482665818
 21
2258.5241012577339461
 31
0.0
  0
LINE
  5
12065
  8
0
 10
8618.2386924388993066
 20
2258.498291980187787
 30
0.0
 11
8617.0705796863312571
 21
2258.498291980187787
 31
0.0
  0
LINE
  5
12066
  8
0
 10
8618.1077798049718695
 20
2258.498291980187787
 30
0.0
 11
8618.107911950266498
 21
2258.4932183611340406
 31
0.0
  0
LINE
  5
12067
  8
0
 10
8618.107911950266498
 20
2258.4932183611340406
 30
0.0
 11
8617.2024018297634029
 21
2258.4932160253338225
 31
0.0
  0
LINE
  5
12068
  8
0
 10
8617.2024018297634029
 20
2258.4932160253338225
 30
0.0
 11
8617.2025359184353874
 21
2258.498291980187787
 31
0.0
  0
LINE
  5
12069
  8
0
 10
8618.1684981808230077
 20
2258.498291980187787
 30
0.0
 11
8618.1678935233649099
 21
2258.4581271077340716
 31
0.0
  0
LINE
  5
1206A
  8
0
 10
8618.1678935233649099
 20
2258.4581271077340716
 30
0.0
 11
8618.4122758983176027
 21
2258.4581275375107907
 31
0.0
  0
ARC
  5
1206B
  8
0
 10
8618.412323079757698
 20
2258.4384902606498144
 30
0.0
 40
0.0196373335410591
 50
1.4656366274528521
 51
90.137661251766346
  0
LINE
  5
1206C
  8
0
 10
8618.1681121419896954
 20
2258.4726490310408735
 30
0.0
 11
8617.885171817664741
 21
2258.4726490394341454
 31
0.0
  0
ARC
  5
1206D
  8
0
 10
8617.8854379016938765
 20
2258.4169099450309659
 30
0.0
 40
0.0557397295080617
 50
90.2735131636200947
 51
96.8325811677589456
  0
ARC
  5
1206E
  8
0
 10
8617.9537672967471735
 20
2257.9881480070321231
 30
0.0
 40
0.4898750175423056
 50
98.8019805796233754
 51
101.6035741261083984
  0
ARC
  5
1206F
  8
0
 10
8617.8039337167701888
 20
2258.7306362400759099
 30
0.0
 40
0.2675885052538369
 50
275.4121174169537767
 51
281.0528572051146057
  0
ARC
  5
12070
  8
0
 10
8617.69598353807487
 20
2260.6065819811001347
 30
0.0
 40
2.1464775122411139
 50
272.134529046241596
 51
273.5574855731413777
  0
LINE
  5
12071
  8
0
 10
8617.7759311167592386
 20
2258.461593847048789
 30
0.0
 11
8617.543958108568404
 21
2258.461593847048789
 31
0.0
  0
LINE
  5
12072
  8
0
 10
8617.1418168279651582
 20
2258.498291980187787
 30
0.0
 11
8617.142421443364583
 21
2258.4581270972339553
 31
0.0
  0
LINE
  5
12073
  8
0
 10
8617.142421443364583
 20
2258.4581270972339553
 30
0.0
 11
8616.8921011097645533
 21
2258.4581273066341964
 31
0.0
  0
LINE
  5
12074
  8
0
 10
8616.8921011097645533
 20
2258.4581273066341964
 30
0.0
 11
8616.8885246997615468
 21
2258.508446383520095
 31
0.0
  0
ARC
  5
12075
  8
0
 10
8617.5406889162204607
 20
2259.144840625148845
 30
0.0
 40
0.6832545992551438
 50
265.8345653706979874
 51
270.2741461807464134
  0
ARC
  5
12076
  8
0
 10
8617.5208375704423815
 20
2258.8562838880638992
 30
0.0
 40
0.3940198681703595
 50
257.3215426379990163
 51
265.6657618829229932
  0
LINE
  5
12077
  8
0
 10
8617.1422028402175783
 20
2258.4726490061220829
 30
0.0
 11
8617.4251504251569713
 21
2258.4726490061220829
 31
0.0
  0
ARC
  5
12078
  8
0
 10
8617.4245560468843905
 20
2258.4107086793878807
 30
0.0
 40
0.0619431784892335
 50
80.8948788181258891
 51
89.4502075957763481
  0
ARC
  5
12079
  8
0
 10
8614.8588767028595612
 20
2245.5352934272450511
 30
0.0
 40
4.7457672808379572
 50
270.5585634475349934
 51
317.2921974290161984
  0
ARC
  5
1207A
  8
0
 10
8608.0785680790995684
 20
2251.2526470988259462
 30
0.0
 40
13.6117470425326399
 50
318.9659300808784224
 51
2.946771287545884
  0
ARC
  5
1207B
  8
0
 10
8612.395563994821714
 20
2251.3828728912289989
 30
0.0
 40
9.2942188261527043
 50
3.513161610287443
 51
44.1437769969438278
  0
ARC
  5
1207C
  8
0
 10
8618.9155431178205617
 20
2257.854470079848852
 30
0.0
 40
0.1495072096280693
 50
0.5619594226568125
 51
22.2478679192810382
  0
ARC
  5
1207D
  8
0
 10
8627.7591994423983124
 20
2259.4153511132831227
 30
0.0
 40
9.5931721746506504
 50
106.0715348165073948
 51
115.5443040493972973
  0
ARC
  5
1207E
  8
0
 10
8616.9134017075793963
 20
2258.5219867609112043
 30
0.0
 40
0.0283232649579476
 50
175.7185526853656086
 51
269.7066546034719181
  0
LINE
  5
1207F
  8
0
 10
8616.9132566975749796
 20
2258.4936638671688343
 30
0.0
 11
8617.0307445273010671
 21
2258.4932584245339058
 31
0.0
  0
ARC
  5
12080
  8
0
 10
8616.7088185432439786
 20
2261.201097970866158
 30
0.0
 40
2.7269087531286091
 50
276.7798806815437729
 51
277.6235305697920808
  0
ARC
  5
12081
  8
0
 10
8446.365614714775802
 20
2283.3283918759998414
 30
0.0
 40
179.4045788081579929
 50
350.2885384666337814
 51
355.2530509298530887
  0
ARC
  5
12082
  8
0
 10
8624.9037851796583709
 20
2268.4814426222910697
 30
0.0
 40
0.2510347616919022
 50
0.0680030911367128
 51
79.1124061850907623
  0
ARC
  5
12083
  8
0
 10
8623.1991382387022895
 20
2267.7143559672490483
 30
0.0
 40
0.5531231140653952
 50
0.95982870254828
 51
28.0269687858003813
  0
ARC
  5
12084
  8
0
 10
8624.3367351556153153
 20
2267.6603551244747905
 30
0.0
 40
0.587965131414445
 50
173.822880812230494
 51
177.6172243090776988
  0
ARC
  5
12085
  8
0
 10
8678.9275999421079177
 20
2256.6687159860630345
 30
0.0
 40
72.5049353074920049
 50
178.1508165189505064
 51
179.9970777623009042
  0
ARC
  5
12086
  8
0
 10
8600.8117503425492032
 20
2257.475773377943824
 30
0.0
 40
22.5901568687062593
 50
349.1314471360871039
 51
357.9619967427371989
  0
ARC
  5
12087
  8
0
 10
8550.8826827971843159
 20
2256.6687159860630345
 30
0.0
 40
72.5049353074253844
 50
0.0029222376990304
 51
1.8491834810495269
  0
ARC
  5
12088
  8
0
 10
8607.451998922502753
 20
2250.5696493293507956
 30
0.0
 40
14.6184595616896793
 50
0.8709071770247806
 51
6.5975038164645561
  0
ARC
  5
12089
  8
0
 10
8608.0757894676462456
 20
2250.9796785614898909
 30
0.0
 40
13.9942409177702594
 50
352.4602181733359885
 51
359.2309381686746974
  0
ARC
  5
1208B
  8
0
 10
8618.8549202758749743
 20
2253.0783034840060282
 30
0.0
 40
11.6766469804977202
 50
183.6080867768754104
 51
199.6933838079455938
  0
ARC
  5
1208C
  8
0
 10
8610.9553624633572326
 20
2253.0783034840060282
 30
0.0
 40
11.6766469804947199
 50
340.3066161920543209
 51
356.3919132231246181
  0
LINE
  5
1208D
  8
0
 10
8606.2768533996641054
 20
2264.7318980433351499
 30
0.0
 11
8605.6406228149753588
 21
2264.6442672639400371
 31
0.0
  0
ARC
  5
1208E
  8
0
 10
8628.8973994832686003
 20
2265.1405666967571051
 30
0.0
 40
23.2620715785584409
 50
181.2225059362552884
 51
185.8156399994383889
  0
ARC
  5
1208F
  8
0
 10
8605.9286139435644145
 20
2265.7241842534231182
 30
0.0
 40
1.1176580847108839
 50
245.0811953299592005
 51
255.0679257774318955
  0
LINE
  5
12090
  8
0
 10
8606.4507452596753865
 20
2262.9535689604340405
 30
0.0
 11
8605.7419748359407095
 21
2262.9156434333908692
 31
0.0
  0
ARC
  5
12091
  8
0
 10
8605.9023172107481514
 20
2262.3400598252151212
 30
0.0
 40
0.5974999306778211
 50
105.5664311520464054
 51
122.7229488211962973
  0
ARC
  5
12092
  8
0
 10
8614.9051413698816759
 20
2099.1787133139869184
 30
0.0
 40
169.1976808342901961
 50
88.5829381557216067
 51
91.4170618444867671
  0
ENDSEC
  0
EOF
