  0
SECTION
  2
HEADER
  9
$ACADVER
  1
AC1009
  9
$INSBASE
 10
8614.9052179665031872
 20
2270.0086827956820343
 30
0.0
  9
$EXTMIN
 10
8585.6025037380677531
 20
2269.8773245103711815
 30
-0.0015258207003583
  9
$EXTMAX
 10
8615.1794624415197177
 20
2301.660450787262107
 30
0.0000000349246037
  9
$LIMMIN
 10
0.0
 20
0.0
  9
$LIMMAX
 10
11.6929133858000007
 20
8.2677165353999982
  9
$ORTHOMODE
 70
     0
  9
$REGENMODE
 70
     1
  9
$FILLMODE
 70
     1
  9
$QTEXTMODE
 70
     0
  9
$MIRRTEXT
 70
     0
  9
$DRAGMODE
 70
     2
  9
$LTSCALE
 40
0.6431102362
  9
$OSMODE
 70
  4063
  9
$ATTMODE
 70
     1
  9
$TEXTSIZE
 40
0.2
  9
$TRACEWID
 40
0.05
  9
$TEXTSTYLE
  7
STANDARD
  9
$CLAYER
  8
0
  9
$CELTYPE
  6
BYLAYER
  9
$CECOLOR
 62
     1
  9
$DIMSCALE
 40
1.0
  9
$DIMASZ
 40
0.1875
  9
$DIMEXO
 40
0.0625
  9
$DIMDLI
 40
0.4443307087
  9
$DIMRND
 40
0.0
  9
$DIMDLE
 40
0.0
  9
$DIMEXE
 40
0.125
  9
$DIMTP
 40
0.01
  9
$DIMTM
 40
0.01
  9
$DIMTXT
 40
2.0
  9
$DIMCEN
 40
0.1052362205
  9
$DIMTSZ
 40
0.0
  9
$DIMTOL
 70
     1
  9
$DIMLIM
 70
     0
  9
$DIMTIH
 70
     1
  9
$DIMTOH
 70
     1
  9
$DIMSE1
 70
     0
  9
$DIMSE2
 70
     0
  9
$DIMTAD
 70
     0
  9
$DIMZIN
 70
     0
  9
$DIMBLK
  1

  9
$DIMASO
 70
     1
  9
$DIMSHO
 70
     1
  9
$DIMPOST
  1
\X
  9
$DIMAPOST
  1

  9
$DIMALT
 70
     1
  9
$DIMALTD
 70
     2
  9
$DIMALTF
 40
25.3999999999999986
  9
$DIMLFAC
 40
1.0
  9
$DIMTOFL
 70
     0
  9
$DIMTVP
 40
0.0
  9
$DIMTIX
 70
     0
  9
$DIMSOXD
 70
     0
  9
$DIMSAH
 70
     0
  9
$DIMBLK1
  1

  9
$DIMBLK2
  1

  9
$DIMSTYLE
  2
STANDARD
  9
$DIMCLRD
 70
     0
  9
$DIMCLRE
 70
     0
  9
$DIMCLRT
 70
     0
  9
$DIMTFAC
 40
1.0
  9
$DIMGAP
 40
0.09
  9
$LUNITS
 70
     2
  9
$LUPREC
 70
     4
  9
$SKETCHINC
 40
0.1
  9
$FILLETRAD
 40
0.0
  9
$AUNITS
 70
     0
  9
$AUPREC
 70
     0
  9
$MENU
  1
.
  9
$ELEVATION
 40
0.0
  9
$PELEVATION
 40
0.0
  9
$THICKNESS
 40
0.0
  9
$LIMCHECK
 70
     0
  9
$BLIPMODE
 70
     0
  9
$CHAMFERA
 40
0.0
  9
$CHAMFERB
 40
0.0
  9
$SKPOLY
 70
     0
  9
$TDCREATE
 40
2458060.468368056230247
  9
$TDUPDATE
 40
2459431.5234027779661119
  9
$TDINDWG
 40
0.4862686343
  9
$TDUSRTIMER
 40
0.4862686343
  9
$USRTIMER
 70
     1
  9
$ANGBASE
 50
0.0
  9
$ANGDIR
 70
     0
  9
$PDMODE
 70
     0
  9
$PDSIZE
 40
0.3125
  9
$PLINEWID
 40
0.0
  9
$COORDS
 70
     1
  9
$SPLFRAME
 70
     0
  9
$SPLINETYPE
 70
     6
  9
$SPLINESEGS
 70
     8
  9
$ATTDIA
 70
     1
  9
$ATTREQ
 70
     1
  9
$HANDLING
 70
     1
  9
$HANDSEED
  5
11B6E
  9
$SURFTAB1
 70
     6
  9
$SURFTAB2
 70
     6
  9
$SURFTYPE
 70
     6
  9
$SURFU
 70
     6
  9
$SURFV
 70
     6
  9
$UCSNAME
  2

  9
$UCSORG
 10
0.0
 20
0.0
 30
0.0
  9
$UCSXDIR
 10
1.0
 20
0.0
 30
0.0
  9
$UCSYDIR
 10
0.0
 20
1.0
 30
0.0
  9
$PUCSNAME
  2

  9
$PUCSORG
 10
0.0
 20
0.0
 30
0.0
  9
$PUCSXDIR
 10
1.0
 20
0.0
 30
0.0
  9
$PUCSYDIR
 10
0.0
 20
1.0
 30
0.0
  9
$USERI1
 70
     0
  9
$USERI2
 70
     0
  9
$USERI3
 70
     0
  9
$USERI4
 70
     0
  9
$USERI5
 70
     0
  9
$USERR1
 40
0.0
  9
$USERR2
 40
0.0
  9
$USERR3
 40
0.0
  9
$USERR4
 40
0.0
  9
$USERR5
 40
0.0
  9
$WORLDVIEW
 70
     1
  9
$SHADEDGE
 70
     3
  9
$SHADEDIF
 70
    70
  9
$TILEMODE
 70
     1
  9
$MAXACTVP
 70
    64
  9
$PLIMCHECK
 70
     0
  9
$PEXTMIN
 10
1.0000000000000000E+20
 20
1.0000000000000000E+20
 30
1.0000000000000000E+20
  9
$PEXTMAX
 10
-1.0000000000000000E+20
 20
-1.0000000000000000E+20
 30
-1.0000000000000000E+20
  9
$PLIMMIN
 10
0.0
 20
0.0
  9
$PLIMMAX
 10
12.0
 20
9.0
  9
$UNITMODE
 70
     0
  9
$VISRETAIN
 70
     1
  9
$PLINEGEN
 70
     0
  9
$PSLTSCALE
 70
     1
  0
ENDSEC
  0
SECTION
  2
TABLES
  0
TABLE
  2
VPORT
 70
     1
  0
VPORT
  2
*ACTIVE
 70
     0
 10
0.0
 20
0.0
 11
1.0
 21
1.0
 12
3785.0926432460441902
 22
2037.9602633812380645
 13
0.0
 23
0.0
 14
1.0
 24
1.0
 15
0.0
 25
0.0
 16
0.0
 26
0.0
 36
9.5192988075487186
 17
4815.2983398437490905
 27
247.8086242675780966
 37
0.0
 40
32.8483761330862905
 41
2.0184501845018441
 42
50.0
 43
0.0
 44
0.0
 50
0.0
 51
0.0
 71
     0
 72
   100
 73
     1
 74
     1
 75
     0
 76
     0
 77
     0
 78
     0
  0
ENDTAB
  0
TABLE
  2
LTYPE
 70
     2
  0
LTYPE
  2
CONTINUOUS
 70
     0
  3
Solid line
 72
    65
 73
     0
 40
0.0
  0
LTYPE
  2
PHANTOM2
 70
     0
  3
___ _ _ ___ _ _ ___ _ _ ___ _ _
 72
    65
 73
     6
 40
1.25
 49
0.625
 49
-0.125
 49
0.125
 49
-0.125
 49
0.125
 49
-0.125
  0
ENDTAB
  0
TABLE
  2
LAYER
 70
     2
  0
LAYER
  2
0
 70
     0
 62
   255
  6
CONTINUOUS
  0
LAYER
  2
DEFPOINTS
 70
     0
 62
     7
  6
CONTINUOUS
  0
ENDTAB
  0
TABLE
  2
STYLE
 70
     1
  0
STYLE
  2
STANDARD
 70
     0
 40
0.0
 41
0.8
 50
0.0
 71
     0
 42
0.2
  3
txt
  4

  0
ENDTAB
  0
TABLE
  2
VIEW
 70
     0
  0
ENDTAB
  0
TABLE
  2
UCS
 70
     0
  0
ENDTAB
  0
TABLE
  2
APPID
 70
    10
  0
APPID
  2
ACAD
 70
     0
  0
APPID
  2
ACAD_MLEADERVER
 70
     0
  0
APPID
  2
ACAD_EXEMPT_FROM_CAD_STANDARDS
 70
     0
  0
APPID
  2
ACAD_NAV_VCDISPLAY
 70
     0
  0
APPID
  2
ACAECLAYERSTANDARD
 70
     0
  0
APPID
  2
ACCMTRANSPARENCY
 70
     0
  0
APPID
  2
ACAD_DSTYLE_DIMJAG
 70
     0
  0
APPID
  2
ACAD_DSTYLE_DIMTALN
 70
     0
  0
APPID
  2
ACDBATTR
 70
     0
  0
APPID
  2
ACADANNOTATIVE
 70
     0
  0
ENDTAB
  0
TABLE
  2
DIMSTYLE
 70
     1
  0
DIMSTYLE
  2
STANDARD
 70
     0
  3

  4

  5

  6

  7

 40
1.0
 41
0.1875
 42
0.0625
 43
0.38
 44
0.125
 45
0.0
 46
0.0
 47
0.01
 48
0.01
140
0.15625
141
0.09
142
0.0
143
25.3999999999999986
144
1.0
145
0.0
146
1.0
147
0.09
 71
     1
 72
     0
 73
     1
 74
     1
 75
     0
 76
     0
 77
     0
 78
     4
170
     0
171
     2
172
     0
173
     0
174
     0
175
     0
176
     0
177
     0
178
     0
  0
ENDTAB
  0
ENDSEC
  0
SECTION
  2
BLOCKS
  0
BLOCK
  8
0
  2
$MODEL_SPACE
 70
     0
 10
0.0
 20
0.0
 30
0.0
  3
$MODEL_SPACE
  1

  0
ENDBLK
  5
21
  8
0
  0
BLOCK
 67
     1
  8
0
  2
$PAPER_SPACE
 70
     0
 10
0.0
 20
0.0
 30
0.0
  3
$PAPER_SPACE
  1

  0
ENDBLK
  5
1D
 67
     1
  8
0
  0
BLOCK
  8
0
  2
_FILLED
 70
     0
 10
0.0
 20
0.0
 30
0.0
  3
_FILLED
  1

  0
SOLID
  5
11A4A
  8
0
  6
BYBLOCK
 62
     0
 10
0.0
 20
0.0
 30
0.0
 11
-1.0
 21
0.1666666667
 31
0.0
 12
-1.0
 22
-0.1666666667
 32
0.0
 13
-1.0
 23
-0.1666666667
 33
0.0
  0
ENDBLK
  5
11A4B
  8
0
  6
BYBLOCK
 62
     0
  0
ENDSEC
  0
SECTION
  2
ENTITIES
  0
ATTDEF
  5
3930
  8
DEFPOINTS
 10
8614.9058693279548606
 20
2270.0072500844448768
 30
0.0
 40
0.001
  1
K-75921X-S
  3

  2
MODELNUMBER
 70
     0
1001
ACDBATTR
1070
     0
1070
     1
  0
ATTDEF
  5
3931
  8
DEFPOINTS
 10
8614.9058693279548606
 20
2270.0055834177787801
 30
0.0
 40
0.001
  1
KARESS
  3

  2
TRADENAME
 70
     0
1001
ACDBATTR
1070
     0
1070
     1
  0
ATTDEF
  5
3932
  8
DEFPOINTS
 10
8614.9058693279548606
 20
2270.0039167511117739
 30
0.0
 40
0.001
  1
TOILET
  3

  2
PRODUCT
 70
     0
1001
ACDBATTR
1070
     0
1070
     1
  0
LINE
  5
11A97
  8
0
 10
8608.3253952992272389
 20
2299.9288025182818274
 30
0.0
 11
8614.3148735512677376
 21
2299.9288025182818274
 31
0.0
  0
LINE
  5
11A98
  8
0
 10
8608.3962513279002451
 20
2301.5035920228019677
 30
0.0
 11
8614.1968178935603646
 21
2301.5035920228019677
 31
0.0
  0
LINE
  5
11A99
  8
0
 10
8598.5107053312585776
 20
2285.44598688158203
 30
0.0
 11
8598.9607656376520026
 21
2285.44598688158203
 31
0.0
  0
LINE
  5
11A9A
  8
0
 10
8590.3623842947054072
 20
2270.0086827956820343
 30
0.0
 11
8612.4643140295502235
 21
2270.0086827956820343
 31
0.0
  0
ARC
  5
11A9B
  8
0
 10
8608.398826526297853
 20
2301.2673189008528425
 30
0.0
 40
0.2362871553902146
 50
90.624455952894877
 51
182.1237436350099017
  0
LINE
  5
11A9C
  8
0
 10
8608.1627016712045588
 20
2301.2585626111817874
 30
0.0
 11
8608.2083343401227467
 21
2300.0424846612991132
 31
0.0
  0
ARC
  5
11A9D
  8
0
 10
8608.3263686031914403
 20
2300.0469159214339925
 30
0.0
 40
0.1181174132998159
 50
182.1499971112131107
 51
269.5278694405296847
  0
ARC
  5
11A9E
  8
0
 10
8614.3147250341462495
 20
2300.0468829791770986
 30
0.0
 40
0.1180805542952646
 50
270.0720644191433735
 51
0.0138244850612629
  0
ARC
  5
11A9F
  8
0
 10
8614.3147829169338365
 20
2299.8107687152141807
 30
0.0
 40
0.1180338378660764
 50
359.9624886297168018
 51
89.9560044347899037
  0
ARC
  5
11AA0
  8
0
 10
8608.32720366950889
 20
2299.8106763731962019
 30
0.0
 40
0.1181399862704596
 50
90.8770614812347617
 51
178.2067023819066947
  0
LINE
  5
11AA1
  8
0
 10
8607.7743477176609304
 20
2285.8785111771121592
 30
0.0
 11
8608.2091215449036099
 21
2299.8143734267819127
 31
0.0
  0
ARC
  5
11AA2
  8
0
 10
8607.9230465354794433
 20
2285.9045289070659237
 30
0.0
 40
0.1509578109673887
 50
189.9245394918779084
 51
258.2852645494324975
  0
LINE
  5
11AA3
  8
0
 10
8607.8923961932869133
 20
2285.7567154529579057
 30
0.0
 11
8614.3513661899323779
 21
2285.7567121498818778
 31
0.0
  0
ARC
  5
11AA4
  8
0
 10
8614.2974071808930603
 20
2285.8810658159791274
 30
0.0
 40
0.1355559254630052
 50
293.4567792975037719
 51
357.3597107550780265
  0
ARC
  5
11AA5
  8
0
 10
8614.3540963200593978
 20
2285.6780378015291717
 30
0.0
 40
0.0787217041187187
 50
359.9306439499279122
 51
91.9874608836567091
  0
ARC
  5
11AA6
  8
0
 10
8607.6617651116339403
 20
2285.7558175160288556
 30
0.0
 40
0.3928094450458832
 50
270.3013581546866249
 51
350.516598344480883
  0
ARC
  5
11AA7
  8
0
 10
8608.1263349926339288
 20
2285.6786380447229021
 30
0.0
 40
0.0781286895429241
 50
92.078430938744475
 51
170.8236664116373049
  0
LINE
  5
11AA8
  8
0
 10
8605.2780248645030952
 20
2285.8118324019819738
 30
0.0
 11
8605.3297739879035362
 21
2285.8118324019819738
 31
0.0
  0
LINE
  5
11AA9
  8
0
 10
8605.2845533336731023
 20
2285.4378166539818267
 30
0.0
 11
8605.3297739879035362
 21
2285.4378166539818267
 31
0.0
  0
LINE
  5
11AAA
  8
0
 10
8605.3415850115034118
 20
2285.8000213783820982
 30
0.0
 11
8605.3415850115034118
 21
2285.449627677582157
 31
0.0
  0
ARC
  5
11AAB
  8
0
 10
8605.3297739879035362
 20
2285.449627677582157
 30
0.0
 40
0.0118110236000026
 50
270.0
 51
0.0
  0
ARC
  5
11AAC
  8
0
 10
8605.3297739879035362
 20
2285.8000213783820982
 30
0.0
 40
0.0118110235999964
 50
0.0
 51
89.9999999995831246
  0
ARC
  5
11AAD
  8
0
 10
8605.034926892583826
 20
2286.2043979156760543
 30
0.0
 40
0.2362097340981075
 50
0.9998914417098191
 51
14.0010409401927909
  0
ARC
  5
11AAE
  8
0
 10
8604.6953078427741275
 20
2286.3866355486388784
 30
0.0
 40
0.5216535479228108
 50
13.9979368381069396
 51
44.0713934723967
  0
LINE
  5
11AAF
  8
0
 10
8605.2641191498551052
 20
2286.2615463862448451
 30
0.0
 11
8605.2014705949040945
 21
2286.5128167374818986
 31
0.0
  0
LINE
  5
11AB0
  8
0
 10
8605.2711006586032454
 20
2286.2085198964819028
 30
0.0
 11
8605.2858590275045572
 21
2285.3630135043817972
 31
0.0
  0
LINE
  5
11AB1
  8
0
 10
8605.2105294518241863
 20
2286.1731241386592046
 30
0.0
 11
8605.1851212532055797
 21
2286.4342885777818992
 31
0.0
  0
ARC
  5
11AB2
  8
0
 10
8604.6953078464030114
 20
2286.3866355515820032
 30
0.0
 40
0.4921259842999645
 50
5.5567114011402774
 51
37.5628051681590591
  0
ARC
  5
11AB3
  8
0
 10
8585.977773600972796
 20
2285.6470177657211025
 30
0.0
 40
0.0779412837250895
 50
241.2525195969541016
 51
267.7515756214550038
  0
LINE
  5
11AB4
  8
0
 10
8604.8408673809572065
 20
2285.5691364877820888
 30
0.0
 11
8585.9747157822512236
 21
2285.5691364877820888
 31
0.0
  0
ARC
  5
11AB5
  8
0
 10
8604.8351942882145522
 20
2285.9634264923520277
 30
0.0
 40
0.3943308150332871
 50
270.8243217934170843
 51
298.0549872847420261
  0
ARC
  5
11AB6
  8
0
 10
8604.8550932979396748
 20
2285.9717798791461973
 30
0.0
 40
0.3931071749706847
 50
270.4128315182225037
 51
15.0522432688064107
  0
LINE
  5
11AB7
  8
0
 10
8605.2347127413395356
 20
2286.0738696886669459
 30
0.0
 11
8604.9047067476440134
 21
2287.4282992992798427
 31
0.0
  0
ARC
  5
11AB8
  8
0
 10
8604.7906209920074616
 20
2287.3977302212279028
 30
0.0
 40
0.1181102373716175
 50
14.9999493761473897
 51
89.7745079556625569
  0
ARC
  5
11AB9
  8
0
 10
8614.3238272690668964
 20
1672.6076563376429931
 30
0.0
 40
614.9820704162922311
 50
90.8881685389874292
 51
92.6445182018819509
  0
ARC
  5
11ABA
  8
0
 10
8585.9622215626677644
 20
2286.6851304076471934
 30
0.0
 40
0.2500000121051356
 50
93.0157721166243334
 51
174.4999976642386912
  0
LINE
  5
11ABB
  8
0
 10
8585.6107586412035744
 20
2285.6434061653822027
 30
0.0
 11
8585.7133725020048587
 21
2286.7090918570820577
 31
0.0
  0
ARC
  5
11ABC
  8
0
 10
8585.6693052684004215
 20
2285.6374876028321523
 30
0.0
 40
0.0588450247564849
 50
174.2274981191712868
 51
267.8785961357389169
  0
LINE
  5
11ABD
  8
0
 10
8585.6671270007554995
 20
2285.5786829083881457
 30
0.0
 11
8604.8579257164710725
 21
2285.5786829083881457
 31
0.0
  0
ARC
  5
11ABE
  8
0
 10
8585.9335845626374066
 20
2285.126755065488851
 30
0.0
 40
0.2363162064494215
 50
91.2668982090698648
 51
187.3195611872451991
  0
ARC
  5
11ABF
  8
0
 10
8638.946156387533847
 20
2293.2925246848299139
 30
0.0
 40
53.8750424954529095
 50
188.7926056544787059
 51
205.6061367968978004
  0
LINE
  5
11AC0
  8
0
 10
8585.704247093104641
 20
2285.0572773557819346
 30
0.0
 11
8585.6991940960033389
 21
2285.0966476148819311
 31
0.0
  0
ARC
  5
11AC1
  8
0
 10
8721.3035891189447284
 20
2261.6323039721601162
 30
0.0
 40
109.1611264332647977
 50
168.2424364584765897
 51
175.5991349283004865
  0
LINE
  5
11AC2
  8
0
 10
8614.4328179666044889
 20
2283.8761749815821531
 30
0.0
 11
8614.4328179665044445
 21
2285.6779425096037812
 31
0.0
  0
CIRCLE
  5
11AC3
  8
0
 10
8604.2834625213035906
 20
2271.3780535014820998
 30
0.0
 40
0.5459364162774559
  0
LINE
  5
11AC4
  8
0
 10
8585.928359671979706
 20
2285.3630135043817972
 30
0.0
 11
8607.6638311588158103
 21
2285.3630135043817972
 31
0.0
  0
LINE
  5
11AC5
  8
0
 10
8614.4328192035045504
 20
2285.8748213735821082
 30
0.0
 11
8614.4328167295025196
 21
2299.8106914388290534
 31
0.0
  0
LINE
  5
11AC6
  8
0
 10
8614.4328055850037344
 20
2300.0469114699822057
 30
0.0
 11
8614.4328008850025071
 21
2301.2673720235129622
 31
0.0
  0
ARC
  5
11AC7
  8
0
 10
8614.196699161624565
 20
2301.2674902996509445
 30
0.0
 40
0.2361017530046589
 50
359.9712974439439108
 51
89.9711868335780736
  0
ARC
  5
11AC8
  8
0
 10
8586.9724175719584309
 20
2284.9042740770291857
 30
0.0
 40
1.273510668442253
 50
21.1222652200728582
 51
31.4712424258375911
  0
ARC
  5
11AC9
  8
0
 10
8589.9494232891574939
 20
2285.4480459447891008
 30
0.0
 40
0.0734265414903578
 50
276.6992027152573996
 51
346.6444375721268898
  0
ARC
  5
11ACA
  8
0
 10
8589.1609603265642363
 20
2285.4326315410480674
 30
0.0
 40
0.0575294703481841
 50
181.5402931917095941
 51
271.4597069163473861
  0
LINE
  5
11ACB
  8
0
 10
8589.1034516434028774
 20
2285.4310851517820993
 30
0.0
 11
8589.0962166795034136
 21
2285.5691364877820888
 31
0.0
  0
LINE
  5
11ACC
  8
0
 10
8590.0208640337041288
 20
2285.4310849007820252
 30
0.0
 11
8590.0280990108058177
 21
2285.5691364877820888
 31
0.0
  0
LINE
  5
11ACD
  8
0
 10
8589.1624258286028635
 20
2285.375120739781778
 30
0.0
 11
8589.9579890031036484
 21
2285.3751207396821883
 31
0.0
  0
ARC
  5
11ACE
  8
0
 10
8603.4057754357363592
 20
2281.368930923012158
 30
0.0
 40
4.5606282693612661
 50
112.9315753755052043
 51
118.8544042677959993
  0
LINE
  5
11ACF
  8
0
 10
8603.711056144491522
 20
2285.3630287772321026
 30
0.0
 11
8603.7146537679673202
 21
2285.5691364877820888
 31
0.0
  0
LINE
  5
11AD0
  8
0
 10
8598.4521370610909798
 20
2285.5019512935050443
 30
0.0
 11
8598.4486160342039511
 21
2285.5691364877820888
 31
0.0
  0
LINE
  5
11AD1
  8
0
 10
8599.0186353221142781
 20
2285.5019512935050443
 30
0.0
 11
8599.0221563490031258
 21
2285.5691364877820888
 31
0.0
  0
ARC
  5
11AD2
  8
0
 10
8598.9602135245058889
 20
2285.5044599074230973
 30
0.0
 40
0.0584756323602076
 50
270.5409812924858102
 51
357.5412473720809885
  0
ARC
  5
11AD3
  8
0
 10
8598.5109065703709348
 20
2285.504826328827221
 30
0.0
 40
0.0588397913761191
 50
182.8007069216332923
 51
269.8040412095998022
  0
LINE
  5
11AD4
  8
0
 10
8610.5879361143543065
 20
2301.5520260866828721
 30
0.0
 11
8610.5879361143543065
 21
2301.5035920228019677
 31
0.0
  0
LINE
  5
11AD5
  8
0
 10
8612.477663931553252
 20
2301.5508977466279248
 30
0.0
 11
8612.477663931553252
 21
2301.5035920228019677
 31
0.0
  0
LINE
  5
11AD6
  8
0
 10
8610.6272882123539603
 20
2301.59020642598216
 30
0.0
 11
8612.4383118334517349
 21
2301.5902064673819041
 31
0.0
  0
ARC
  5
11AD7
  8
0
 10
8612.4383245421868196
 20
2301.5508670681051626
 30
0.0
 40
0.0393394013300296
 50
0.0446816682146261
 51
90.0185096054698306
  0
ARC
  5
11AD8
  8
0
 10
8610.6272882123539603
 20
2301.5508363472818019
 30
0.0
 40
0.039370078699978
 50
90.0
 51
178.268293382464293
  0
LINE
  5
11ADB
  8
0
 10
8605.2943409170038649
 20
2285.4378166539818267
 30
0.0
 11
8605.2943409170038649
 21
2285.8118324019819738
 31
0.0
  0
ENDSEC
  0
EOF
