  0
SECTION
  2
HEADER
  9
$ACADVER
  1
AC1009
  9
$INSBASE
 10
5.48155782733956
 20
15.6927643974966102
 30
0.0
  9
$EXTMIN
 10
-4.3609618577604401
 20
5.8502447124966048
 30
0.0
  9
$EXTMAX
 10
15.3240775124395601
 20
25.5352840824966201
 30
0.0
  9
$LIMMIN
 10
0.0
 20
0.0
  9
$LIMMAX
 10
11.6929133858000007
 20
8.2677165353999982
  9
$ORTHOMODE
 70
     0
  9
$REGENMODE
 70
     1
  9
$FILLMODE
 70
     1
  9
$QTEXTMODE
 70
     0
  9
$MIRRTEXT
 70
     0
  9
$DRAGMODE
 70
     2
  9
$LTSCALE
 40
0.6431102362
  9
$OSMODE
 70
  3839
  9
$ATTMODE
 70
     1
  9
$TEXTSIZE
 40
0.2
  9
$TRACEWID
 40
0.05
  9
$TEXTSTYLE
  7
STANDARD
  9
$CLAYER
  8
0
  9
$CELTYPE
  6
BYLAYER
  9
$CECOLOR
 62
   256
  9
$DIMSCALE
 40
1.0
  9
$DIMASZ
 40
0.1875
  9
$DIMEXO
 40
0.0625
  9
$DIMDLI
 40
0.4443307087
  9
$DIMRND
 40
0.0
  9
$DIMDLE
 40
0.0
  9
$DIMEXE
 40
0.125
  9
$DIMTP
 40
0.01
  9
$DIMTM
 40
0.01
  9
$DIMTXT
 40
1.0
  9
$DIMCEN
 40
0.1052362205
  9
$DIMTSZ
 40
0.0
  9
$DIMTOL
 70
     1
  9
$DIMLIM
 70
     0
  9
$DIMTIH
 70
     1
  9
$DIMTOH
 70
     1
  9
$DIMSE1
 70
     0
  9
$DIMSE2
 70
     0
  9
$DIMTAD
 70
     0
  9
$DIMZIN
 70
     0
  9
$DIMBLK
  1

  9
$DIMASO
 70
     1
  9
$DIMSHO
 70
     1
  9
$DIMPOST
  1
\X
  9
$DIMAPOST
  1

  9
$DIMALT
 70
     1
  9
$DIMALTD
 70
     2
  9
$DIMALTF
 40
25.3999999999999986
  9
$DIMLFAC
 40
1.0
  9
$DIMTOFL
 70
     0
  9
$DIMTVP
 40
0.0
  9
$DIMTIX
 70
     0
  9
$DIMSOXD
 70
     0
  9
$DIMSAH
 70
     0
  9
$DIMBLK1
  1

  9
$DIMBLK2
  1

  9
$DIMSTYLE
  2
STANDARD
  9
$DIMCLRD
 70
     0
  9
$DIMCLRE
 70
     0
  9
$DIMCLRT
 70
     0
  9
$DIMTFAC
 40
1.0
  9
$DIMGAP
 40
0.09
  9
$LUNITS
 70
     2
  9
$LUPREC
 70
     4
  9
$SKETCHINC
 40
0.1
  9
$FILLETRAD
 40
0.0
  9
$AUNITS
 70
     0
  9
$AUPREC
 70
     0
  9
$MENU
  1
.
  9
$ELEVATION
 40
0.0
  9
$PELEVATION
 40
0.0
  9
$THICKNESS
 40
0.0
  9
$LIMCHECK
 70
     0
  9
$BLIPMODE
 70
     0
  9
$CHAMFERA
 40
0.0
  9
$CHAMFERB
 40
0.0
  9
$SKPOLY
 70
     0
  9
$TDCREATE
 40
2457893.7626041672192514
  9
$TDUPDATE
 40
2459136.5314930560998619
  9
$TDINDWG
 40
0.2988004514
  9
$TDUSRTIMER
 40
0.2988004514
  9
$USRTIMER
 70
     1
  9
$ANGBASE
 50
0.0
  9
$ANGDIR
 70
     0
  9
$PDMODE
 70
     0
  9
$PDSIZE
 40
0.3125
  9
$PLINEWID
 40
0.0
  9
$COORDS
 70
     1
  9
$SPLFRAME
 70
     0
  9
$SPLINETYPE
 70
     6
  9
$SPLINESEGS
 70
     8
  9
$ATTDIA
 70
     1
  9
$ATTREQ
 70
     1
  9
$HANDLING
 70
     1
  9
$HANDSEED
  5
2995
  9
$SURFTAB1
 70
     6
  9
$SURFTAB2
 70
     6
  9
$SURFTYPE
 70
     6
  9
$SURFU
 70
     6
  9
$SURFV
 70
     6
  9
$UCSNAME
  2

  9
$UCSORG
 10
0.0
 20
0.0
 30
0.0
  9
$UCSXDIR
 10
1.0
 20
0.0
 30
0.0
  9
$UCSYDIR
 10
0.0
 20
1.0
 30
0.0
  9
$PUCSNAME
  2

  9
$PUCSORG
 10
0.0
 20
0.0
 30
0.0
  9
$PUCSXDIR
 10
1.0
 20
0.0
 30
0.0
  9
$PUCSYDIR
 10
0.0
 20
1.0
 30
0.0
  9
$USERI1
 70
     0
  9
$USERI2
 70
     0
  9
$USERI3
 70
     0
  9
$USERI4
 70
     0
  9
$USERI5
 70
     0
  9
$USERR1
 40
0.0
  9
$USERR2
 40
0.0
  9
$USERR3
 40
0.0
  9
$USERR4
 40
0.0
  9
$USERR5
 40
0.0
  9
$WORLDVIEW
 70
     1
  9
$SHADEDGE
 70
     3
  9
$SHADEDIF
 70
    70
  9
$TILEMODE
 70
     1
  9
$MAXACTVP
 70
    48
  9
$PLIMCHECK
 70
     0
  9
$PEXTMIN
 10
1.0000000000000000E+20
 20
1.0000000000000000E+20
 30
1.0000000000000000E+20
  9
$PEXTMAX
 10
-1.0000000000000000E+20
 20
-1.0000000000000000E+20
 30
-1.0000000000000000E+20
  9
$PLIMMIN
 10
0.0
 20
0.0
  9
$PLIMMAX
 10
12.0
 20
9.0
  9
$UNITMODE
 70
     0
  9
$VISRETAIN
 70
     1
  9
$PLINEGEN
 70
     0
  9
$PSLTSCALE
 70
     1
  0
ENDSEC
  0
SECTION
  2
TABLES
  0
TABLE
  2
VPORT
 70
     1
  0
VPORT
  2
*ACTIVE
 70
     0
 10
0.0
 20
0.0
 11
1.0
 21
1.0
 12
0.0
 22
0.0
 13
0.0
 23
0.0
 14
1.0
 24
1.0
 15
0.0
 25
0.0
 16
-0.0000000000000249
 26
0.0
 36
110.0855720715665029
 17
5.481557846069335
 27
15.6927642822265607
 37
0.0
 40
27.8388498654072514
 41
3.1396160558464219
 42
50.0
 43
0.0
 44
0.0
 50
0.0
 51
0.0
 71
     0
 72
   100
 73
     1
 74
     1
 75
     0
 76
     0
 77
     0
 78
     0
  0
ENDTAB
  0
TABLE
  2
LTYPE
 70
     2
  0
LTYPE
  2
CONTINUOUS
 70
     0
  3
Solid line
 72
    65
 73
     0
 40
0.0
  0
LTYPE
  2
PHANTOM2
 70
     0
  3
___ _ _ ___ _ _ ___ _ _ ___ _ _
 72
    65
 73
     6
 40
1.25
 49
0.625
 49
-0.125
 49
0.125
 49
-0.125
 49
0.125
 49
-0.125
  0
ENDTAB
  0
TABLE
  2
LAYER
 70
     2
  0
LAYER
  2
0
 70
     0
 62
     7
  6
CONTINUOUS
  0
LAYER
  2
DEFPOINTS
 70
     0
 62
     7
  6
CONTINUOUS
  0
ENDTAB
  0
TABLE
  2
STYLE
 70
     1
  0
STYLE
  2
STANDARD
 70
     0
 40
0.0
 41
0.8
 50
0.0
 71
     0
 42
0.2
  3
txt
  4

  0
ENDTAB
  0
TABLE
  2
VIEW
 70
     0
  0
ENDTAB
  0
TABLE
  2
UCS
 70
     0
  0
ENDTAB
  0
TABLE
  2
APPID
 70
     9
  0
APPID
  2
ACAD
 70
     0
  0
APPID
  2
ACAD_MLEADERVER
 70
     0
  0
APPID
  2
ACAD_NAV_VCDISPLAY
 70
     0
  0
APPID
  2
ACAD_EXEMPT_FROM_CAD_STANDARDS
 70
     0
  0
APPID
  2
ACAD_DSTYLE_DIMJAG
 70
     0
  0
APPID
  2
ACAD_DSTYLE_DIMTALN
 70
     0
  0
APPID
  2
ACDBATTR
 70
     0
  0
APPID
  2
ACAD_PSEXT
 70
     0
  0
APPID
  2
ACADANNOTATIVE
 70
     0
  0
ENDTAB
  0
TABLE
  2
DIMSTYLE
 70
     3
  0
DIMSTYLE
  2
STANDARD
 70
     0
  3

  4

  5

  6

  7

 40
1.0
 41
0.1875
 42
0.0625
 43
0.38
 44
0.125
 45
0.0
 46
0.0
 47
0.01
 48
0.01
140
0.15625
141
0.09
142
0.0
143
25.3999999999999986
144
1.0
145
0.0
146
1.0
147
0.09
 71
     1
 72
     0
 73
     1
 74
     1
 75
     0
 76
     0
 77
     0
 78
     4
170
     0
171
     2
172
     0
173
     0
174
     0
175
     0
176
     0
177
     0
178
     0
  0
DIMSTYLE
  2
ANNOTATIVE
 70
     0
  3

  4

  5

  6

  7

 40
0.0
 41
2.5
 42
0.625
 43
3.75
 44
1.25
 45
0.0
 46
0.0
 47
0.0
 48
0.0
140
2.5
141
2.5
142
0.0
143
0.03937007874016
144
1.0
145
0.0
146
1.0
147
0.625
 71
     0
 72
     0
 73
     0
 74
     0
 75
     0
 76
     0
 77
     1
 78
     8
170
     0
171
     3
172
     1
173
     0
174
     0
175
     0
176
     0
177
     0
178
     0
  0
DIMSTYLE
  2
ISO-25
 70
     0
  3

  4

  5

  6

  7

 40
1.0
 41
2.5
 42
0.625
 43
3.75
 44
1.25
 45
0.0
 46
0.0
 47
0.0
 48
0.0
140
2.5
141
2.5
142
0.0
143
0.03937007874016
144
1.0
145
0.0
146
1.0
147
0.625
 71
     0
 72
     0
 73
     0
 74
     0
 75
     0
 76
     0
 77
     1
 78
     8
170
     0
171
     3
172
     1
173
     0
174
     0
175
     0
176
     0
177
     0
178
     0
  0
ENDTAB
  0
ENDSEC
  0
SECTION
  2
BLOCKS
  0
BLOCK
  8
0
  2
$MODEL_SPACE
 70
     0
 10
0.0
 20
0.0
 30
0.0
  3
$MODEL_SPACE
  1

  0
ENDBLK
  5
21
  8
0
  0
BLOCK
 67
     1
  8
0
  2
$PAPER_SPACE
 70
     0
 10
0.0
 20
0.0
 30
0.0
  3
$PAPER_SPACE
  1

  0
ENDBLK
  5
1D
 67
     1
  8
0
  0
BLOCK
  8
0
  2
_FILLED
 70
     0
 10
0.0
 20
0.0
 30
0.0
  3
_FILLED
  1

  0
SOLID
  5
1F2C
  8
0
  6
BYBLOCK
 62
     0
 10
0.0
 20
0.0
 30
0.0
 11
-1.0
 21
0.1666666667
 31
0.0
 12
-1.0
 22
-0.1666666667
 32
0.0
 13
-1.0
 23
-0.1666666667
 33
0.0
  0
ENDBLK
  5
1F2D
  8
0
  6
BYBLOCK
 62
     0
  0
ENDSEC
  0
SECTION
  2
ENTITIES
  0
ATTDEF
  5
1B48
  8
DEFPOINTS
 10
5.4821262529741404
 20
15.6964304999214495
 30
0.0
 40
0.001
  1
K-76017T-L
  3

  2
MODELNUMBER
 70
     0
1001
ACDBATTR
1070
     0
1070
     1
  0
ATTDEF
  5
1B49
  8
DEFPOINTS
 10
5.4821262529741404
 20
15.6947638332547896
 30
0.0
 40
0.001
  1
BEITOU
  3

  2
TRADENAME
 70
     0
1001
ACDBATTR
1070
     0
1070
     1
  0
ATTDEF
  5
1B4A
  8
DEFPOINTS
 10
5.4821262529741404
 20
15.6930971665881192
 30
0.0
 40
0.001
  1
SHOWERHEAD
  3

  2
PRODUCT
 70
     0
1001
ACDBATTR
1070
     0
1070
     1
  0
LINE
  5
27A7
  8
0
 10
15.3240775124395601
 20
25.5155990430966106
 30
0.0
 11
15.3240775124395601
 21
5.8699297518966134
 31
0.0
  0
LINE
  5
27A8
  8
0
 10
13.8673845990395606
 20
23.606150224196611
 30
0.0
 11
13.8673845990395606
 21
7.7793785707966094
 31
0.0
  0
LINE
  5
27A9
  8
0
 10
15.3043924730395595
 20
25.5352840824966094
 30
0.0
 11
-4.3412768183604298
 21
25.5352840824966094
 31
0.0
  0
LINE
  5
27AA
  8
0
 10
13.3949436541395599
 20
24.0785911690966117
 30
0.0
 11
-2.4318279994604359
 21
24.0785911690966117
 31
0.0
  0
ARC
  5
27AB
  8
0
 10
15.3043924730395506
 20
25.5155990430966106
 30
0.0
 40
0.0196850394000077
 50
0.0
 51
90.0000000029780836
  0
ARC
  5
27AC
  8
0
 10
13.3949436541395492
 20
23.606150224196611
 30
0.0
 40
0.4724409449000007
 50
0.0
 51
89.999999999999801
  0
LINE
  5
27AD
  8
0
 10
15.3043924730395595
 20
5.850244712496611
 30
0.0
 11
-4.3412768183604298
 21
5.850244712496611
 31
0.0
  0
LINE
  5
27AE
  8
0
 10
13.3949436541395599
 20
7.3069376258966123
 30
0.0
 11
-2.4318279994604359
 21
7.3069376258966123
 31
0.0
  0
ARC
  5
27AF
  8
0
 10
15.3043924730395506
 20
5.8699297518966134
 30
0.0
 40
0.0196850394000077
 50
269.9999999970219164
 51
0.0
  0
ARC
  5
27B0
  8
0
 10
13.3949436541395492
 20
7.7793785707966094
 30
0.0
 40
0.4724409449000007
 50
270.0000000000002274
 51
0.0
  0
LINE
  5
27B1
  8
0
 10
6.7807704258395587
 20
16.7557565233966095
 30
0.0
 11
6.7807704258395587
 21
14.6297722714966092
 31
0.0
  0
LINE
  5
27B2
  8
0
 10
6.5445499533395601
 20
16.9919769958966107
 30
0.0
 11
4.4185656812896443
 21
16.9919769958966107
 31
0.0
  0
ARC
  5
27B3
  8
0
 10
6.5445499531688478
 20
16.7557565233258998
 30
0.0
 40
0.2362204725707118
 50
0.0000000171507722
 51
89.9999999585935342
  0
LINE
  5
27B4
  8
0
 10
6.5445499533395601
 20
14.3935517990966098
 30
0.0
 11
4.4185656812896443
 21
14.3935517990966098
 31
0.0
  0
ARC
  5
27B5
  8
0
 10
6.5445499531688478
 20
14.6297722716673206
 30
0.0
 40
0.2362204725707118
 50
270.0000000414063948
 51
359.9999999828492037
  0
CIRCLE
  5
27B6
  8
0
 10
5.48155782733956
 20
15.6927643974966102
 30
0.0
 40
0.4527559055000001
  0
CIRCLE
  5
27B7
  8
0
 10
8.7623977223395588
 20
23.5667801454966117
 30
0.0
 40
0.1735081409999992
  0
CIRCLE
  5
27B8
  8
0
 10
14.10360507143956
 20
24.3148116415966093
 30
0.0
 40
0.4448818897999996
  0
CIRCLE
  5
27B9
  8
0
 10
14.10360507143956
 20
24.3148116415966093
 30
0.0
 40
0.3453223839720945
  0
CIRCLE
  5
27BA
  8
0
 10
14.10360507143956
 20
24.3148116415966093
 30
0.0
 40
0.336614173300001
  0
CIRCLE
  5
27BB
  8
0
 10
9.2020302683395592
 20
21.6967014052966114
 30
0.0
 40
0.1181102361999997
  0
CIRCLE
  5
27BC
  8
0
 10
11.3870696384395593
 20
23.5667801454966117
 30
0.0
 40
0.1735081409999992
  0
CIRCLE
  5
27BD
  8
0
 10
13.3555735754395606
 20
21.5982762084966105
 30
0.0
 40
0.1735081409999992
  0
CIRCLE
  5
27BE
  8
0
 10
8.1812203695395596
 20
20.4171738462966097
 30
0.0
 40
0.1735081409999992
  0
CIRCLE
  5
27BF
  8
0
 10
13.3555735754395606
 20
18.97360429249661
 30
0.0
 40
0.1735081409999992
  0
CIRCLE
  5
27C0
  8
0
 10
10.2059672762395603
 20
18.3924269395966107
 30
0.0
 40
0.1735081409999992
  0
CIRCLE
  5
27C1
  8
0
 10
6.4382664082395591
 20
18.0024632286966089
 30
0.0
 40
0.1735081409999992
  0
CIRCLE
  5
27C2
  8
0
 10
7.7912566586395586
 20
16.6494729783966093
 30
0.0
 40
0.1735081409999992
  0
CIRCLE
  5
27C3
  8
0
 10
6.5445499533395601
 20
16.7557565233966095
 30
0.0
 40
0.1735081409999992
  0
CIRCLE
  5
27C4
  8
0
 10
10.2059672762395603
 20
15.6927643974966102
 30
0.0
 40
0.1735081409999992
  0
CIRCLE
  5
27C5
  8
0
 10
12.6994055964395596
 20
15.6927643974966102
 30
0.0
 40
0.1735081409999992
  0
CIRCLE
  5
27C6
  8
0
 10
12.1941562525395604
 20
21.6967014052966114
 30
0.0
 40
0.1181102361999997
  0
CIRCLE
  5
27C7
  8
0
 10
11.0051798746395608
 20
17.8974888068966109
 30
0.0
 40
0.1181102361999997
  0
CIRCLE
  5
27C8
  8
0
 10
9.2020302683395592
 20
18.9014258147966103
 30
0.0
 40
0.1181102361999997
  0
CIRCLE
  5
27C9
  8
0
 10
9.2020302683395592
 20
17.8974888068966109
 30
0.0
 40
0.1181102361999997
  0
CIRCLE
  5
27CA
  8
0
 10
9.2020302683395592
 20
17.0904021926966116
 30
0.0
 40
0.1181102361999997
  0
CIRCLE
  5
27CB
  8
0
 10
12.1941562525395604
 20
17.0904021926966116
 30
0.0
 40
0.1181102361999997
  0
CIRCLE
  5
27CC
  8
0
 10
12.1941562525395604
 20
18.9014258147966103
 30
0.0
 40
0.1181102361999997
  0
CIRCLE
  5
27CD
  8
0
 10
5.4815578273395591
 20
22.9106121664966089
 30
0.0
 40
0.1735081409999992
  0
CIRCLE
  5
27CE
  8
0
 10
5.4815578273395591
 20
20.4171738462966097
 30
0.0
 40
0.1735081409999992
  0
ARC
  5
27CF
  8
0
 10
6.09179404783956
 20
21.5982762084966105
 30
0.0
 40
0.2755905511999988
 50
149.6965880389865902
 51
210.3034119704531122
  0
ARC
  5
27D0
  8
0
 10
5.4815578273395591
 20
22.2085124289966096
 30
0.0
 40
0.2755905512000005
 50
246.104491837302902
 51
293.8955081626983201
  0
ARC
  5
27D1
  8
0
 10
5.4815578273395591
 20
20.9880399879966113
 30
0.0
 40
0.2755905512000005
 50
66.1044917859805707
 51
113.8955082140184061
  0
ARC
  5
27D2
  8
0
 10
4.8713216069395591
 20
21.5982762084966105
 30
0.0
 40
0.2755905511999988
 50
329.6955839351434179
 51
30.3028523571533803
  0
LINE
  5
27D3
  8
0
 10
5.3135993312395584
 20
21.9565439249965983
 30
0.0
 11
5.6495163235395589
 21
21.956543924996609
 31
0.0
  0
ARC
  5
27D4
  8
0
 10
5.4849321041886352
 20
21.5982762084466096
 30
0.0
 40
0.3942635184509232
 50
294.6735259433452256
 51
65.3264740566547459
  0
LINE
  5
27D5
  8
0
 10
5.6495163235395589
 20
21.2400084918966101
 30
0.0
 11
5.3135632843898932
 21
21.2400084918966208
 31
0.0
  0
ARC
  5
27D6
  8
0
 10
5.4781964681217969
 20
21.5982679271283899
 30
0.0
 40
0.394276436169216
 50
114.6747293519208029
 51
245.3195058742695096
  0
ARC
  5
27D7
  8
0
 10
6.09179404783956
 20
19.0673425751966086
 30
0.0
 40
0.2755905511999988
 50
149.6965880389865902
 51
210.3034119704531122
  0
ARC
  5
27D8
  8
0
 10
5.4815578273395591
 20
19.6775787956966113
 30
0.0
 40
0.2755905512000005
 50
246.104491837302902
 51
293.8955081626983201
  0
ARC
  5
27D9
  8
0
 10
5.4815578273395591
 20
18.4571063546966094
 30
0.0
 40
0.2755905512000005
 50
66.1044917859805707
 51
113.8955082140184061
  0
ARC
  5
27DA
  8
0
 10
4.8713216069395591
 20
19.0673425751966086
 30
0.0
 40
0.2755905511999988
 50
329.6955839351434179
 51
30.3028523571532915
  0
LINE
  5
27DB
  8
0
 10
5.3135993312395584
 20
19.4256102916966107
 30
0.0
 11
5.6495163235395589
 21
19.4256102916966107
 31
0.0
  0
ARC
  5
27DC
  8
0
 10
5.4849321041886352
 20
19.0673425751466112
 30
0.0
 40
0.3942635184509232
 50
294.6735259433452256
 51
65.3264740566547459
  0
LINE
  5
27DD
  8
0
 10
5.6495163235395589
 20
18.7090748585966082
 30
0.0
 11
5.3135632843898932
 21
18.7090748585966189
 31
0.0
  0
ARC
  5
27DE
  8
0
 10
5.4781964681217969
 20
19.0673342938283916
 30
0.0
 40
0.394276436169216
 50
114.6747293519208029
 51
245.3195058742695096
  0
CIRCLE
  5
27DF
  8
0
 10
8.7623977223395588
 20
7.8187486494966079
 30
0.0
 40
0.1735081409999992
  0
CIRCLE
  5
27E0
  8
0
 10
14.10360507143956
 20
7.0707171533966138
 30
0.0
 40
0.4448818897999996
  0
CIRCLE
  5
27E1
  8
0
 10
14.10360507143956
 20
7.0707171533966138
 30
0.0
 40
0.3453223839720945
  0
CIRCLE
  5
27E2
  8
0
 10
14.10360507143956
 20
7.0707171533966138
 30
0.0
 40
0.336614173300001
  0
CIRCLE
  5
27E3
  8
0
 10
9.2020302683395592
 20
9.6888273896966091
 30
0.0
 40
0.1181102361999997
  0
CIRCLE
  5
27E4
  8
0
 10
11.3870696384395593
 20
7.8187486494966079
 30
0.0
 40
0.1735081409999992
  0
CIRCLE
  5
27E5
  8
0
 10
13.3555735754395606
 20
9.7872525864966136
 30
0.0
 40
0.1735081409999992
  0
CIRCLE
  5
27E6
  8
0
 10
8.1812203695395596
 20
10.9683549486966108
 30
0.0
 40
0.1735081409999992
  0
CIRCLE
  5
27E7
  8
0
 10
13.3555735754395606
 20
12.4119245024966105
 30
0.0
 40
0.1735081409999992
  0
CIRCLE
  5
27E8
  8
0
 10
10.2059672762395603
 20
12.9931018553966098
 30
0.0
 40
0.1735081409999992
  0
CIRCLE
  5
27E9
  8
0
 10
6.4382664082395591
 20
13.3830655662966098
 30
0.0
 40
0.1735081409999992
  0
CIRCLE
  5
27EA
  8
0
 10
7.7912566586395586
 20
14.7360558165966093
 30
0.0
 40
0.1735081409999992
  0
CIRCLE
  5
27EB
  8
0
 10
6.5445499533395601
 20
14.6297722715966092
 30
0.0
 40
0.1735081409999992
  0
CIRCLE
  5
27EC
  8
0
 10
12.1941562525395604
 20
9.6888273896966091
 30
0.0
 40
0.1181102361999997
  0
CIRCLE
  5
27ED
  8
0
 10
11.0051798746395608
 20
13.4880399880966095
 30
0.0
 40
0.1181102361999997
  0
CIRCLE
  5
27EE
  8
0
 10
9.2020302683395592
 20
12.4841029801966101
 30
0.0
 40
0.1181102361999997
  0
CIRCLE
  5
27EF
  8
0
 10
9.2020302683395592
 20
13.4880399880966095
 30
0.0
 40
0.1181102361999997
  0
CIRCLE
  5
27F0
  8
0
 10
9.2020302683395592
 20
14.2951266022966106
 30
0.0
 40
0.1181102361999997
  0
CIRCLE
  5
27F1
  8
0
 10
12.1941562525395604
 20
14.2951266022966106
 30
0.0
 40
0.1181102361999997
  0
CIRCLE
  5
27F2
  8
0
 10
12.1941562525395604
 20
12.4841029801966101
 30
0.0
 40
0.1181102361999997
  0
CIRCLE
  5
27F3
  8
0
 10
5.4815578273395591
 20
8.4749166284966115
 30
0.0
 40
0.1735081409999992
  0
CIRCLE
  5
27F4
  8
0
 10
5.4815578273395591
 20
10.9683549486966108
 30
0.0
 40
0.1735081409999992
  0
ARC
  5
27F5
  8
0
 10
6.09179404783956
 20
9.7872525864966136
 30
0.0
 40
0.2755905511999988
 50
149.6965880295468878
 51
210.3034119610134098
  0
ARC
  5
27F6
  8
0
 10
5.4815578273395591
 20
9.1770163659966109
 30
0.0
 40
0.2755905512000005
 50
66.1044918373016657
 51
113.895508162697098
  0
ARC
  5
27F7
  8
0
 10
5.4815578273395591
 20
10.3974888069966092
 30
0.0
 40
0.2755905512000005
 50
246.1044917859815087
 51
293.8955082140192872
  0
ARC
  5
27F8
  8
0
 10
4.8713216069395591
 20
9.7872525864966136
 30
0.0
 40
0.2755905511999988
 50
329.6971476428465166
 51
30.3044160648564009
  0
LINE
  5
27F9
  8
0
 10
5.3135993312395584
 20
9.428984869996615
 30
0.0
 11
5.6495163235395589
 21
9.4289848699966115
 31
0.0
  0
ARC
  5
27FA
  8
0
 10
5.4849321041886352
 20
9.7872525865466073
 30
0.0
 40
0.3942635184509232
 50
294.6735259433452825
 51
65.3264740566547033
  0
LINE
  5
27FB
  8
0
 10
5.6495163235395589
 20
10.1455203030965997
 30
0.0
 11
5.3135632843898932
 21
10.1455203030965997
 31
0.0
  0
ARC
  5
27FC
  8
0
 10
5.4781964681217969
 20
9.7872608678648341
 30
0.0
 40
0.394276436169216
 50
114.6804941257304051
 51
245.3252706480793108
  0
ARC
  5
27FD
  8
0
 10
6.09179404783956
 20
12.3181862197966101
 30
0.0
 40
0.2755905511999988
 50
149.6965880295468878
 51
210.3034119610134098
  0
ARC
  5
27FE
  8
0
 10
5.4815578273395591
 20
11.7079499992966092
 30
0.0
 40
0.2755905512000005
 50
66.1044918373016657
 51
113.895508162697098
  0
ARC
  5
27FF
  8
0
 10
5.4815578273395591
 20
12.9284224402966004
 30
0.0
 40
0.2755905512000005
 50
246.1044917859815087
 51
293.8955082140192872
  0
ARC
  5
2800
  8
0
 10
4.8713216069395591
 20
12.3181862197966101
 30
0.0
 40
0.2755905511999988
 50
329.6971476428465166
 51
30.3044160648564009
  0
LINE
  5
2801
  8
0
 10
5.3135993312395584
 20
11.9599185032966098
 30
0.0
 11
5.6495163235395589
 21
11.9599185032966098
 31
0.0
  0
ARC
  5
2802
  8
0
 10
5.4849321041886352
 20
12.3181862198466003
 30
0.0
 40
0.3942635184509232
 50
294.6735259433452825
 51
65.3264740566547033
  0
LINE
  5
2803
  8
0
 10
5.6495163235395589
 20
12.6764539363965998
 30
0.0
 11
5.3135632843898932
 21
12.6764539363965998
 31
0.0
  0
ARC
  5
2804
  8
0
 10
5.4781964681217969
 20
12.3181945011648306
 30
0.0
 40
0.394276436169216
 50
114.6804941257304051
 51
245.3252706480793108
  0
LINE
  5
2805
  8
0
 10
-4.3609618577604401
 20
25.5155990430966106
 30
0.0
 11
-4.3609618577604357
 21
5.8699297518966134
 31
0.0
  0
LINE
  5
2806
  8
0
 10
-2.9042689443604379
 20
23.606150224196611
 30
0.0
 11
-2.9042689443604379
 21
7.7793785707966094
 31
0.0
  0
ARC
  5
2807
  8
0
 10
-4.3412768183604324
 20
25.5155990430966106
 30
0.0
 40
0.0196850394000077
 50
89.9999999970218738
 51
180.0
  0
ARC
  5
2808
  8
0
 10
-2.4318279994604359
 20
23.606150224196611
 30
0.0
 40
0.4724409449000007
 50
90.0000000000001847
 51
180.0
  0
ARC
  5
2809
  8
0
 10
-4.3412768183604324
 20
5.8699297518966134
 30
0.0
 40
0.0196850394000077
 50
180.0
 51
270.0000000029780836
  0
ARC
  5
280A
  8
0
 10
-2.4318279994604359
 20
7.7793785707966094
 30
0.0
 40
0.4724409449000007
 50
180.0
 51
269.9999999999997726
  0
LINE
  5
280B
  8
0
 10
4.1823452288395604
 20
16.7557565233966095
 30
0.0
 11
4.1823452288395604
 21
14.6297722714966092
 31
0.0
  0
ARC
  5
280C
  8
0
 10
4.4185657015102713
 20
16.7557565233258998
 30
0.0
 40
0.2362204725707118
 50
90.0000000414064232
 51
179.9999999828492037
  0
ARC
  5
280D
  8
0
 10
4.4185657015102713
 20
14.6297722716673206
 30
0.0
 40
0.2362204725707118
 50
180.0000000171507111
 51
269.9999999585934916
  0
CIRCLE
  5
280E
  8
0
 10
2.2007179323395611
 20
23.5667801454966117
 30
0.0
 40
0.1735081409999992
  0
CIRCLE
  5
280F
  8
0
 10
-3.14048941676044
 20
24.3148116415966093
 30
0.0
 40
0.4448818897999996
  0
CIRCLE
  5
2810
  8
0
 10
-3.14048941676044
 20
24.3148116415966093
 30
0.0
 40
0.3453223839720945
  0
CIRCLE
  5
2811
  8
0
 10
-3.14048941676044
 20
24.3148116415966093
 30
0.0
 40
0.336614173300001
  0
CIRCLE
  5
2812
  8
0
 10
1.7610853863395599
 20
21.6967014052966114
 30
0.0
 40
0.1181102361999997
  0
CIRCLE
  5
2813
  8
0
 10
-0.4239539837604394
 20
23.5667801454966117
 30
0.0
 40
0.1735081409999992
  0
CIRCLE
  5
2814
  8
0
 10
-2.3924579207604402
 20
21.5982762084966105
 30
0.0
 40
0.1735081409999992
  0
CIRCLE
  5
2815
  8
0
 10
2.78189528513956
 20
20.4171738462966097
 30
0.0
 40
0.1735081409999992
  0
CIRCLE
  5
2816
  8
0
 10
-2.3924579207604402
 20
18.97360429249661
 30
0.0
 40
0.1735081409999992
  0
CIRCLE
  5
2817
  8
0
 10
0.7571483784395614
 20
18.3924269395966107
 30
0.0
 40
0.1735081409999992
  0
CIRCLE
  5
2818
  8
0
 10
4.5248492464395591
 20
18.0024632286966089
 30
0.0
 40
0.1735081409999992
  0
CIRCLE
  5
2819
  8
0
 10
3.17185899603956
 20
16.6494729783966093
 30
0.0
 40
0.1735081409999992
  0
CIRCLE
  5
281A
  8
0
 10
4.4185657013395589
 20
16.7557565233966095
 30
0.0
 40
0.1735081409999992
  0
CIRCLE
  5
281B
  8
0
 10
0.7571483784395614
 20
15.6927643974966102
 30
0.0
 40
0.1735081409999992
  0
CIRCLE
  5
281C
  8
0
 10
-1.7362899417604389
 20
15.6927643974966102
 30
0.0
 40
0.1735081409999992
  0
CIRCLE
  5
281D
  8
0
 10
-1.23104059786044
 20
21.6967014052966114
 30
0.0
 40
0.1181102361999997
  0
CIRCLE
  5
281E
  8
0
 10
-0.0420642199604409
 20
17.8974888068966109
 30
0.0
 40
0.1181102361999997
  0
CIRCLE
  5
281F
  8
0
 10
1.7610853863395599
 20
18.9014258147966103
 30
0.0
 40
0.1181102361999997
  0
CIRCLE
  5
2820
  8
0
 10
1.7610853863395599
 20
17.8974888068966109
 30
0.0
 40
0.1181102361999997
  0
CIRCLE
  5
2821
  8
0
 10
1.7610853863395599
 20
17.0904021926966116
 30
0.0
 40
0.1181102361999997
  0
CIRCLE
  5
2822
  8
0
 10
-1.23104059786044
 20
17.0904021926966116
 30
0.0
 40
0.1181102361999997
  0
CIRCLE
  5
2823
  8
0
 10
-1.23104059786044
 20
18.9014258147966103
 30
0.0
 40
0.1181102361999997
  0
CIRCLE
  5
2824
  8
0
 10
2.2007179323395611
 20
7.8187486494966079
 30
0.0
 40
0.1735081409999992
  0
CIRCLE
  5
2825
  8
0
 10
-3.14048941676044
 20
7.0707171533966138
 30
0.0
 40
0.4448818897999996
  0
CIRCLE
  5
2826
  8
0
 10
-3.14048941676044
 20
7.0707171533966138
 30
0.0
 40
0.3453223839720945
  0
CIRCLE
  5
2827
  8
0
 10
-3.14048941676044
 20
7.0707171533966138
 30
0.0
 40
0.336614173300001
  0
CIRCLE
  5
2828
  8
0
 10
1.7610853863395599
 20
9.6888273896966091
 30
0.0
 40
0.1181102361999997
  0
CIRCLE
  5
2829
  8
0
 10
-0.4239539837604394
 20
7.8187486494966079
 30
0.0
 40
0.1735081409999992
  0
CIRCLE
  5
282A
  8
0
 10
-2.3924579207604402
 20
9.7872525864966136
 30
0.0
 40
0.1735081409999992
  0
CIRCLE
  5
282B
  8
0
 10
2.78189528513956
 20
10.9683549486966108
 30
0.0
 40
0.1735081409999992
  0
CIRCLE
  5
282C
  8
0
 10
-2.3924579207604402
 20
12.4119245024966105
 30
0.0
 40
0.1735081409999992
  0
CIRCLE
  5
282D
  8
0
 10
0.7571483784395614
 20
12.9931018553966098
 30
0.0
 40
0.1735081409999992
  0
CIRCLE
  5
282E
  8
0
 10
4.5248492464395591
 20
13.3830655662966098
 30
0.0
 40
0.1735081409999992
  0
CIRCLE
  5
282F
  8
0
 10
3.17185899603956
 20
14.7360558165966093
 30
0.0
 40
0.1735081409999992
  0
CIRCLE
  5
2830
  8
0
 10
4.4185657013395589
 20
14.6297722715966092
 30
0.0
 40
0.1735081409999992
  0
CIRCLE
  5
2831
  8
0
 10
-1.23104059786044
 20
9.6888273896966091
 30
0.0
 40
0.1181102361999997
  0
CIRCLE
  5
2832
  8
0
 10
-0.0420642199604409
 20
13.4880399880966095
 30
0.0
 40
0.1181102361999997
  0
CIRCLE
  5
2833
  8
0
 10
1.7610853863395599
 20
12.4841029801966101
 30
0.0
 40
0.1181102361999997
  0
CIRCLE
  5
2834
  8
0
 10
1.7610853863395599
 20
13.4880399880966095
 30
0.0
 40
0.1181102361999997
  0
CIRCLE
  5
2835
  8
0
 10
1.7610853863395599
 20
14.2951266022966106
 30
0.0
 40
0.1181102361999997
  0
CIRCLE
  5
2836
  8
0
 10
-1.23104059786044
 20
14.2951266022966106
 30
0.0
 40
0.1181102361999997
  0
CIRCLE
  5
2837
  8
0
 10
-1.23104059786044
 20
12.4841029801966101
 30
0.0
 40
0.1181102361999997
  0
ENDSEC
  0
EOF
