  0
SECTION
  2
HEADER
  9
$ACADVER
  1
AC1009
  9
$INSBASE
 10
56.6914132892379925
 20
7.2716306697182196
 30
0.0
  9
$EXTMIN
 10
37.275890616960389
 20
1.2088646967079799
 30
0.0
  9
$EXTMAX
 10
62.0477009293216426
 20
12.3116764511560994
 30
0.0
  9
$LIMMIN
 10
0.0
 20
0.0
  9
$LIMMAX
 10
22.0
 20
17.0
  9
$ORTHOMODE
 70
     0
  9
$REGENMODE
 70
     1
  9
$FILLMODE
 70
     1
  9
$QTEXTMODE
 70
     0
  9
$MIRRTEXT
 70
     0
  9
$DRAGMODE
 70
     2
  9
$LTSCALE
 40
1.2099999999999991
  9
$OSMODE
 70
  4095
  9
$ATTMODE
 70
     1
  9
$TEXTSIZE
 40
0.2
  9
$TRACEWID
 40
0.05
  9
$TEXTSTYLE
  7
STANDARD
  9
$CLAYER
  8
0
  9
$CELTYPE
  6
BYLAYER
  9
$CECOLOR
 62
   256
  9
$DIMSCALE
 40
1.0
  9
$DIMASZ
 40
0.1875
  9
$DIMEXO
 40
0.0625
  9
$DIMDLI
 40
0.8359999999999999
  9
$DIMRND
 40
0.0
  9
$DIMDLE
 40
0.0
  9
$DIMEXE
 40
0.125
  9
$DIMTP
 40
0.0
  9
$DIMTM
 40
0.0
  9
$DIMTXT
 40
0.15625
  9
$DIMCEN
 40
0.198
  9
$DIMTSZ
 40
0.0
  9
$DIMTOL
 70
     0
  9
$DIMLIM
 70
     0
  9
$DIMTIH
 70
     1
  9
$DIMTOH
 70
     1
  9
$DIMSE1
 70
     0
  9
$DIMSE2
 70
     0
  9
$DIMTAD
 70
     0
  9
$DIMZIN
 70
     0
  9
$DIMBLK
  1

  9
$DIMASO
 70
     1
  9
$DIMSHO
 70
     1
  9
$DIMPOST
  1

  9
$DIMAPOST
  1

  9
$DIMALT
 70
     0
  9
$DIMALTD
 70
     2
  9
$DIMALTF
 40
25.3999999999999986
  9
$DIMLFAC
 40
1.0
  9
$DIMTOFL
 70
     0
  9
$DIMTVP
 40
0.0
  9
$DIMTIX
 70
     0
  9
$DIMSOXD
 70
     0
  9
$DIMSAH
 70
     0
  9
$DIMBLK1
  1

  9
$DIMBLK2
  1

  9
$DIMSTYLE
  2
STANDARD
  9
$DIMCLRD
 70
     0
  9
$DIMCLRE
 70
     0
  9
$DIMCLRT
 70
     0
  9
$DIMTFAC
 40
1.0
  9
$DIMGAP
 40
0.09
  9
$LUNITS
 70
     2
  9
$LUPREC
 70
     4
  9
$SKETCHINC
 40
0.1
  9
$FILLETRAD
 40
0.0
  9
$AUNITS
 70
     0
  9
$AUPREC
 70
     0
  9
$MENU
  1
.
  9
$ELEVATION
 40
0.0
  9
$PELEVATION
 40
0.0
  9
$THICKNESS
 40
0.0
  9
$LIMCHECK
 70
     0
  9
$BLIPMODE
 70
     0
  9
$CHAMFERA
 40
0.0
  9
$CHAMFERB
 40
0.0
  9
$SKPOLY
 70
     0
  9
$TDCREATE
 40
2457327.6354861110448837
  9
$TDUPDATE
 40
2459101.6206018519587815
  9
$TDINDWG
 40
0.1093746296
  9
$TDUSRTIMER
 40
0.1093746296
  9
$USRTIMER
 70
     1
  9
$ANGBASE
 50
0.0
  9
$ANGDIR
 70
     0
  9
$PDMODE
 70
     0
  9
$PDSIZE
 40
0.3125
  9
$PLINEWID
 40
0.0
  9
$COORDS
 70
     1
  9
$SPLFRAME
 70
     0
  9
$SPLINETYPE
 70
     6
  9
$SPLINESEGS
 70
     8
  9
$ATTDIA
 70
     1
  9
$ATTREQ
 70
     1
  9
$HANDLING
 70
     1
  9
$HANDSEED
  5
14C8
  9
$SURFTAB1
 70
     6
  9
$SURFTAB2
 70
     6
  9
$SURFTYPE
 70
     6
  9
$SURFU
 70
     6
  9
$SURFV
 70
     6
  9
$UCSNAME
  2

  9
$UCSORG
 10
0.0
 20
0.0
 30
0.0
  9
$UCSXDIR
 10
1.0
 20
0.0
 30
0.0
  9
$UCSYDIR
 10
0.0
 20
1.0
 30
0.0
  9
$PUCSNAME
  2

  9
$PUCSORG
 10
0.0
 20
0.0
 30
0.0
  9
$PUCSXDIR
 10
1.0
 20
0.0
 30
0.0
  9
$PUCSYDIR
 10
0.0
 20
1.0
 30
0.0
  9
$USERI1
 70
     0
  9
$USERI2
 70
     0
  9
$USERI3
 70
     0
  9
$USERI4
 70
     0
  9
$USERI5
 70
     0
  9
$USERR1
 40
0.0
  9
$USERR2
 40
0.0
  9
$USERR3
 40
0.0
  9
$USERR4
 40
0.0
  9
$USERR5
 40
0.0
  9
$WORLDVIEW
 70
     1
  9
$SHADEDGE
 70
     3
  9
$SHADEDIF
 70
    70
  9
$TILEMODE
 70
     1
  9
$MAXACTVP
 70
    48
  9
$PLIMCHECK
 70
     0
  9
$PEXTMIN
 10
1.0000000000000000E+20
 20
1.0000000000000000E+20
 30
1.0000000000000000E+20
  9
$PEXTMAX
 10
-1.0000000000000000E+20
 20
-1.0000000000000000E+20
 30
-1.0000000000000000E+20
  9
$PLIMMIN
 10
0.0
 20
0.0
  9
$PLIMMAX
 10
12.0
 20
9.0
  9
$UNITMODE
 70
     0
  9
$VISRETAIN
 70
     1
  9
$PLINEGEN
 70
     0
  9
$PSLTSCALE
 70
     1
  0
ENDSEC
  0
SECTION
  2
TABLES
  0
TABLE
  2
VPORT
 70
     1
  0
VPORT
  2
*ACTIVE
 70
     0
 10
0.0
 20
0.0
 11
1.0
 21
1.0
 12
66.6794273505329045
 22
3.482860890104277
 13
0.0
 23
0.0
 14
1.0
 24
1.0
 15
0.0
 25
0.0
 16
0.0
 26
0.0
 36
1.0
 17
0.0
 27
0.0
 37
0.0
 40
37.718931860795891
 41
2.005224660397074
 42
50.0
 43
0.0
 44
0.0
 50
0.0
 51
0.0
 71
     0
 72
   100
 73
     1
 74
     1
 75
     0
 76
     0
 77
     0
 78
     0
  0
ENDTAB
  0
TABLE
  2
LTYPE
 70
     1
  0
LTYPE
  2
CONTINUOUS
 70
     0
  3
Solid line
 72
    65
 73
     0
 40
0.0
  0
ENDTAB
  0
TABLE
  2
LAYER
 70
     2
  0
LAYER
  2
0
 70
     0
 62
     7
  6
CONTINUOUS
  0
LAYER
  2
DEFPOINTS
 70
     0
 62
     7
  6
CONTINUOUS
  0
ENDTAB
  0
TABLE
  2
STYLE
 70
     1
  0
STYLE
  2
STANDARD
 70
     0
 40
0.0
 41
0.8
 50
0.0
 71
     0
 42
0.2
  3
txt
  4

  0
ENDTAB
  0
TABLE
  2
VIEW
 70
     0
  0
ENDTAB
  0
TABLE
  2
UCS
 70
     0
  0
ENDTAB
  0
TABLE
  2
APPID
 70
     5
  0
APPID
  2
ACAD
 70
     0
  0
APPID
  2
ACAD_MLEADERVER
 70
     0
  0
APPID
  2
ACAD_NAV_VCDISPLAY
 70
     0
  0
APPID
  2
ACAD_EXEMPT_FROM_CAD_STANDARDS
 70
     0
  0
APPID
  2
ACDBATTR
 70
     0
  0
ENDTAB
  0
TABLE
  2
DIMSTYLE
 70
     1
  0
DIMSTYLE
  2
STANDARD
 70
     0
  3

  4

  5

  6

  7

 40
1.0
 41
0.1875
 42
0.0625
 43
0.38
 44
0.125
 45
0.0
 46
0.0
 47
1.5
 48
1.5
140
0.15625
141
0.09
142
0.0
143
25.3999999999999986
144
1.0
145
0.0
146
1.0
147
0.09
 71
     0
 72
     0
 73
     1
 74
     1
 75
     0
 76
     0
 77
     0
 78
     4
170
     0
171
     2
172
     0
173
     0
174
     0
175
     0
176
     0
177
     0
178
     0
  0
ENDTAB
  0
ENDSEC
  0
SECTION
  2
BLOCKS
  0
BLOCK
  8
0
  2
$MODEL_SPACE
 70
     0
 10
0.0
 20
0.0
 30
0.0
  3
$MODEL_SPACE
  1

  0
ENDBLK
  5
21
  8
0
  0
BLOCK
 67
     1
  8
0
  2
$PAPER_SPACE
 70
     0
 10
0.0
 20
0.0
 30
0.0
  3
$PAPER_SPACE
  1

  0
ENDBLK
  5
1D
 67
     1
  8
0
  0
BLOCK
  8
0
  2
_FILLED
 70
     0
 10
0.0
 20
0.0
 30
0.0
  3
_FILLED
  1

  0
SOLID
  5
B7F
  8
0
  6
BYBLOCK
 62
     0
 10
0.0
 20
0.0
 30
0.0
 11
-1.0
 21
0.1666666667
 31
0.0
 12
-1.0
 22
-0.1666666667
 32
0.0
 13
-1.0
 23
-0.1666666667
 33
0.0
  0
ENDBLK
  5
B80
  8
0
  6
BYBLOCK
 62
     0
  0
ENDSEC
  0
SECTION
  2
ENTITIES
  0
ATTDEF
  5
789
  8
DEFPOINTS
 10
56.6939106682305578
 20
7.2755628702206252
 30
0.0
 40
0.001
  1
K-76032T-3M
  3

  2
MODELNUMBER
 70
     0
1001
ACDBATTR
1070
     0
1070
     1
  0
ATTDEF
  5
78A
  8
DEFPOINTS
 10
56.6939106682305578
 20
7.27389620355396
 30
0.0
 40
0.001
  1
ARTIFACTS
  3

  2
TRADENAME
 70
     0
1001
ACDBATTR
1070
     0
1070
     1
  0
ATTDEF
  5
78B
  8
DEFPOINTS
 10
56.6939106682305578
 20
7.272229536887294
 30
0.0
 40
0.001
  1
BATHROOM SINK FAUCET
  3

  2
PRODUCT
 70
     0
1001
ACDBATTR
1070
     0
1070
     1
  0
ARC
  5
13C3
  8
0
 10
56.4836986363737026
 20
1.799091610828591
 30
0.0
 40
0.5376029626371515
 50
144.7543347858077993
 51
237.984543904122603
  0
ARC
  5
13C4
  8
0
 10
56.6845650260581024
 20
2.1543766830031532
 30
0.0
 40
0.9455119862951731
 50
239.0776723578537997
 51
308.6423283848183132
  0
ARC
  5
13C5
  8
0
 10
56.9022912011880706
 20
1.7991484382017591
 30
0.0
 40
0.5346093541001399
 50
314.1991358519554751
 51
35.4639688275012475
  0
LINE
  5
13C6
  8
0
 10
57.337720116455273
 20
2.109323906671789
 30
0.0
 11
57.2503129683743879
 21
3.5282927407567182
 31
0.0
  0
ARC
  5
13C7
  8
0
 10
73.7148392686566893
 20
5.0942683396210633
 30
0.0
 40
16.5388298157105993
 50
176.4047205159156988
 51
185.4331803749859944
  0
ARC
  5
13C8
  8
0
 10
59.8342831100894372
 20
6.0022252803382861
 30
0.0
 40
2.6288985828080391
 50
172.8635533752000981
 51
177.1837705555761033
  0
ARC
  5
13C9
  8
0
 10
53.7053061950178687
 20
6.0249956190346801
 30
0.0
 40
2.471422469464446
 50
2.4673078490835358
 51
7.0510734620410922
  0
ARC
  5
13CA
  8
0
 10
38.5902916327609518
 20
5.1115548083614613
 30
0.0
 40
17.613694899393721
 50
354.842828766718128
 51
3.3192851791750182
  0
ARC
  5
13CB
  8
0
 10
243.5539683376667028
 20
-8.8122603514866231
 30
0.0
 40
187.8271201962845964
 50
176.2328587301290952
 51
176.666538959477009
  0
ARC
  5
13CC
  8
0
 10
56.6914132892379925
 20
7.27159245447488
 30
0.0
 40
1.3493382152433371
 50
292.2383802684959733
 51
247.9112463696573059
  0
CIRCLE
  5
13CD
  8
0
 10
56.6914957467698528
 20
7.2716434822108829
 30
0.0
 40
0.2347511481542879
  0
ARC
  5
13CE
  8
0
 10
56.6914984739483572
 20
7.2718168829770269
 30
0.0
 40
1.083820722579697
 50
299.5335928464210156
 51
240.5144539685522886
  0
ARC
  5
13CF
  8
0
 10
56.6979858299116373
 20
7.2787006118795041
 30
0.0
 40
1.1411237149999991
 50
297.1307457728185
 51
242.1307639521837132
  0
CIRCLE
  5
13D0
  8
0
 10
56.6911804635116425
 20
7.2787006118795041
 30
0.0
 40
0.6249168106000021
  0
CIRCLE
  5
13D1
  8
0
 10
56.6911804635116425
 20
7.2787006118795041
 30
0.0
 40
0.2769380102005928
  0
CIRCLE
  5
13D2
  8
0
 10
56.6911804635116425
 20
7.2787006118795041
 30
0.0
 40
0.4296973739030622
  0
CIRCLE
  5
13D3
  8
0
 10
56.6911804635116425
 20
7.2787006118795041
 30
0.0
 40
0.568420501197493
  0
LINE
  5
13D4
  8
0
 10
56.400638982842473
 20
7.7659765905103342
 30
0.0
 11
56.464105109228548
 21
7.826909712192065
 31
0.0
  0
LINE
  5
13D5
  8
0
 10
56.464105109228548
 20
7.826909712192065
 30
0.0
 11
56.5520681659241689
 21
7.8287006118795039
 31
0.0
  0
LINE
  5
13D6
  8
0
 10
56.8302927610991304
 20
7.8287006118795039
 30
0.0
 11
56.9182565550626123
 21
7.8269094067614509
 31
0.0
  0
LINE
  5
13D7
  8
0
 10
56.9182565550626123
 20
7.8269094067614509
 30
0.0
 11
56.9817219439331382
 21
7.7659765906580134
 31
0.0
  0
LINE
  5
13D8
  8
0
 10
57.1784564422901482
 20
7.5692420923009989
 30
0.0
 11
57.2393891496052589
 21
7.505776965972685
 31
0.0
  0
LINE
  5
13D9
  8
0
 10
57.2393891496052589
 20
7.505776965972685
 30
0.0
 11
57.2411804635116468
 21
7.4178129094669814
 31
0.0
  0
LINE
  5
13DA
  8
0
 10
57.178456442142469
 20
6.9881591312103382
 30
0.0
 11
57.2393884605084082
 21
7.0516225945808619
 31
0.0
  0
LINE
  5
13DB
  8
0
 10
57.2393884605084082
 20
7.0516225945808619
 30
0.0
 11
57.2411804635116468
 21
7.139588314292026
 31
0.0
  0
LINE
  5
13DC
  8
0
 10
56.8302927610991304
 20
6.7287006118795034
 30
0.0
 11
56.9182558196169808
 21
6.7304915122712252
 31
0.0
  0
LINE
  5
13DD
  8
0
 10
56.9182558196169808
 20
6.7304915122712252
 30
0.0
 11
56.981721944180812
 21
6.7914246332486696
 31
0.0
  0
LINE
  5
13DE
  8
0
 10
56.4006389825947991
 20
6.7914246333963533
 30
0.0
 11
56.4641049016870014
 21
6.7304915974769406
 31
0.0
  0
LINE
  5
13DF
  8
0
 10
56.4641049016870014
 20
6.7304915974769406
 30
0.0
 11
56.5520681659241617
 21
6.7287006118795034
 31
0.0
  0
LINE
  5
13E0
  8
0
 10
56.1411804635116525
 20
7.139588314292026
 30
0.0
 11
56.1429715119316768
 21
7.0516248983713146
 31
0.0
  0
LINE
  5
13E1
  8
0
 10
56.1429715119316768
 20
7.0516248983713146
 30
0.0
 11
56.2039044850284881
 21
6.9881591309626572
 31
0.0
  0
LINE
  5
13E2
  8
0
 10
56.1411804635116525
 20
7.4178129094669814
 30
0.0
 11
56.142971552650458
 21
7.5057764236544884
 31
0.0
  0
LINE
  5
13E3
  8
0
 10
56.142971552650458
 20
7.5057764236544884
 30
0.0
 11
56.2039044848857117
 21
7.5692420925568831
 31
0.0
  0
ARC
  5
13E4
  8
0
 10
60.6857079865116376
 20
7.2787079297795074
 30
0.0
 40
1.1200000360239071
 50
159.268685087586789
 51
200.7214789261639112
  0
ARC
  5
13E5
  8
0
 10
60.6857079865116376
 20
7.2787079297795074
 30
0.0
 40
1.1200000360239071
 50
219.2687130349459892
 51
260.7211344000331223
  0
ARC
  5
13E6
  8
0
 10
60.6857079865116376
 20
7.2787079297795074
 30
0.0
 40
1.1200000360239071
 50
279.2683949414308131
 51
320.7208142554549113
  0
ARC
  5
13E7
  8
0
 10
60.6857079865116376
 20
7.2787079297795074
 30
0.0
 40
1.1200000360239071
 50
339.2680488984793783
 51
20.7208386371962696
  0
ARC
  5
13E8
  8
0
 10
60.6857079865116376
 20
7.2787079297795074
 30
0.0
 40
1.1200000360239071
 50
39.2680209518311827
 51
80.7211831644642643
  0
ARC
  5
13E9
  8
0
 10
60.6857079865116376
 20
7.2787079297795074
 30
0.0
 40
1.1200000360239071
 50
99.2683390469395448
 51
140.7215033069024059
  0
CIRCLE
  5
13EA
  8
0
 10
60.6857080225116476
 20
7.2787006118795041
 30
0.0
 40
0.3784250831
  0
CIRCLE
  5
13EB
  8
0
 10
60.6857080225116476
 20
7.2787006118795041
 30
0.0
 40
0.5290427486506118
  0
ARC
  5
13EC
  8
0
 10
60.0753855454556174
 20
6.2218147126937211
 30
0.0
 40
0.4324566837278063
 50
353.5671457059930276
 51
126.4227017289048973
  0
ARC
  5
13ED
  8
0
 10
61.2958359661139269
 20
6.2217042813823999
 30
0.0
 40
0.4324555066920947
 50
53.5673570721578116
 51
186.4225459706937897
  0
ARC
  5
13EE
  8
0
 10
61.9061689059252203
 20
7.278589576136496
 30
0.0
 40
0.4324616093065473
 50
113.5670458049539064
 51
246.4218417307212121
  0
ARC
  5
13EF
  8
0
 10
61.2960359037285514
 20
8.3355974934649808
 30
0.0
 40
0.4324634867992428
 50
173.5667397413872095
 51
306.4224908930260085
  0
ARC
  5
13F0
  8
0
 10
60.0755742060057614
 20
8.335707004615287
 30
0.0
 40
0.4324628740660323
 50
233.5667730305017926
 51
6.4230693234764971
  0
ARC
  5
13F1
  8
0
 10
59.4652458572174609
 20
7.2788126883573048
 30
0.0
 40
0.4324621326772849
 50
293.5678305475236129
 51
66.422333466226732
  0
ARC
  5
13F2
  8
0
 10
59.5019616782547516
 20
8.0986616631604882
 30
0.0
 40
0.0600026961699913
 50
58.3440083593434693
 51
145.2877755069197008
  0
ARC
  5
13F3
  8
0
 10
59.3893539621167008
 20
7.898588125025082
 30
0.0
 40
0.0668725640918466
 50
191.022788889584092
 51
239.3384492117521916
  0
ARC
  5
13F4
  8
0
 10
59.3837531743140801
 20
6.6635002669618331
 30
0.0
 40
0.0600380643109878
 50
118.3533720771432058
 51
179.9750364282149917
  0
ARC
  5
13F5
  8
0
 10
59.5019630197759781
 20
6.4587466205444031
 30
0.0
 40
0.0600080018393492
 50
214.7125668034985893
 51
301.6513636097888025
  0
ARC
  5
13F6
  8
0
 10
60.5674740976887094
 20
5.8435656881946576
 30
0.0
 40
0.0600027042793178
 50
178.3440159320861085
 51
265.2877727295522732
  0
ARC
  5
13F7
  8
0
 10
60.8039401485407112
 20
5.8435626843302577
 30
0.0
 40
0.0600001018349138
 50
274.7097048351207036
 51
1.668009828666126
  0
ARC
  5
13F8
  8
0
 10
61.8694543669555514
 20
6.4587395604498701
 30
0.0
 40
0.0600026960891204
 50
238.3440082141194125
 51
325.287362449735781
  0
ARC
  5
13F9
  8
0
 10
61.9876624700731327
 20
6.6634949255854066
 30
0.0
 40
0.0600384661306789
 50
0.027433770717587
 51
61.6579137293383894
  0
ARC
  5
13FA
  8
0
 10
61.8694578421583827
 20
8.0986617164227077
 30
0.0
 40
0.0599999918045351
 50
34.7098498587716833
 51
121.6680707467260021
  0
ARC
  5
13FB
  8
0
 10
61.987663040634601
 20
7.8939008553556711
 30
0.0
 40
0.060037894475489
 50
298.3532753805071138
 51
359.9748402478541038
  0
ARC
  5
13FC
  8
0
 10
60.5674757858024932
 20
8.7138385797599653
 30
0.0
 40
0.0599999919815963
 50
94.7098494451215061
 51
181.6680712842340029
  0
ARC
  5
13FD
  8
0
 10
60.8039419499294809
 20
8.7138355424752021
 30
0.0
 40
0.0600026970872138
 50
358.3440091317045813
 51
85.2877745538866492
  0
ARC
  5
13FE
  8
0
 10
57.7532001935409482
 20
4.7840242149258394
 30
0.0
 40
3.4513858224394598
 50
56.8956717444967595
 51
62.3430818544980809
  0
ARC
  5
13FF
  8
0
 10
61.337082653559321
 20
10.9944018567637194
 30
0.0
 40
3.3682639513583861
 50
237.6236813766558953
 51
243.2063395516526043
  0
ARC
  5
1400
  8
0
 10
57.0723606292815688
 20
8.5708992711160619
 30
0.0
 40
3.4380410511697801
 50
356.88518153234088
 51
2.3536730865988118
  0
ARC
  5
1401
  8
0
 10
64.2698241151342415
 20
8.5727375300858277
 30
0.0
 40
3.4087546093127372
 50
177.6568578232813991
 51
183.1731071066882919
  0
ARC
  5
1402
  8
0
 10
60.0062248968077228
 20
11.0397905813772006
 30
0.0
 40
3.421652852854399
 50
296.871934354045095
 51
302.3666841575920898
  0
ARC
  5
1403
  8
0
 10
63.6109724874369107
 20
4.800427724501815
 30
0.0
 40
3.4334901661813371
 50
117.6767534267633977
 51
123.153311969138997
  0
ARC
  5
1404
  8
0
 10
57.7960406142592618
 20
9.6963349290193381
 30
0.0
 40
3.3632571879085651
 50
297.6195378877126245
 51
303.2106395491528019
  0
ARC
  5
1405
  8
0
 10
61.3815597713275807
 20
3.4889203662764952
 30
0.0
 40
3.4546444700773939
 50
116.8988659303842041
 51
122.3414145403976931
  0
ARC
  5
1406
  8
0
 10
57.1598765311064199
 20
5.9850840547234148
 30
0.0
 40
3.350537093932985
 50
357.6089264483638885
 51
3.2213531259241339
  0
ARC
  5
1407
  8
0
 10
64.3602970859521548
 20
5.9860929004078676
 30
0.0
 40
3.4992154780437441
 50
176.9327378730828002
 51
182.3057999688400059
  0
ARC
  5
1408
  8
0
 10
60.0506850533467968
 20
3.5917972899224182
 30
0.0
 40
3.3351871227005199
 50
57.5960080737563871
 51
63.2343406288326833
  0
ARC
  5
1409
  8
0
 10
63.6556698761756508
 20
9.8372636667534756
 30
0.0
 40
3.5253599989571822
 50
236.9527648738176993
 51
242.2858739674788069
  0
ARC
  5
140A
  8
0
 10
60.2069275944576674
 20
7.582013854954158
 30
0.0
 40
0.9339976438236606
 50
143.8613740561534087
 51
161.0189186742751133
  0
ARC
  5
140B
  8
0
 10
60.3176069057291073
 20
7.0455006305704648
 30
0.0
 40
1.0647653186195669
 50
201.0228522610975119
 51
215.6729504465837124
  0
ARC
  5
140C
  8
0
 10
60.6857095060987675
 20
7.278664533740435
 30
0.0
 40
1.4999639218639831
 50
265.2900389169377036
 51
274.7096693212685068
  0
ARC
  5
140D
  8
0
 10
61.0537541165794266
 20
7.045535148244304
 30
0.0
 40
1.0648300493974501
 50
324.3269919940044019
 51
338.9763379008991251
  0
ARC
  5
140E
  8
0
 10
61.0538134180726928
 20
7.511903412441888
 30
0.0
 40
1.0647602031642269
 50
21.0227778290119396
 51
35.6729754092997808
  0
ARC
  5
140F
  8
0
 10
60.6857069072309727
 20
7.2787456729477489
 30
0.0
 40
1.4999549389353271
 50
85.2900247587470517
 51
94.7097213875697861
  0
ARC
  5
1411
  8
0
 10
52.6972835070280397
 20
7.2787079297795074
 30
0.0
 40
1.1200000360239071
 50
339.2785210738360888
 51
20.7313149124131186
  0
ARC
  5
1412
  8
0
 10
52.6972835070280397
 20
7.2787079297795074
 30
0.0
 40
1.1200000360239071
 50
279.2788655999668777
 51
320.7312869650539255
  0
ARC
  5
1413
  8
0
 10
52.6972835070280397
 20
7.2787079297795074
 30
0.0
 40
1.1200000360239071
 50
219.2791857445450887
 51
260.7316050585691869
  0
ARC
  5
1414
  8
0
 10
52.6972835070280397
 20
7.2787079297795074
 30
0.0
 40
1.1200000360239071
 50
159.2791613628037055
 51
200.7319511015205933
  0
ARC
  5
1415
  8
0
 10
52.6972835070280397
 20
7.2787079297795074
 30
0.0
 40
1.1200000360239071
 50
99.2788168355357499
 51
140.7319790481687107
  0
ARC
  5
1416
  8
0
 10
52.6972835070280397
 20
7.2787079297795074
 30
0.0
 40
1.1200000360239071
 50
39.2784966930976012
 51
80.7316609530608815
  0
CIRCLE
  5
1417
  8
0
 10
52.6972834710280367
 20
7.2787006118795041
 30
0.0
 40
0.3784250831
  0
CIRCLE
  5
1418
  8
0
 10
52.6972834710280367
 20
7.2787006118795041
 30
0.0
 40
0.5290427486506118
  0
ARC
  5
1419
  8
0
 10
53.3076059480840598
 20
6.2218147126937211
 30
0.0
 40
0.4324566837278063
 50
53.577298271094989
 51
186.4328542940070008
  0
ARC
  5
141A
  8
0
 10
52.0871555274257503
 20
6.2217042813823999
 30
0.0
 40
0.4324555066920947
 50
353.5774540293061818
 51
126.4326429278418971
  0
ARC
  5
141B
  8
0
 10
51.4768225876144569
 20
7.278589576136496
 30
0.0
 40
0.4324616093065473
 50
293.5781582692789016
 51
66.4329541950458662
  0
ARC
  5
141C
  8
0
 10
52.0869555898111329
 20
8.3355974934649808
 30
0.0
 40
0.4324634867992428
 50
233.5775091069741052
 51
6.4332602586128287
  0
ARC
  5
141D
  8
0
 10
53.3074172875339087
 20
8.335707004615287
 30
0.0
 40
0.4324628740660323
 50
173.5769306765234887
 51
306.4332269694982074
  0
ARC
  5
141E
  8
0
 10
53.9177456363222092
 20
7.2788126883573048
 30
0.0
 40
0.4324621326772849
 50
113.5776665337732965
 51
246.4321694524761028
  0
ARC
  5
141F
  8
0
 10
53.8810298152849327
 20
8.0986616631604882
 30
0.0
 40
0.0600026961699913
 50
34.7122244930802069
 51
121.6559916406564952
  0
ARC
  5
1420
  8
0
 10
53.9936375314229835
 20
7.898588125025082
 30
0.0
 40
0.0668725640918466
 50
300.6615507882478937
 51
348.9772111104156807
  0
ARC
  5
1421
  8
0
 10
53.9992383192255971
 20
6.6635002669618331
 30
0.0
 40
0.0600380643109878
 50
0.0249635717849771
 51
61.6466279228568226
  0
ARC
  5
1422
  8
0
 10
53.8810284737636991
 20
6.4587466205444031
 30
0.0
 40
0.0600080018393492
 50
238.3486363902109986
 51
325.2874331965012971
  0
ARC
  5
1423
  8
0
 10
52.8155173958509678
 20
5.8435656881946576
 30
0.0
 40
0.0600027042793178
 50
274.7122272704481247
 51
1.655984067913872
  0
ARC
  5
1424
  8
0
 10
52.5790513449989731
 20
5.8435626843302577
 30
0.0
 40
0.0600001018349138
 50
178.3319901713337003
 51
265.2902951648792964
  0
ARC
  5
1425
  8
0
 10
51.5135371265841187
 20
6.4587395604498701
 30
0.0
 40
0.0600026960891204
 50
214.7126375502641054
 51
301.6559917858805875
  0
ARC
  5
1426
  8
0
 10
51.3953290234665587
 20
6.6634949255854066
 30
0.0
 40
0.0600384661306789
 50
118.3420862706615964
 51
179.9725662292823927
  0
ARC
  5
1427
  8
0
 10
51.5135336513813016
 20
8.0986617164227077
 30
0.0
 40
0.0599999918045351
 50
58.3319292532737492
 51
145.2901501412283949
  0
ARC
  5
1428
  8
0
 10
51.3953284529050833
 20
7.8939008553556711
 30
0.0
 40
0.060037894475489
 50
180.0251597521456972
 51
241.6467246194931136
  0
ARC
  5
1429
  8
0
 10
52.8155157077371982
 20
8.7138385797599653
 30
0.0
 40
0.0599999919815963
 50
358.3319287157660256
 51
85.2901505548784797
  0
ARC
  5
142A
  8
0
 10
52.5790495436102034
 20
8.7138355424752021
 30
0.0
 40
0.0600026970872138
 50
94.7122254461133366
 51
181.6559908682953903
  0
ARC
  5
142B
  8
0
 10
55.6297912999987432
 20
4.7840242149258394
 30
0.0
 40
3.4513858224394598
 50
117.6569181455019049
 51
123.104328255503205
  0
ARC
  5
142C
  8
0
 10
52.0459088399803704
 20
10.9944018567637194
 30
0.0
 40
3.3682639513583861
 50
296.7936604483472252
 51
302.3763186233442752
  0
ARC
  5
142D
  8
0
 10
56.3106308642581084
 20
8.5708992711160619
 30
0.0
 40
3.4380410511697801
 50
177.6463269134011966
 51
183.1148184676590915
  0
ARC
  5
142E
  8
0
 10
49.1131673784054286
 20
8.5727375300858277
 30
0.0
 40
3.4087546093127372
 50
356.8268928933115944
 51
2.3431421767186129
  0
ARC
  5
142F
  8
0
 10
53.3767665967319616
 20
11.0397905813772006
 30
0.0
 40
3.421652852854399
 50
237.6333158424081091
 51
243.128065645954706
  0
ARC
  5
1430
  8
0
 10
49.7720190061027807
 20
4.800427724501815
 30
0.0
 40
3.4334901661813371
 50
56.8466880308610101
 51
62.3232465732363323
  0
ARC
  5
1431
  8
0
 10
55.5869508792804226
 20
9.6963349290193381
 30
0.0
 40
3.3632571879085651
 50
236.789360450847397
 51
242.3804621122870913
  0
ARC
  5
1432
  8
0
 10
52.0014317222120894
 20
3.4889203662764952
 30
0.0
 40
3.4546444700773939
 50
57.6585854596022287
 51
63.101134069615533
  0
ARC
  5
1433
  8
0
 10
56.2231149624332573
 20
5.9850840547234148
 30
0.0
 40
3.350537093932985
 50
176.7786468740758892
 51
182.3910735516361115
  0
ARC
  5
1434
  8
0
 10
49.0226944075875224
 20
5.9860929004078676
 30
0.0
 40
3.4992154780437441
 50
357.6942000311598804
 51
3.0672621269171461
  0
ARC
  5
1435
  8
0
 10
53.3323064401928804
 20
3.5917972899224182
 30
0.0
 40
3.3351871227005199
 50
116.7656593711675015
 51
122.4039919262436058
  0
ARC
  5
1436
  8
0
 10
49.7273216173640193
 20
9.8372636667534756
 30
0.0
 40
3.5253599989571822
 50
297.7141260325211078
 51
303.0472351261821018
  0
ARC
  5
1437
  8
0
 10
53.1760638990820098
 20
7.582013854954158
 30
0.0
 40
0.9339976438236606
 50
18.9810813257248512
 51
36.1386259438466269
  0
ARC
  5
1438
  8
0
 10
53.0653845878105699
 20
7.0455006305704648
 30
0.0
 40
1.0647653186195669
 50
324.3270495534159181
 51
338.9771477389026018
  0
ARC
  5
1439
  8
0
 10
52.6972819874409169
 20
7.278664533740435
 30
0.0
 40
1.4999639218639831
 50
265.2903306787314932
 51
274.7099610830622964
  0
ARC
  5
143A
  8
0
 10
52.3292373769602506
 20
7.045535148244304
 30
0.0
 40
1.0648300493974501
 50
201.0236620991009033
 51
215.6730080059955128
  0
ARC
  5
143B
  8
0
 10
52.3291780754669986
 20
7.511903412441888
 30
0.0
 40
1.0647602031642269
 50
144.3270245907000913
 51
158.9772221709881137
  0
ARC
  5
143C
  8
0
 10
52.6972845863087116
 20
7.2787456729477489
 30
0.0
 40
1.4999549389353271
 50
85.2902786124302139
 51
94.7099752412529341
  0
ENDSEC
  0
EOF
