  0
SECTION
  2
HEADER
  9
$ACADVER
  1
AC1009
  9
$INSBASE
 10
8614.9052852083405014
 20
2270.0031113067911974
 30
0.0
  9
$EXTMIN
 10
8588.6382786444301018
 20
2270.0031113067911974
 30
0.0
  9
$EXTMAX
 10
8614.9165359946237004
 20
2301.4841326220248447
 30
0.0
  9
$LIMMIN
 10
0.0
 20
0.0
  9
$LIMMAX
 10
11.6929133858000007
 20
8.2677165353999982
  9
$ORTHOMODE
 70
     0
  9
$REGENMODE
 70
     1
  9
$FILLMODE
 70
     1
  9
$QTEXTMODE
 70
     0
  9
$MIRRTEXT
 70
     0
  9
$DRAGMODE
 70
     2
  9
$LTSCALE
 40
0.6431102362
  9
$OSMODE
 70
  4063
  9
$ATTMODE
 70
     1
  9
$TEXTSIZE
 40
0.2
  9
$TRACEWID
 40
0.05
  9
$TEXTSTYLE
  7
STANDARD
  9
$CLAYER
  8
0
  9
$CELTYPE
  6
BYLAYER
  9
$CECOLOR
 62
     1
  9
$DIMSCALE
 40
1.0
  9
$DIMASZ
 40
0.1875
  9
$DIMEXO
 40
0.0625
  9
$DIMDLI
 40
0.4443307087
  9
$DIMRND
 40
0.0
  9
$DIMDLE
 40
0.0
  9
$DIMEXE
 40
0.125
  9
$DIMTP
 40
0.01
  9
$DIMTM
 40
0.01
  9
$DIMTXT
 40
2.0
  9
$DIMCEN
 40
0.1052362205
  9
$DIMTSZ
 40
0.0
  9
$DIMTOL
 70
     1
  9
$DIMLIM
 70
     0
  9
$DIMTIH
 70
     1
  9
$DIMTOH
 70
     1
  9
$DIMSE1
 70
     0
  9
$DIMSE2
 70
     0
  9
$DIMTAD
 70
     0
  9
$DIMZIN
 70
     0
  9
$DIMBLK
  1

  9
$DIMASO
 70
     1
  9
$DIMSHO
 70
     1
  9
$DIMPOST
  1
\X
  9
$DIMAPOST
  1

  9
$DIMALT
 70
     1
  9
$DIMALTD
 70
     2
  9
$DIMALTF
 40
25.3999999999999986
  9
$DIMLFAC
 40
1.0
  9
$DIMTOFL
 70
     0
  9
$DIMTVP
 40
0.0
  9
$DIMTIX
 70
     0
  9
$DIMSOXD
 70
     0
  9
$DIMSAH
 70
     0
  9
$DIMBLK1
  1

  9
$DIMBLK2
  1

  9
$DIMSTYLE
  2
STANDARD
  9
$DIMCLRD
 70
     0
  9
$DIMCLRE
 70
     0
  9
$DIMCLRT
 70
     0
  9
$DIMTFAC
 40
1.0
  9
$DIMGAP
 40
0.09
  9
$LUNITS
 70
     2
  9
$LUPREC
 70
     4
  9
$SKETCHINC
 40
0.1
  9
$FILLETRAD
 40
0.0
  9
$AUNITS
 70
     0
  9
$AUPREC
 70
     0
  9
$MENU
  1
.
  9
$ELEVATION
 40
0.0
  9
$PELEVATION
 40
0.0
  9
$THICKNESS
 40
0.0
  9
$LIMCHECK
 70
     0
  9
$BLIPMODE
 70
     0
  9
$CHAMFERA
 40
0.0
  9
$CHAMFERB
 40
0.0
  9
$SKPOLY
 70
     0
  9
$TDCREATE
 40
2458060.468368056230247
  9
$TDUPDATE
 40
2459432.9193981480784714
  9
$TDINDWG
 40
0.4531667824
  9
$TDUSRTIMER
 40
0.4531667824
  9
$USRTIMER
 70
     1
  9
$ANGBASE
 50
0.0
  9
$ANGDIR
 70
     0
  9
$PDMODE
 70
     0
  9
$PDSIZE
 40
0.3125
  9
$PLINEWID
 40
0.0
  9
$COORDS
 70
     1
  9
$SPLFRAME
 70
     0
  9
$SPLINETYPE
 70
     6
  9
$SPLINESEGS
 70
     8
  9
$ATTDIA
 70
     1
  9
$ATTREQ
 70
     1
  9
$HANDLING
 70
     1
  9
$HANDSEED
  5
11730
  9
$SURFTAB1
 70
     6
  9
$SURFTAB2
 70
     6
  9
$SURFTYPE
 70
     6
  9
$SURFU
 70
     6
  9
$SURFV
 70
     6
  9
$UCSNAME
  2

  9
$UCSORG
 10
0.0
 20
0.0
 30
0.0
  9
$UCSXDIR
 10
1.0
 20
0.0
 30
0.0
  9
$UCSYDIR
 10
0.0
 20
1.0
 30
0.0
  9
$PUCSNAME
  2

  9
$PUCSORG
 10
0.0
 20
0.0
 30
0.0
  9
$PUCSXDIR
 10
1.0
 20
0.0
 30
0.0
  9
$PUCSYDIR
 10
0.0
 20
1.0
 30
0.0
  9
$USERI1
 70
     0
  9
$USERI2
 70
     0
  9
$USERI3
 70
     0
  9
$USERI4
 70
     0
  9
$USERI5
 70
     0
  9
$USERR1
 40
0.0
  9
$USERR2
 40
0.0
  9
$USERR3
 40
0.0
  9
$USERR4
 40
0.0
  9
$USERR5
 40
0.0
  9
$WORLDVIEW
 70
     1
  9
$SHADEDGE
 70
     3
  9
$SHADEDIF
 70
    70
  9
$TILEMODE
 70
     1
  9
$MAXACTVP
 70
    64
  9
$PLIMCHECK
 70
     0
  9
$PEXTMIN
 10
1.0000000000000000E+20
 20
1.0000000000000000E+20
 30
1.0000000000000000E+20
  9
$PEXTMAX
 10
-1.0000000000000000E+20
 20
-1.0000000000000000E+20
 30
-1.0000000000000000E+20
  9
$PLIMMIN
 10
0.0
 20
0.0
  9
$PLIMMAX
 10
12.0
 20
9.0
  9
$UNITMODE
 70
     0
  9
$VISRETAIN
 70
     1
  9
$PLINEGEN
 70
     0
  9
$PSLTSCALE
 70
     1
  0
ENDSEC
  0
SECTION
  2
TABLES
  0
TABLE
  2
VPORT
 70
     1
  0
VPORT
  2
*ACTIVE
 70
     0
 10
0.0
 20
0.0
 11
1.0
 21
1.0
 12
3786.6696984374889325
 22
2038.4117342476879458
 13
0.0
 23
0.0
 14
1.0
 24
1.0
 15
0.0
 25
0.0
 16
0.0
 26
0.0
 36
9.5192988075487186
 17
4815.2983398437490905
 27
247.8086242675780966
 37
0.0
 40
32.9981331613508218
 41
2.0184501845018441
 42
50.0
 43
0.0
 44
0.0
 50
0.0
 51
0.0
 71
     0
 72
   100
 73
     1
 74
     1
 75
     0
 76
     0
 77
     0
 78
     0
  0
ENDTAB
  0
TABLE
  2
LTYPE
 70
     2
  0
LTYPE
  2
CONTINUOUS
 70
     0
  3
Solid line
 72
    65
 73
     0
 40
0.0
  0
LTYPE
  2
PHANTOM2
 70
     0
  3
___ _ _ ___ _ _ ___ _ _ ___ _ _
 72
    65
 73
     6
 40
1.25
 49
0.625
 49
-0.125
 49
0.125
 49
-0.125
 49
0.125
 49
-0.125
  0
ENDTAB
  0
TABLE
  2
LAYER
 70
     2
  0
LAYER
  2
0
 70
     0
 62
   255
  6
CONTINUOUS
  0
LAYER
  2
DEFPOINTS
 70
     0
 62
     7
  6
CONTINUOUS
  0
ENDTAB
  0
TABLE
  2
STYLE
 70
     1
  0
STYLE
  2
STANDARD
 70
     0
 40
0.0
 41
0.8
 50
0.0
 71
     0
 42
0.2
  3
txt
  4

  0
ENDTAB
  0
TABLE
  2
VIEW
 70
     0
  0
ENDTAB
  0
TABLE
  2
UCS
 70
     0
  0
ENDTAB
  0
TABLE
  2
APPID
 70
    10
  0
APPID
  2
ACAD
 70
     0
  0
APPID
  2
ACAD_MLEADERVER
 70
     0
  0
APPID
  2
ACAD_EXEMPT_FROM_CAD_STANDARDS
 70
     0
  0
APPID
  2
ACAD_NAV_VCDISPLAY
 70
     0
  0
APPID
  2
ACAECLAYERSTANDARD
 70
     0
  0
APPID
  2
ACCMTRANSPARENCY
 70
     0
  0
APPID
  2
ACAD_DSTYLE_DIMJAG
 70
     0
  0
APPID
  2
ACAD_DSTYLE_DIMTALN
 70
     0
  0
APPID
  2
ACDBATTR
 70
     0
  0
APPID
  2
ACADANNOTATIVE
 70
     0
  0
ENDTAB
  0
TABLE
  2
DIMSTYLE
 70
     1
  0
DIMSTYLE
  2
STANDARD
 70
     0
  3

  4

  5

  6

  7

 40
1.0
 41
0.1875
 42
0.0625
 43
0.38
 44
0.125
 45
0.0
 46
0.0
 47
0.01
 48
0.01
140
0.15625
141
0.09
142
0.0
143
25.3999999999999986
144
1.0
145
0.0
146
1.0
147
0.09
 71
     1
 72
     0
 73
     1
 74
     1
 75
     0
 76
     0
 77
     0
 78
     4
170
     0
171
     2
172
     0
173
     0
174
     0
175
     0
176
     0
177
     0
178
     0
  0
ENDTAB
  0
ENDSEC
  0
SECTION
  2
BLOCKS
  0
BLOCK
  8
0
  2
$MODEL_SPACE
 70
     0
 10
0.0
 20
0.0
 30
0.0
  3
$MODEL_SPACE
  1

  0
ENDBLK
  5
21
  8
0
  0
BLOCK
 67
     1
  8
0
  2
$PAPER_SPACE
 70
     0
 10
0.0
 20
0.0
 30
0.0
  3
$PAPER_SPACE
  1

  0
ENDBLK
  5
1D
 67
     1
  8
0
  0
BLOCK
  8
0
  2
_FILLED
 70
     0
 10
0.0
 20
0.0
 30
0.0
  3
_FILLED
  1

  0
SOLID
  5
1139D
  8
0
  6
BYBLOCK
 62
     0
 10
0.0
 20
0.0
 30
0.0
 11
-1.0
 21
0.1666666667
 31
0.0
 12
-1.0
 22
-0.1666666667
 32
0.0
 13
-1.0
 23
-0.1666666667
 33
0.0
  0
ENDBLK
  5
1139E
  8
0
  6
BYBLOCK
 62
     0
  0
ENDSEC
  0
SECTION
  2
ENTITIES
  0
ATTDEF
  5
3930
  8
DEFPOINTS
 10
8614.9058693279548606
 20
2270.0072500844448768
 30
0.0
 40
0.001
  1
K-76173K
  3

  2
MODELNUMBER
 70
     0
1001
ACDBATTR
1070
     0
1070
     1
  0
ATTDEF
  5
3931
  8
DEFPOINTS
 10
8614.9058693279548606
 20
2270.0055834177787801
 30
0.0
 40
0.001
  1
ODEON UP
  3

  2
TRADENAME
 70
     0
1001
ACDBATTR
1070
     0
1070
     1
  0
ATTDEF
  5
3932
  8
DEFPOINTS
 10
8614.9058693279548606
 20
2270.0039167511117739
 30
0.0
 40
0.001
  1
TOILET
  3

  2
PRODUCT
 70
     0
1001
ACDBATTR
1070
     0
1070
     1
  0
LINE
  5
1146A
  8
0
 10
8608.2150143041617412
 20
2299.6475184132909817
 30
0.0
 11
8614.2852860753882851
 21
2299.6475184132909817
 31
0.0
  0
LINE
  5
1146B
  8
0
 10
8588.6943986692640465
 20
2286.0691553390770423
 30
0.0
 11
8605.4105374460541498
 21
2286.1100501208247806
 31
0.0
  0
LINE
  5
1146C
  8
0
 10
8589.0597523276592256
 20
2285.8967810958611153
 30
0.0
 11
8603.667814526357688
 21
2285.8967810958611153
 31
0.0
  0
LINE
  5
1146D
  8
0
 10
8588.9595361344418052
 20
2285.7511113086911791
 30
0.0
 11
8609.0132994193681952
 21
2285.7511113086911791
 31
0.0
  0
LINE
  5
1146E
  8
0
 10
8608.7659308841193706
 20
2287.3256312086759863
 30
0.0
 11
8614.2140384567192086
 21
2287.3256312086759863
 31
0.0
  0
LINE
  5
1146F
  8
0
 10
8592.2439654638692446
 20
2270.0031113067911974
 30
0.0
 11
8609.5588439416696929
 21
2270.0031113067911974
 31
0.0
  0
CIRCLE
  5
11470
  8
0
 10
8601.6853547126684134
 20
2271.1824627462910939
 30
0.0
 40
0.5409516556871635
  0
ARC
  5
11471
  8
0
 10
8612.8038710995424481
 20
2252.6641001406919713
 30
0.0
 40
48.7752504026386973
 50
91.4855527273520437
 51
95.007112912185903
  0
ARC
  5
11472
  8
0
 10
8608.5828364700355451
 20
2300.9403260861158742
 30
0.0
 40
0.3149606284907698
 50
96.5706889488670441
 51
174.9993520732508046
  0
LINE
  5
11473
  8
0
 10
8608.1591452585707884
 20
2299.7117212900911909
 30
0.0
 11
8608.2690746722691983
 21
2300.9677802617911766
 31
0.0
  0
ARC
  5
11474
  8
0
 10
8608.218073322195778
 20
2299.7065902871590879
 30
0.0
 40
0.0591510259728703
 50
175.0236746493906139
 51
267.0356043801035071
  0
LINE
  5
11475
  8
0
 10
8608.6515538264684437
 20
2287.4398113353909139
 30
0.0
 11
8608.2538309811698127
 21
2299.6475184132909817
 31
0.0
  0
LINE
  5
11476
  8
0
 10
8614.2852840289688174
 20
2285.276769578906169
 30
0.0
 11
8614.285284310573843
 21
2287.2543012838282266
 31
0.0
  0
LINE
  5
11477
  8
0
 10
8614.2852843358323298
 20
2287.4316747667357959
 30
0.0
 11
8614.2852860808488913
 21
2299.6800814141861338
 31
0.0
  0
ARC
  5
11478
  8
0
 10
8608.7696280027521425
 20
2287.443711931352027
 30
0.0
 40
0.1181385870651747
 50
181.8920855307906095
 51
268.206649573063828
  0
ARC
  5
11479
  8
0
 10
8608.9113378297242889
 20
2287.168342364174805
 30
0.0
 40
0.1574512716519999
 50
92.6027424679787856
 51
173.0098950788951129
  0
LINE
  5
1147A
  8
0
 10
8608.6211453992673341
 20
2286.0968747934912244
 30
0.0
 11
8608.7550568644219311
 21
2287.1875038575658436
 31
0.0
  0
ARC
  5
1147B
  8
0
 10
8604.7098164372837346
 20
2285.3598143662197799
 30
0.0
 40
9.5758276945735155
 50
349.563075092091708
 51
359.5031055674979257
  0
ARC
  5
1147C
  8
0
 10
8609.7711910290927335
 20
2284.3000656647418509
 30
0.0
 40
4.4079994011073769
 50
296.1629737647583056
 51
351.1923769878612802
  0
ARC
  5
1147D
  8
0
 10
8612.9800062870763213
 20
2277.8271809505490637
 30
0.0
 40
2.8166659127173901
 50
116.6916332691427982
 51
163.3122567842422939
  0
ARC
  5
1147E
  8
0
 10
8622.4917438120464794
 20
2274.798076700547881
 30
0.0
 40
12.7987623515176896
 50
162.5503886867473966
 51
177.406901705610295
  0
LINE
  5
1147F
  8
0
 10
8609.5588439416696929
 20
2270.0031113067911974
 30
0.0
 11
8609.5655592936691392
 21
2271.563825159991211
 31
0.0
  0
ARC
  5
11480
  8
0
 10
8660.7977941010758514
 20
2271.5850553954428506
 30
0.0
 40
51.2322392062271277
 50
175.7552400246100035
 51
180.0237429193643948
  0
LINE
  5
11481
  8
0
 10
8592.2439654638692446
 20
2270.0031113067911974
 30
0.0
 11
8592.5377406887146208
 21
2276.6042112510431252
 31
0.0
  0
ARC
  5
11482
  8
0
 10
8590.9289427952771803
 20
2276.8232233977701071
 30
0.0
 40
1.6236369613707951
 50
352.2477494819979142
 51
45.3768559279363615
  0
ARC
  5
11483
  8
0
 10
8598.8487680924554297
 20
2285.4876469213149903
 30
0.0
 40
10.1163925467318503
 50
179.8017652468732877
 51
227.9227588675410914
  0
ARC
  5
11484
  8
0
 10
8588.9691391732267221
 20
2285.5144614641371845
 30
0.0
 40
0.2368446057683075
 50
92.3237365153019454
 51
178.0191657965494869
  0
ARC
  5
11485
  8
0
 10
8614.1162244963761623
 20
2287.4683032164721226
 30
0.0
 40
0.1729822899804435
 50
304.4339975265801854
 51
347.7752599991919737
  0
ARC
  5
11486
  8
0
 10
8614.2013377051225689
 20
2287.2416995230660177
 30
0.0
 40
0.0848872012763601
 50
8.5372870098938005
 51
81.395143129287419
  0
ARC
  5
11487
  8
0
 10
8608.2644858088042383
 20
2286.1063568735758054
 30
0.0
 40
0.3567856125367838
 50
264.6745368419963143
 51
358.477104667115384
  0
LINE
  5
11488
  8
0
 10
8588.991407235222141
 20
2286.0698819482931867
 30
0.0
 11
8588.9846582623686118
 21
2285.9755214056908699
 31
0.0
  0
ARC
  5
11489
  8
0
 10
8589.0634355113616039
 20
2285.9754722105849396
 30
0.0
 40
0.0787772643514015
 50
179.9642197261227068
 51
267.3201932892816899
  0
ARC
  5
1148A
  8
0
 10
8588.9859518117846164
 20
2287.1476490938189272
 30
0.0
 40
0.3149601792336192
 50
90.7172780268587644
 51
178.2001027481996971
  0
ARC
  5
1148B
  8
0
 10
8718.2643057706700347
 20
-2703.3033667471459012
 30
0.0
 40
4992.4401542051291472
 50
91.2848073819308752
 51
91.4838751922175533
  0
LINE
  5
1148C
  8
0
 10
8588.6382786643698637
 20
2286.1282104473598338
 30
0.0
 11
8588.6711470286445547
 21
2287.1575416675909764
 31
0.0
  0
ARC
  5
1148D
  8
0
 10
8588.6973594522423809
 20
2286.1281619117248738
 30
0.0
 40
0.0590808078101092
 50
179.952930783684991
 51
267.1274689378033145
  0
ARC
  5
1148E
  8
0
 10
8606.3322493175692216
 20
2287.5798715255009483
 30
0.0
 40
0.3019201839776721
 50
8.0581700305807065
 51
88.1714383773034456
  0
LINE
  5
1148F
  8
0
 10
8606.742104232269412
 20
2286.7802788030908232
 30
0.0
 11
8606.6536657805681898
 21
2287.4802653773908787
 31
0.0
  0
ARC
  5
11490
  8
0
 10
8605.7840322263145936
 20
2287.4152852577490194
 30
0.0
 40
0.8720578734438635
 50
4.2732720156682706
 51
13.7251844107827097
  0
ARC
  5
11491
  8
0
 10
8605.4020721980032249
 20
2288.5168660866897881
 30
0.0
 40
2.4068308527956588
 50
270.2015197641708824
 51
298.1433684658255743
  0
ARC
  5
11492
  8
0
 10
8606.3663655587697576
 20
2286.7325716141958765
 30
0.0
 40
0.3787552331452415
 50
296.8317068792662781
 51
7.2360728566739381
  0
LINE
  5
11493
  8
0
 10
8606.5101502646630252
 20
2286.380280550803036
 30
0.0
 11
8606.504437170269739
 21
2286.3664410726901224
 31
0.0
  0
LINE
  5
11494
  8
0
 10
8606.6491265144504723
 20
2286.4568529890730133
 30
0.0
 11
8606.6316101613138017
 21
2286.4579635437498837
 31
0.0
  0
ARC
  5
11495
  8
0
 10
8606.3449801171682338
 20
2286.7826074190697909
 30
0.0
 40
0.4456691369634126
 50
290.9646846632517736
 51
313.0353037490532984
  0
ARC
  5
11496
  8
0
 10
8606.3451135619197885
 20
2286.7825696722079556
 30
0.0
 40
0.4329543164087674
 50
311.4315472779665015
 51
17.0099459575622483
  0
LINE
  5
11497
  8
0
 10
8606.7591278539694031
 20
2286.9092251342908639
 30
0.0
 11
8606.702348865195745
 21
2287.0949408383539776
 31
0.0
  0
ARC
  5
11498
  8
0
 10
8606.3449801544684306
 20
2286.7826073704909504
 30
0.0
 40
0.5236220472000213
 50
0.0
 51
48.4474216496299306
  0
LINE
  5
11499
  8
0
 10
8606.8686022016700008
 20
2286.345599496397881
 30
0.0
 11
8606.8686022016700008
 21
2286.782607370390906
 31
0.0
  0
ARC
  5
1149A
  8
0
 10
8606.9277263712447166
 20
2286.3456334407737813
 30
0.0
 40
0.0591241793172976
 50
180.0328946567871071
 51
268.0251494140370028
  0
ARC
  5
1149B
  8
0
 10
8607.0339565324375144
 20
2286.1881191815618877
 30
0.0
 40
0.0984251967293091
 50
359.9999999006258236
 51
90.0000271681779935
  0
LINE
  5
1149C
  8
0
 10
8607.0339564857695223
 20
2286.2865443782911825
 30
0.0
 11
8606.3067820028663846
 21
2286.2865443782911825
 31
0.0
  0
LINE
  5
1149D
  8
0
 10
8606.9256888496438478
 20
2285.9518987089909388
 30
0.0
 11
8606.9256888502768561
 21
2285.9558357167911709
 31
0.0
  0
LINE
  5
1149E
  8
0
 10
8606.9256888806903589
 20
2286.1448120947911775
 30
0.0
 11
8606.9256888819581945
 21
2286.1526861104907766
 31
0.0
  0
LINE
  5
1149F
  8
0
 10
8606.925688903502305
 20
2286.2865443782911825
 30
0.0
 11
8606.9256889047701407
 21
2286.2944182737901428
 31
0.0
  0
LINE
  5
114A0
  8
0
 10
8606.9256889047701407
 20
2286.2944182737901428
 30
0.0
 11
8606.9374999306692189
 21
2286.306229349790101
 31
0.0
  0
LINE
  5
114A1
  8
0
 10
8606.9374999306692189
 20
2286.306229349790101
 30
0.0
 11
8607.0123028298694408
 21
2286.3062294176911564
 31
0.0
  0
LINE
  5
114A2
  8
0
 10
8607.0123028298694408
 20
2286.3062294176911564
 30
0.0
 11
8607.024114012670907
 21
2286.2944182737901428
 31
0.0
  0
LINE
  5
114A3
  8
0
 10
8607.024114012670907
 20
2286.2944182737901428
 30
0.0
 11
8607.024114012670907
 21
2286.2865443782911825
 31
0.0
  0
LINE
  5
114A4
  8
0
 10
8607.024114012670907
 20
2286.1526861104907766
 30
0.0
 11
8607.024114012670907
 21
2286.1448120947911775
 31
0.0
  0
LINE
  5
114A5
  8
0
 10
8607.024114012670907
 20
2285.9558357167911709
 30
0.0
 11
8607.024114012670907
 21
2285.9518987089909388
 31
0.0
  0
LINE
  5
114A6
  8
0
 10
8606.9256889047701407
 20
2286.2944182737901428
 30
0.0
 11
8607.024114012670907
 21
2286.2944182737901428
 31
0.0
  0
LINE
  5
114A7
  8
0
 10
8605.5575785795681441
 20
2285.7550483154909671
 30
0.0
 11
8605.5575785795681441
 21
2286.1150641549597822
 31
0.0
  0
LINE
  5
114A8
  8
0
 10
8605.5575785795681441
 20
2285.7550483154909671
 30
0.0
 11
8607.1323817291686282
 21
2285.7550483152908782
 31
0.0
  0
LINE
  5
114A9
  8
0
 10
8607.1323817291686282
 20
2285.7550483152908782
 30
0.0
 11
8607.1323817292704916
 21
2286.1881191813909027
 31
0.0
  0
LINE
  5
114AA
  8
0
 10
8605.6678147999700741
 20
2285.7511113086911791
 30
0.0
 11
8605.6678147999700741
 21
2285.7550483154768699
 31
0.0
  0
LINE
  5
114AB
  8
0
 10
8607.0063974771692301
 20
2285.7511113086911791
 30
0.0
 11
8607.0063974771692301
 21
2285.7550483153067944
 31
0.0
  0
LINE
  5
114AC
  8
0
 10
8607.2544287945675023
 20
2286.1526861104907766
 30
0.0
 11
8606.8174210992692679
 21
2286.1526861104907766
 31
0.0
  0
LINE
  5
114AD
  8
0
 10
8606.8174210992692679
 20
2286.1526861104907766
 30
0.0
 11
8606.8174210992692679
 21
2285.9518987089909388
 31
0.0
  0
LINE
  5
114AE
  8
0
 10
8606.8174210992692679
 20
2285.9518987089909388
 30
0.0
 11
8607.1323817291686282
 21
2285.9518987089909388
 31
0.0
  0
LINE
  5
114AF
  8
0
 10
8607.1363187369697698
 20
2285.7865443782911825
 30
0.0
 11
8607.2544287945675023
 21
2285.7865443644409424
 31
0.0
  0
LINE
  5
114B0
  8
0
 10
8607.1363187369697698
 20
2285.7865443782911825
 30
0.0
 11
8607.1363187370698142
 21
2286.1526861104907766
 31
0.0
  0
LINE
  5
114B1
  8
0
 10
8607.151441140769748
 20
2286.1526861104907766
 30
0.0
 11
8607.151441140769748
 21
2286.1605601262908749
 31
0.0
  0
LINE
  5
114B2
  8
0
 10
8607.151441140769748
 20
2286.1605601262908749
 30
0.0
 11
8607.2353695616693585
 21
2286.1605601262908749
 31
0.0
  0
LINE
  5
114B3
  8
0
 10
8607.2353695616693585
 20
2286.1605601262908749
 30
0.0
 11
8607.2353695616693585
 21
2286.1526861104907766
 31
0.0
  0
LINE
  5
114B4
  8
0
 10
8607.1678148000682995
 20
2286.1526861104907766
 30
0.0
 11
8607.1678148000682995
 21
2286.1605601262908749
 31
0.0
  0
LINE
  5
114B5
  8
0
 10
8607.218995902368988
 20
2286.1526861104907766
 30
0.0
 11
8607.218995902368988
 21
2286.1605601262908749
 31
0.0
  0
ARC
  5
114B6
  8
0
 10
8607.254951137198077
 20
2286.1138416012140624
 30
0.0
 40
0.0388480210921781
 50
359.2248297953269116
 51
90.7704106705926677
  0
ARC
  5
114B7
  8
0
 10
8607.2515255426478689
 20
2286.113686859912832
 30
0.0
 40
0.0401253654141583
 50
359.4704798691619771
 51
59.0035764203515782
  0
LINE
  5
114B8
  8
0
 10
8607.2721894866681396
 20
2286.1480823009910637
 30
0.0
 11
8607.2757790093673975
 21
2286.1462152120911924
 31
0.0
  0
ARC
  5
114B9
  8
0
 10
8607.2536548658117681
 20
2286.1140808648087841
 30
0.0
 40
0.0366841593239188
 50
358.805345954154518
 51
61.1603637511203786
  0
ARC
  5
114BA
  8
0
 10
8607.2423216965071333
 20
2286.1135216139341537
 30
0.0
 40
0.0417996294644126
 50
359.7182023665830002
 51
50.527272418999317
  0
ARC
  5
114BB
  8
0
 10
8607.300345737952739
 20
2286.1825296990600691
 30
0.0
 40
0.0483648790829864
 50
226.3361252741190981
 51
229.4359593162020019
  0
ARC
  5
114BC
  8
0
 10
8607.2667426254374732
 20
2286.1479868642500151
 30
0.0
 40
0.0000988039480066
 50
89.4683213220531286
 51
194.0143986144655912
  0
ARC
  5
114BD
  8
0
 10
8607.2673238269744616
 20
2286.1482072744038305
 30
0.0
 40
0.0007198034788613
 50
199.8433510220754954
 51
220.1953055537551904
  0
ARC
  5
114BE
  8
0
 10
8607.2690738702531235
 20
2286.149621516292882
 30
0.0
 40
0.0029697245424578
 50
219.2459886823612862
 51
224.4348302070850991
  0
ARC
  5
114BF
  8
0
 10
8607.2668480692536832
 20
2286.1471646487339058
 30
0.0
 40
0.0009269276705566
 50
77.2001728373457752
 51
96.4748531213625569
  0
ARC
  5
114C0
  8
0
 10
8607.2613578514465189
 20
2286.1289584467522218
 30
0.0
 40
0.019940795423358
 50
59.9283780755229714
 51
73.4038315776136443
  0
ARC
  5
114C1
  8
0
 10
8607.2252345468587009
 20
2286.1131931750642252
 30
0.0
 40
0.0455579493959025
 50
0.1545104758556296
 51
45.7017645617229533
  0
ARC
  5
114C2
  8
0
 10
8607.2459374873942579
 20
2286.1143529977462094
 30
0.0
 40
0.0354488240773548
 50
358.3237173308936008
 51
70.341538594067984
  0
ARC
  5
114C3
  8
0
 10
8607.2558500753893895
 20
2286.1478028526721573
 30
0.0
 40
0.0002552107946382
 50
101.7878543045065953
 51
194.0267047259069955
  0
ARC
  5
114C4
  8
0
 10
8607.2571337786157528
 20
2286.1481447257510808
 30
0.0
 40
0.001583632101849
 50
194.7699712139144879
 51
221.2162002859037102
  0
ARC
  5
114C5
  8
0
 10
8607.2561940827345097
 20
2286.1460792471370951
 30
0.0
 40
0.0020128020951252
 50
76.6993462374726249
 51
101.3506061221689976
  0
ARC
  5
114C6
  8
0
 10
8607.2548213375830528
 20
2286.1381624033851949
 30
0.0
 40
0.0100448378081026
 50
72.3741168501568524
 51
79.4693348104911053
  0
ARC
  5
114C7
  8
0
 10
8607.2730865914418246
 20
2286.1605897847121014
 30
0.0
 40
0.0218141952494105
 50
218.1947733024368006
 51
222.6879532422101988
  0
ARC
  5
114C8
  8
0
 10
8607.2325967484703142
 20
2286.1146057049882074
 30
0.0
 40
0.0343813220881514
 50
357.8502813056643959
 51
76.830859840205207
  0
ARC
  5
114C9
  8
0
 10
8607.2403645995418628
 20
2286.1458311695901102
 30
0.0
 40
0.0022526305457526
 50
88.3433395160611639
 51
118.2889535870597939
  0
ARC
  5
114CA
  8
0
 10
8607.2400219537939847
 20
2286.1471192938829518
 30
0.0
 40
0.0010045826137641
 50
136.1876147915149033
 51
193.424690942041309
  0
ARC
  5
114CB
  8
0
 10
8607.2563684501274111
 20
2286.152644844050883
 30
0.0
 40
0.0182557308324563
 50
198.3880212373638869
 51
216.6347508929331127
  0
ARC
  5
114CC
  8
0
 10
8607.1930699420972815
 20
2286.1079577227988011
 30
0.0
 40
0.0592346965296002
 50
2.25679597387342
 51
34.7854752384212134
  0
LINE
  5
114CD
  8
0
 10
8607.2263468023684254
 20
2285.9046546130912247
 30
0.0
 11
8607.2263468029686919
 21
2286.0345758744911109
 31
0.0
  0
ARC
  5
114CE
  8
0
 10
8607.3768181624454883
 20
2286.0345973934358881
 30
0.0
 40
0.1504713615143769
 50
170.2607013285202129
 51
180.0081942258696017
  0
ARC
  5
114CF
  8
0
 10
8607.0663883439974597
 20
2286.0551824778949594
 30
0.0
 40
0.16220021001315
 50
1.7203544728435149
 51
20.2810531808979206
  0
ARC
  5
114D0
  8
0
 10
8607.2431555981238489
 20
2286.1230302729609321
 30
0.0
 40
0.0272291758974737
 50
166.230997808292102
 51
205.2731576733611121
  0
ARC
  5
114D1
  8
0
 10
8607.225325053826964
 20
2286.1258848476409185
 30
0.0
 40
0.009348118026973
 50
77.007118817550662
 51
157.175755115543808
  0
ARC
  5
114D2
  8
0
 10
8607.2184292476431438
 20
2286.1075711236908319
 30
0.0
 40
0.0288608718933639
 50
356.0470169898558197
 51
71.8349265324156789
  0
ARC
  5
114D3
  8
0
 10
8607.2572116540850402
 20
2286.11482608053484
 30
0.0
 40
0.0364694976938299
 50
53.0928507878009981
 51
59.3947604246287497
  0
LINE
  5
114D4
  8
0
 10
8607.2916491944743029
 20
2286.1133160317908732
 30
0.0
 11
8607.2916491944743029
 21
2285.8259144431408458
 31
0.0
  0
LINE
  5
114D5
  8
0
 10
8607.2903310512156168
 20
2286.1133160317908732
 30
0.0
 11
8607.2903310512156168
 21
2285.8259144431408458
 31
0.0
  0
LINE
  5
114D6
  8
0
 10
8607.284120820413591
 20
2286.1133160317908732
 30
0.0
 11
8607.284120820413591
 21
2285.8259144431408458
 31
0.0
  0
LINE
  5
114D7
  8
0
 10
8607.2813711413127749
 20
2286.1133160317908732
 30
0.0
 11
8607.2813711413127749
 21
2285.8259144431408458
 31
0.0
  0
LINE
  5
114D8
  8
0
 10
8607.2707923305970326
 20
2286.1133160317908732
 30
0.0
 11
8607.2707923305970326
 21
2285.8259144431408458
 31
0.0
  0
LINE
  5
114D9
  8
0
 10
8607.2669538736645336
 20
2286.1133160317908732
 30
0.0
 11
8607.2669538736645336
 21
2285.8259144431408458
 31
0.0
  0
LINE
  5
114DA
  8
0
 10
8607.2937956029491033
 20
2286.1133160317908732
 30
0.0
 11
8607.2937956029491033
 21
2285.8259144431408458
 31
0.0
  0
LINE
  5
114DB
  8
0
 10
8607.252258694570628
 20
2286.1102902865909527
 30
0.0
 11
8607.252258694570628
 21
2285.8259144431408458
 31
0.0
  0
LINE
  5
114DC
  8
0
 10
8607.247221458268541
 20
2286.1055815172908297
 30
0.0
 11
8607.247221458268541
 21
2285.8259144431408458
 31
0.0
  0
ARC
  5
114DD
  8
0
 10
8607.254951137198077
 20
2285.8253888737181114
 30
0.0
 40
0.0388480210921781
 50
269.2295893294073039
 51
0.7751702046730963
  0
ARC
  5
114DE
  8
0
 10
8607.2515255426478689
 20
2285.8255436150197966
 30
0.0
 40
0.0401253654141583
 50
300.9964235796484218
 51
0.5295201308380721
  0
LINE
  5
114DF
  8
0
 10
8607.2721894866681396
 20
2285.7911481739411101
 30
0.0
 11
8607.2757790093673975
 21
2285.7930152628409814
 31
0.0
  0
ARC
  5
114E0
  8
0
 10
8607.2536548658117681
 20
2285.825149610122935
 30
0.0
 40
0.0366841593239188
 50
298.8396362488795717
 51
1.1946540458454851
  0
ARC
  5
114E1
  8
0
 10
8607.2423216965071333
 20
2285.8257088609971106
 30
0.0
 40
0.0417996294644126
 50
309.4727275810006972
 51
0.2817976334170293
  0
ARC
  5
114E2
  8
0
 10
8607.300345737952739
 20
2285.7567007758721047
 30
0.0
 40
0.0483648790829864
 50
130.5640406837979981
 51
133.6638747258809019
  0
ARC
  5
114E3
  8
0
 10
8607.2667426254374732
 20
2285.7912436106807945
 30
0.0
 40
0.0000988039480066
 50
165.9856013855342951
 51
270.5316786779467861
  0
ARC
  5
114E4
  8
0
 10
8607.2673238269744616
 20
2285.791023200528798
 30
0.0
 40
0.0007198034788613
 50
139.8046944462446959
 51
160.1566489779243909
  0
ARC
  5
114E5
  8
0
 10
8607.2690738702531235
 20
2285.7896089586379276
 30
0.0
 40
0.0029697245424578
 50
135.5651697929149009
 51
140.7540113176387138
  0
ARC
  5
114E6
  8
0
 10
8607.2668480692536832
 20
2285.7920658261978133
 30
0.0
 40
0.0009269276705566
 50
263.5251468786373721
 51
282.7998271626541964
  0
ARC
  5
114E7
  8
0
 10
8607.2613578514465189
 20
2285.810272028179952
 30
0.0
 40
0.019940795423358
 50
286.5961684223864268
 51
300.0716219244769718
  0
ARC
  5
114E8
  8
0
 10
8607.2252345468587009
 20
2285.8260372998670391
 30
0.0
 40
0.0455579493959025
 50
314.2982354382771177
 51
359.8454895241443978
  0
ARC
  5
114E9
  8
0
 10
8607.2459374873942579
 20
2285.8248774771859644
 30
0.0
 40
0.0354488240773548
 50
289.6584614059319733
 51
1.6762826691063899
  0
ARC
  5
114EA
  8
0
 10
8607.2558500753893895
 20
2285.791427622259107
 30
0.0
 40
0.0002552107946382
 50
165.9732952740928908
 51
258.2121456954935184
  0
ARC
  5
114EB
  8
0
 10
8607.2571337786157528
 20
2285.791085749181093
 30
0.0
 40
0.001583632101849
 50
138.7837997140962898
 51
165.2300287860853985
  0
ARC
  5
114EC
  8
0
 10
8607.2561940827345097
 20
2285.7931512277950787
 30
0.0
 40
0.0020128020951252
 50
258.6493938778310167
 51
283.3006537625274177
  0
ARC
  5
114ED
  8
0
 10
8607.2548213375830528
 20
2285.8010680715469789
 30
0.0
 40
0.0100448378081026
 50
280.530665189508909
 51
287.6258831498432187
  0
ARC
  5
114EE
  8
0
 10
8607.2730865914418246
 20
2285.7786406902200724
 30
0.0
 40
0.0218141952494105
 50
137.3120467577898012
 51
141.8052266975631994
  0
ARC
  5
114EF
  8
0
 10
8607.2325967484703142
 20
2285.8246247699430569
 30
0.0
 40
0.0343813220881514
 50
283.1691401597947788
 51
2.1497186943355651
  0
ARC
  5
114F0
  8
0
 10
8607.2403645995418628
 20
2285.7933993053420636
 30
0.0
 40
0.0022526305457526
 50
241.7110464129401919
 51
271.6566604839388219
  0
ARC
  5
114F1
  8
0
 10
8607.2400219537939847
 20
2285.7921111810492221
 30
0.0
 40
0.0010045826137641
 50
166.575309057958691
 51
223.8123852084850967
  0
ARC
  5
114F2
  8
0
 10
8607.2563684501274111
 20
2285.7865856308808361
 30
0.0
 40
0.0182557308324563
 50
143.3652491070668873
 51
161.6119787626359994
  0
ARC
  5
114F3
  8
0
 10
8607.1906381176886498
 20
2285.8325832983950932
 30
0.0
 40
0.061980393072859
 50
325.5020433128726154
 51
353.8232340611314157
  0
ARC
  5
114F4
  8
0
 10
8607.3768181624454883
 20
2285.904633081495831
 30
0.0
 40
0.1504713615143769
 50
179.991805774130313
 51
189.7392986714797871
  0
ARC
  5
114F5
  8
0
 10
8607.0663883439974597
 20
2285.8840479970358501
 30
0.0
 40
0.16220021001315
 50
339.7189468191020865
 51
358.2796455271565037
  0
ARC
  5
114F6
  8
0
 10
8607.2431555981238489
 20
2285.816200201970787
 30
0.0
 40
0.0272291758974737
 50
154.7268423266388879
 51
193.769002191707898
  0
ARC
  5
114F7
  8
0
 10
8607.225325053826964
 20
2285.8133456272898911
 30
0.0
 40
0.009348118026973
 50
202.824244884456192
 51
282.9928811824494232
  0
ARC
  5
114F8
  8
0
 10
8607.217508210302185
 20
2285.8331703275512155
 30
0.0
 40
0.0305863525643169
 50
288.9220357177068195
 51
346.2771135126718036
  0
ARC
  5
114F9
  8
0
 10
8607.2572116540850402
 20
2285.8244043943959696
 30
0.0
 40
0.0364694976938299
 50
300.6052395753711721
 51
306.9071492121989877
  0
LINE
  5
114FA
  8
0
 10
8607.1323817292195599
 20
2285.9833947719907883
 30
0.0
 11
8607.1363187370225205
 21
2285.9833947719907883
 31
0.0
  0
LINE
  5
114FB
  8
0
 10
8607.1284447212692612
 20
2285.9912687876908421
 30
0.0
 11
8607.1323817292231979
 21
2285.9912687876908421
 31
0.0
  0
LINE
  5
114FC
  8
0
 10
8607.1284447212692612
 20
2285.9518987089909388
 30
0.0
 11
8607.1284447212692612
 21
2286.1290634757910993
 31
0.0
  0
LINE
  5
114FD
  8
0
 10
8607.1284447212692612
 20
2286.1290634757910993
 30
0.0
 11
8607.1126966897718376
 21
2286.1448120947911775
 31
0.0
  0
LINE
  5
114FE
  8
0
 10
8607.1126966897718376
 20
2286.1448120947911775
 30
0.0
 11
8606.8371063919694279
 21
2286.1448120947911775
 31
0.0
  0
LINE
  5
114FF
  8
0
 10
8606.8371063919694279
 20
2286.1448120947911775
 30
0.0
 11
8606.8213581071686349
 21
2286.1290634757910993
 31
0.0
  0
LINE
  5
11500
  8
0
 10
8606.8174210992692679
 20
2286.1487491026909993
 30
0.0
 11
8606.9256888813251862
 21
2286.1487491026909993
 31
0.0
  0
LINE
  5
11501
  8
0
 10
8606.8607281858694478
 20
2286.1487491026909993
 30
0.0
 11
8606.8607281858694478
 21
2286.1526861104907766
 31
0.0
  0
LINE
  5
11502
  8
0
 10
8606.8567911779718997
 20
2286.1487491026909993
 30
0.0
 11
8606.8567911779718997
 21
2286.1526861104907766
 31
0.0
  0
LINE
  5
11503
  8
0
 10
8607.1284447212692612
 20
2286.1290634757910993
 30
0.0
 11
8606.8213581071686349
 21
2286.1290634757910993
 31
0.0
  0
LINE
  5
11504
  8
0
 10
8607.1284447212692612
 20
2285.9558357167911709
 30
0.0
 11
8606.8213581071686349
 21
2285.9558357167911709
 31
0.0
  0
LINE
  5
11505
  8
0
 10
8606.8174210992692679
 20
2286.0385118304911884
 30
0.0
 11
8606.8444135892659688
 21
2286.0385118304911884
 31
0.0
  0
LINE
  5
11506
  8
0
 10
8606.8174210992692679
 20
2286.0070178708911044
 30
0.0
 11
8606.8444135892659688
 21
2286.0070178708911044
 31
0.0
  0
ARC
  5
11507
  8
0
 10
8606.8338790352336218
 20
2286.0227648506911464
 30
0.0
 40
0.0189458227974881
 50
303.782081583112074
 51
56.2179184168878692
  0
ARC
  5
11508
  8
0
 10
8602.8323180744337151
 20
2312.8285036928441514
 30
0.0
 40
26.9446791846180105
 50
271.7769035070945733
 51
275.236764276220697
  0
ARC
  5
11509
  8
0
 10
8605.2819880273418676
 20
2286.0744416611901215
 30
0.0
 40
0.0787401595281297
 50
277.0127806986520227
 51
359.9999967264106999
  0
LINE
  5
1150A
  8
0
 10
8605.3607281868717109
 20
2286.0744416566908512
 30
0.0
 11
8605.3607281858676288
 21
2286.1099282661989491
 31
0.0
  0
ARC
  5
1150B
  8
0
 10
8604.5295479652832
 20
2284.8764629673219133
 30
0.0
 40
1.391520345732405
 50
132.8413082468800894
 51
141.0563394049331123
  0
LINE
  5
1150C
  8
0
 10
8600.4234637364606897
 20
2285.8967810958611153
 30
0.0
 11
8600.4272856842944748
 21
2285.8238539870681052
 31
0.0
  0
LINE
  5
1150D
  8
0
 10
8600.7666116322452581
 20
2285.8238539870699242
 30
0.0
 11
8600.7704335800826811
 21
2285.8967810958611153
 31
0.0
  0
ARC
  5
1150E
  8
0
 10
8600.4666018076695764
 20
2285.825914457791896
 30
0.0
 40
0.0393700787011526
 50
183.000000010964186
 51
269.9990689812038909
  0
ARC
  5
1150F
  8
0
 10
8600.7272955088701565
 20
2285.8259144577909865
 30
0.0
 40
0.0393700787000249
 50
270.000930917181222
 51
356.9999999864803044
  0
LINE
  5
11510
  8
0
 10
8600.4666011701701791
 20
2285.7865443790910831
 30
0.0
 11
8600.7272961485396081
 21
2285.7865443790960853
 31
0.0
  0
ARC
  5
11511
  8
0
 10
8586.2349901759807835
 20
1890.1813955243230794
 30
0.0
 40
395.7664656176353901
 50
88.1932697578651954
 51
88.7930606691630544
  0
LINE
  5
11512
  8
0
 10
8594.1408230445977097
 20
2285.8967810958611153
 30
0.0
 11
8594.144644992395115
 21
2285.8238539878648226
 31
0.0
  0
LINE
  5
11513
  8
0
 10
8594.5689373652694485
 20
2285.823854022291016
 30
0.0
 11
8594.5735356399927696
 21
2285.8967810958611153
 31
0.0
  0
LINE
  5
11514
  8
0
 10
8594.1839604752749437
 20
2285.7865443798959859
 30
0.0
 11
8594.5296218595685787
 21
2285.7865443797909393
 31
0.0
  0
ARC
  5
11515
  8
0
 10
8594.5307409431006818
 20
2285.8247345573299754
 30
0.0
 40
0.0382065702253976
 50
268.3215469317669886
 51
358.6794049198987864
  0
ARC
  5
11516
  8
0
 10
8594.1839620128012029
 20
2285.8259154038501038
 30
0.0
 40
0.0393710239844007
 50
183.0013054225807139
 51
269.9977624719865048
  0
ARC
  5
11517
  8
0
 10
8590.6313289087629528
 20
2068.7670268660958754
 30
0.0
 40
217.1288425502523012
 50
89.0734719990856405
 51
89.7992690962722691
  0
LINE
  5
11518
  8
0
 10
8606.8213581071686349
 20
2286.1290634757910993
 30
0.0
 11
8606.8213581071686349
 21
2286.0385118304911884
 31
0.0
  0
LINE
  5
11519
  8
0
 10
8606.8213581071686349
 20
2286.0070178708911044
 30
0.0
 11
8606.8213581071686349
 21
2285.9558357167911709
 31
0.0
  0
LINE
  5
1151A
  8
0
 10
8608.2673814074205438
 20
2300.948432933046206
 30
0.0
 11
8614.2157166883534956
 21
2300.948432933046206
 31
0.0
  0
LINE
  5
1151B
  8
0
 10
8610.5945146086196473
 20
2301.4458037550411973
 30
0.0
 11
8610.5945146086196473
 21
2301.3892866024812065
 31
0.0
  0
LINE
  5
1151C
  8
0
 10
8612.4842424258204119
 20
2301.4470554521631129
 30
0.0
 11
8612.4842424258204119
 21
2301.3990329427128927
 31
0.0
  0
ARC
  5
1151D
  8
0
 10
8610.6338462740168325
 20
2301.4447878073851825
 30
0.0
 40
0.0393447843106824
 50
89.9702457795879553
 51
178.5203633866636892
  0
ARC
  5
1151E
  8
0
 10
8612.4449432216333662
 20
2301.444766834595157
 30
0.0
 40
0.0393657874306989
 50
3.332896815968557
 51
90.0769848766400543
  0
LINE
  5
1151F
  8
0
 10
8610.633866706120898
 20
2301.4841325864908868
 30
0.0
 11
8612.4448903282172978
 21
2301.4841325864908868
 31
0.0
  0
LINE
  5
11520
  8
0
 10
8614.2914515634693089
 20
2299.710179425089791
 30
0.0
 11
8614.2157166883534956
 21
2300.948432933046206
 31
0.0
  0
ARC
  5
11521
  8
0
 10
8614.2325059515223984
 20
2299.706573752524946
 30
0.0
 40
0.0590557875443433
 50
333.3461986520832738
 51
3.5003917061940251
  0
ARC
  5
11522
  8
0
 10
8613.8863035619888251
 20
2300.974242601871083
 30
0.0
 40
0.3304226790469446
 50
355.5200018234656909
 51
82.4168901635490414
  0
ARC
  5
11523
  8
0
 10
8611.2880078236466943
 20
2272.8247700728829841
 30
0.0
 40
28.5992915257987406
 50
84.6996653268017781
 51
89.4963978297451064
  0
LINE
  5
11524
  8
0
 10
8608.6211453992673341
 20
2286.0968747934912244
 30
0.0
 11
8608.8782415829682577
 21
2286.0969204381908639
 31
0.0
  0
LINE
  5
11525
  8
0
 10
8608.8782415829682577
 20
2286.0969204381908639
 30
0.0
 11
8610.631565546776983
 21
2286.1945244223579721
 31
0.0
  0
ARC
  5
11526
  8
0
 10
8608.9270041545951244
 20
2287.8298014324168435
 30
0.0
 40
2.0804805942859228
 50
272.3772263693055038
 51
283.3651667882356833
  0
LINE
  5
11527
  8
0
 10
8609.4079206786445866
 20
2285.80566734592594
 30
0.0
 11
8610.631565546776983
 21
2286.1945244223579721
 31
0.0
  0
ARC
  5
11528
  8
0
 10
8585.5495412508080335
 20
2961.1121836708780393
 30
0.0
 40
673.9624213677873286
 50
270.2752911610631941
 51
271.7944249139678163
  0
ARC
  5
1152A
  8
0
 10
8607.2216827885822568
 20
2286.0696087455371526
 30
0.0
 40
0.0939698983275405
 50
49.7316362277630404
 51
52.3274328186554598
  0
ARC
  5
1152B
  8
0
 10
8607.2215098505257629
 20
2285.8698355153410375
 30
0.0
 40
0.0942448043520039
 50
307.6763537120468186
 51
310.2645772416707928
  0
LINE
  5
1152C
  8
0
 10
8606.3226153453524603
 20
2287.8816379651070747
 30
0.0
 11
8606.3418832897859829
 21
2287.8816379651070747
 31
0.0
  0
LINE
  5
1152D
  8
0
 10
8588.7877410828332359
 20
2287.1575416675909764
 30
0.0
 11
8588.6711470286445547
 21
2287.1575416675909764
 31
0.0
  0
ENDSEC
  0
EOF
