  0
SECTION
  2
HEADER
  9
$ACADVER
  1
AC1009
  9
$INSBASE
 10
8614.9050433399115718
 20
2270.0033555001309651
 30
0.0
  9
$EXTMIN
 10
8606.4578085624307278
 20
2243.7167364665010609
 30
-0.0000000000112498
  9
$EXTMAX
 10
8622.9054383162856539
 20
2270.0428992892129827
 30
0.0000000000002956
  9
$LIMMIN
 10
0.0
 20
0.0
  9
$LIMMAX
 10
11.6929133858000007
 20
8.2677165353999982
  9
$ORTHOMODE
 70
     0
  9
$REGENMODE
 70
     1
  9
$FILLMODE
 70
     1
  9
$QTEXTMODE
 70
     0
  9
$MIRRTEXT
 70
     0
  9
$DRAGMODE
 70
     2
  9
$LTSCALE
 40
0.6431102362
  9
$OSMODE
 70
  4063
  9
$ATTMODE
 70
     1
  9
$TEXTSIZE
 40
0.2
  9
$TRACEWID
 40
0.05
  9
$TEXTSTYLE
  7
STANDARD
  9
$CLAYER
  8
0
  9
$CELTYPE
  6
BYLAYER
  9
$CECOLOR
 62
     1
  9
$DIMSCALE
 40
1.0
  9
$DIMASZ
 40
0.1875
  9
$DIMEXO
 40
0.0625
  9
$DIMDLI
 40
0.4443307087
  9
$DIMRND
 40
0.0
  9
$DIMDLE
 40
0.0
  9
$DIMEXE
 40
0.125
  9
$DIMTP
 40
0.01
  9
$DIMTM
 40
0.01
  9
$DIMTXT
 40
2.0
  9
$DIMCEN
 40
0.1052362205
  9
$DIMTSZ
 40
0.0
  9
$DIMTOL
 70
     1
  9
$DIMLIM
 70
     0
  9
$DIMTIH
 70
     1
  9
$DIMTOH
 70
     1
  9
$DIMSE1
 70
     0
  9
$DIMSE2
 70
     0
  9
$DIMTAD
 70
     0
  9
$DIMZIN
 70
     0
  9
$DIMBLK
  1

  9
$DIMASO
 70
     1
  9
$DIMSHO
 70
     1
  9
$DIMPOST
  1
\X
  9
$DIMAPOST
  1

  9
$DIMALT
 70
     1
  9
$DIMALTD
 70
     2
  9
$DIMALTF
 40
25.3999999999999986
  9
$DIMLFAC
 40
1.0
  9
$DIMTOFL
 70
     0
  9
$DIMTVP
 40
0.0
  9
$DIMTIX
 70
     0
  9
$DIMSOXD
 70
     0
  9
$DIMSAH
 70
     0
  9
$DIMBLK1
  1

  9
$DIMBLK2
  1

  9
$DIMSTYLE
  2
STANDARD
  9
$DIMCLRD
 70
     0
  9
$DIMCLRE
 70
     0
  9
$DIMCLRT
 70
     0
  9
$DIMTFAC
 40
1.0
  9
$DIMGAP
 40
0.09
  9
$LUNITS
 70
     2
  9
$LUPREC
 70
     4
  9
$SKETCHINC
 40
0.1
  9
$FILLETRAD
 40
0.0
  9
$AUNITS
 70
     0
  9
$AUPREC
 70
     0
  9
$MENU
  1
.
  9
$ELEVATION
 40
0.0
  9
$PELEVATION
 40
0.0
  9
$THICKNESS
 40
0.0
  9
$LIMCHECK
 70
     0
  9
$BLIPMODE
 70
     0
  9
$CHAMFERA
 40
0.0
  9
$CHAMFERB
 40
0.0
  9
$SKPOLY
 70
     0
  9
$TDCREATE
 40
2458060.468368056230247
  9
$TDUPDATE
 40
2459432.9343402781523764
  9
$TDINDWG
 40
0.4520556713
  9
$TDUSRTIMER
 40
0.4520556713
  9
$USRTIMER
 70
     1
  9
$ANGBASE
 50
0.0
  9
$ANGDIR
 70
     0
  9
$PDMODE
 70
     0
  9
$PDSIZE
 40
0.3125
  9
$PLINEWID
 40
0.0
  9
$COORDS
 70
     1
  9
$SPLFRAME
 70
     0
  9
$SPLINETYPE
 70
     6
  9
$SPLINESEGS
 70
     8
  9
$ATTDIA
 70
     1
  9
$ATTREQ
 70
     1
  9
$HANDLING
 70
     1
  9
$HANDSEED
  5
11635
  9
$SURFTAB1
 70
     6
  9
$SURFTAB2
 70
     6
  9
$SURFTYPE
 70
     6
  9
$SURFU
 70
     6
  9
$SURFV
 70
     6
  9
$UCSNAME
  2

  9
$UCSORG
 10
0.0
 20
0.0
 30
0.0
  9
$UCSXDIR
 10
1.0
 20
0.0
 30
0.0
  9
$UCSYDIR
 10
0.0
 20
1.0
 30
0.0
  9
$PUCSNAME
  2

  9
$PUCSORG
 10
0.0
 20
0.0
 30
0.0
  9
$PUCSXDIR
 10
1.0
 20
0.0
 30
0.0
  9
$PUCSYDIR
 10
0.0
 20
1.0
 30
0.0
  9
$USERI1
 70
     0
  9
$USERI2
 70
     0
  9
$USERI3
 70
     0
  9
$USERI4
 70
     0
  9
$USERI5
 70
     0
  9
$USERR1
 40
0.0
  9
$USERR2
 40
0.0
  9
$USERR3
 40
0.0
  9
$USERR4
 40
0.0
  9
$USERR5
 40
0.0
  9
$WORLDVIEW
 70
     1
  9
$SHADEDGE
 70
     3
  9
$SHADEDIF
 70
    70
  9
$TILEMODE
 70
     1
  9
$MAXACTVP
 70
    64
  9
$PLIMCHECK
 70
     0
  9
$PEXTMIN
 10
1.0000000000000000E+20
 20
1.0000000000000000E+20
 30
1.0000000000000000E+20
  9
$PEXTMAX
 10
-1.0000000000000000E+20
 20
-1.0000000000000000E+20
 30
-1.0000000000000000E+20
  9
$PLIMMIN
 10
0.0
 20
0.0
  9
$PLIMMAX
 10
12.0
 20
9.0
  9
$UNITMODE
 70
     0
  9
$VISRETAIN
 70
     1
  9
$PLINEGEN
 70
     0
  9
$PSLTSCALE
 70
     1
  0
ENDSEC
  0
SECTION
  2
TABLES
  0
TABLE
  2
VPORT
 70
     1
  0
VPORT
  2
*ACTIVE
 70
     0
 10
0.0
 20
0.0
 11
1.0
 21
1.0
 12
3799.3832835956081908
 22
2009.0711936102788968
 13
0.0
 23
0.0
 14
1.0
 24
1.0
 15
0.0
 25
0.0
 16
0.0
 26
0.0
 36
9.5192988075487186
 17
4815.2983398437490905
 27
247.8086242675780966
 37
0.0
 40
26.5261083631376096
 41
2.0798479087452471
 42
50.0
 43
0.0
 44
0.0
 50
0.0
 51
0.0
 71
     0
 72
   100
 73
     1
 74
     1
 75
     0
 76
     0
 77
     0
 78
     0
  0
ENDTAB
  0
TABLE
  2
LTYPE
 70
     2
  0
LTYPE
  2
CONTINUOUS
 70
     0
  3
Solid line
 72
    65
 73
     0
 40
0.0
  0
LTYPE
  2
PHANTOM2
 70
     0
  3
___ _ _ ___ _ _ ___ _ _ ___ _ _
 72
    65
 73
     6
 40
1.25
 49
0.625
 49
-0.125
 49
0.125
 49
-0.125
 49
0.125
 49
-0.125
  0
ENDTAB
  0
TABLE
  2
LAYER
 70
     2
  0
LAYER
  2
0
 70
     0
 62
   255
  6
CONTINUOUS
  0
LAYER
  2
DEFPOINTS
 70
     0
 62
     7
  6
CONTINUOUS
  0
ENDTAB
  0
TABLE
  2
STYLE
 70
     1
  0
STYLE
  2
STANDARD
 70
     0
 40
0.0
 41
0.8
 50
0.0
 71
     0
 42
0.2
  3
txt
  4

  0
ENDTAB
  0
TABLE
  2
VIEW
 70
     0
  0
ENDTAB
  0
TABLE
  2
UCS
 70
     0
  0
ENDTAB
  0
TABLE
  2
APPID
 70
    10
  0
APPID
  2
ACAD
 70
     0
  0
APPID
  2
ACAD_MLEADERVER
 70
     0
  0
APPID
  2
ACAD_EXEMPT_FROM_CAD_STANDARDS
 70
     0
  0
APPID
  2
ACAD_NAV_VCDISPLAY
 70
     0
  0
APPID
  2
ACAECLAYERSTANDARD
 70
     0
  0
APPID
  2
ACCMTRANSPARENCY
 70
     0
  0
APPID
  2
ACAD_DSTYLE_DIMJAG
 70
     0
  0
APPID
  2
ACAD_DSTYLE_DIMTALN
 70
     0
  0
APPID
  2
ACDBATTR
 70
     0
  0
APPID
  2
ACADANNOTATIVE
 70
     0
  0
ENDTAB
  0
TABLE
  2
DIMSTYLE
 70
     1
  0
DIMSTYLE
  2
STANDARD
 70
     0
  3

  4

  5

  6

  7

 40
1.0
 41
0.1875
 42
0.0625
 43
0.38
 44
0.125
 45
0.0
 46
0.0
 47
0.01
 48
0.01
140
0.15625
141
0.09
142
0.0
143
25.3999999999999986
144
1.0
145
0.0
146
1.0
147
0.09
 71
     1
 72
     0
 73
     1
 74
     1
 75
     0
 76
     0
 77
     0
 78
     4
170
     0
171
     2
172
     0
173
     0
174
     0
175
     0
176
     0
177
     0
178
     0
  0
ENDTAB
  0
ENDSEC
  0
SECTION
  2
BLOCKS
  0
BLOCK
  8
0
  2
$MODEL_SPACE
 70
     0
 10
0.0
 20
0.0
 30
0.0
  3
$MODEL_SPACE
  1

  0
ENDBLK
  5
21
  8
0
  0
BLOCK
 67
     1
  8
0
  2
$PAPER_SPACE
 70
     0
 10
0.0
 20
0.0
 30
0.0
  3
$PAPER_SPACE
  1

  0
ENDBLK
  5
1D
 67
     1
  8
0
  0
BLOCK
  8
0
  2
_FILLED
 70
     0
 10
0.0
 20
0.0
 30
0.0
  3
_FILLED
  1

  0
SOLID
  5
11395
  8
0
  6
BYBLOCK
 62
     0
 10
0.0
 20
0.0
 30
0.0
 11
-1.0
 21
0.1666666667
 31
0.0
 12
-1.0
 22
-0.1666666667
 32
0.0
 13
-1.0
 23
-0.1666666667
 33
0.0
  0
ENDBLK
  5
11396
  8
0
  6
BYBLOCK
 62
     0
  0
ENDSEC
  0
SECTION
  2
ENTITIES
  0
ATTDEF
  5
3930
  8
DEFPOINTS
 10
8614.9058693279548606
 20
2270.0072500844448768
 30
0.0
 40
0.001
  1
K-76186K
  3

  2
MODELNUMBER
 70
     0
1001
ACDBATTR
1070
     0
1070
     1
  0
ATTDEF
  5
3931
  8
DEFPOINTS
 10
8614.9058693279548606
 20
2270.0055834177787801
 30
0.0
 40
0.001
  1
ODEON UP
  3

  2
TRADENAME
 70
     0
1001
ACDBATTR
1070
     0
1070
     1
  0
ATTDEF
  5
3932
  8
DEFPOINTS
 10
8614.9058693279548606
 20
2270.0039167511117739
 30
0.0
 40
0.001
  1
TOILET
  3

  2
PRODUCT
 70
     0
1001
ACDBATTR
1070
     0
1070
     1
  0
CIRCLE
  5
1145A
  8
0
 10
8614.9050433399115718
 20
2266.7064723096309535
 30
0.0
 40
0.9448639086000012
  0
ARC
  5
1145B
  8
0
 10
8614.9050433399115718
 20
2266.7064723096309535
 30
0.0
 40
0.6677621342000016
 50
97.685985803084904
 51
262.3284289301466856
  0
ARC
  5
1145C
  8
0
 10
8614.9050433399115718
 20
2266.7064723096309535
 30
0.0
 40
0.6677621342000016
 50
267.6407176565573991
 51
92.3613811562293563
  0
CIRCLE
  5
1145D
  8
0
 10
8614.9050433399115718
 20
2266.7064723096309535
 30
0.0
 40
0.6888738875544789
  0
ARC
  5
1145E
  8
0
 10
8614.818422598995312
 20
2266.0642232201298611
 30
0.0
 40
0.0196983681901219
 50
262.6447434557836118
 51
9.5961967591085298
  0
ARC
  5
1145F
  8
0
 10
8614.8183547251665004
 20
2267.348725218508207
 30
0.0
 40
0.019685202329845
 50
350.2906392156505149
 51
97.649722247034731
  0
ARC
  5
11460
  8
0
 10
8618.6174764893075917
 20
2266.7067145826090382
 30
0.0
 40
3.8333011922223479
 50
170.4088545995851973
 51
189.5989804577343989
  0
ARC
  5
11461
  8
0
 10
8614.8784279932242498
 20
2266.0589380794281169
 30
0.0
 40
0.0196812597897007
 50
189.7766413477988863
 51
267.4562782098511775
  0
ARC
  5
11462
  8
0
 10
8618.6154734399860899
 20
2266.7066693568622213
 30
0.0
 40
3.8124460042100479
 50
170.1731803698556007
 51
189.8329255800697979
  0
ARC
  5
11463
  8
0
 10
8614.8783926434061868
 20
2267.3539655749418671
 30
0.0
 40
0.0197206977954394
 50
92.506904225145135
 51
170.1406846787940026
  0
ARC
  5
11464
  8
0
 10
8614.7370122125430498
 20
2267.3333888688489424
 30
0.0
 40
0.0333123577326614
 50
51.0619511032100419
 51
158.9464635293479944
  0
ARC
  5
11465
  8
0
 10
8614.4460752924387634
 20
2267.1653783698811822
 30
0.0
 40
0.0333218583764262
 50
81.0695991702105232
 51
188.9381395950329932
  0
ARC
  5
11466
  8
0
 10
8614.2781190310270176
 20
2266.874417551633087
 30
0.0
 40
0.0333271255134305
 50
111.0732424054782967
 51
218.9333439802711041
  0
ARC
  5
11467
  8
0
 10
8614.2781363572721602
 20
2266.5384622659807974
 30
0.0
 40
0.0333270941616934
 50
141.0725421860853999
 51
248.9384258465024971
  0
ARC
  5
11468
  8
0
 10
8614.4461226346666081
 20
2266.2475187087129598
 30
0.0
 40
0.033321716399178
 50
171.0676713321003888
 51
278.936435511444472
  0
ARC
  5
11469
  8
0
 10
8614.7370770779980376
 20
2266.0795383018071334
 30
0.0
 40
0.0333122456385241
 50
201.0594780812170939
 51
308.9439666536940194
  0
ARC
  5
1146A
  8
0
 10
8614.9615076000718545
 20
2267.3525988345131736
 30
0.0
 40
0.033767859724552
 50
31.4375164030358611
 51
138.5738335094854108
  0
ARC
  5
1146B
  8
0
 10
8615.3132073463839333
 20
2267.2105853737120924
 30
0.0
 40
0.0337219393700044
 50
357.3975906403279055
 51
104.6104690882642956
  0
ARC
  5
1146C
  8
0
 10
8614.961591466817481
 20
2266.0603228589238824
 30
0.0
 40
0.0337377202109891
 50
221.4088696891323025
 51
328.5941882762060118
  0
ARC
  5
1146D
  8
0
 10
8615.3132588712996949
 20
2266.2024023219141782
 30
0.0
 40
0.0337225575203611
 50
255.3969099855673051
 51
2.6068936021443201
  0
ARC
  5
1146E
  8
0
 10
8615.5253522246821376
 20
2266.516855965436207
 30
0.0
 40
0.0337140746221307
 50
289.3907436831419773
 51
36.6145128241048212
  0
ARC
  5
1146F
  8
0
 10
8615.525332555273053
 20
2266.8961528769941651
 30
0.0
 40
0.0337141071397318
 50
323.3914466874916798
 51
70.6151628923071257
  0
CIRCLE
  5
11470
  8
0
 10
8614.9050433399115718
 20
2266.7064723096309535
 30
0.0
 40
0.6823568629783492
  0
CIRCLE
  5
11471
  8
0
 10
8614.9050433399115718
 20
2266.7064723096309535
 30
0.0
 40
0.66919432135603
  0
CIRCLE
  5
11472
  8
0
 10
8614.9050433399115718
 20
2266.7064723096309535
 30
0.0
 40
0.9055118110000002
  0
LINE
  5
11473
  8
0
 10
8614.8262934674603457
 20
2267.2733973202612106
 30
0.0
 11
8614.845385532355067
 21
2267.2733983077359881
 31
0.0
  0
LINE
  5
11474
  8
0
 10
8614.8251248561082321
 20
2267.2655232443848945
 30
0.0
 11
8614.8442102876651916
 21
2267.2655242315508985
 31
0.0
  0
ARC
  5
11475
  8
0
 10
8614.778024217373968
 20
2267.103248730651103
 30
0.0
 40
0.0357682829424192
 50
312.2636185646803142
 51
35.9433107316393006
  0
LINE
  5
11476
  8
0
 10
8614.8200905225094175
 20
2266.1832092345380261
 30
0.0
 11
8614.8391345957188605
 21
2266.1832102196890446
 31
0.0
  0
LINE
  5
11477
  8
0
 10
8614.8195995877795212
 20
2266.1867827879241304
 30
0.0
 11
8614.8386409689155698
 21
2266.1867837728341328
 31
0.0
  0
ARC
  5
11478
  8
0
 10
8614.7780643387777673
 20
2266.3096745989892042
 30
0.0
 40
0.0357736647304911
 50
324.0835436709418786
 51
47.7245870906167795
  0
LINE
  5
11479
  8
0
 10
8614.7919183972680912
 20
2266.9502373017121499
 30
0.0
 11
8614.810815937078587
 21
2266.9502382805490015
 31
0.0
  0
LINE
  5
1147A
  8
0
 10
8614.7909677815605392
 20
2266.9348135519958305
 30
0.0
 11
8614.8098596721210924
 21
2266.9348105080398454
 31
0.0
  0
LINE
  5
1147B
  8
0
 10
8614.7919500255029561
 20
2266.4626955156409167
 30
0.0
 11
8614.8108418183983304
 21
2266.4626964915050849
 31
0.0
  0
LINE
  5
1147C
  8
0
 10
8614.7909973631594767
 20
2266.4781199032099721
 30
0.0
 11
8614.8098841125884064
 21
2266.4781208801350658
 31
0.0
  0
ARC
  5
1147D
  8
0
 10
8607.3514129898921965
 20
2269.0684045785028502
 30
0.0
 40
0.3152867316071302
 50
92.6446617686434735
 51
178.2963868562611935
  0
ARC
  5
1147E
  8
0
 10
8486.6989988552231807
 20
2262.4740573277108524
 30
0.0
 40
120.4123644571085947
 50
1.4152131462895741
 51
2.0236619260940958
  0
ARC
  5
1147F
  8
0
 10
8609.0178920409762213
 20
2265.5765271080558705
 30
0.0
 40
1.9475071019830259
 50
183.7853274598338089
 51
264.5110650943349242
  0
ARC
  5
11480
  8
0
 10
8614.88495993370816
 20
2322.2246668912830501
 30
0.0
 40
58.8986120079178832
 50
264.1009622641641954
 51
270.0195368684372852
  0
LINE
  5
11481
  8
0
 10
8607.9307679434205056
 20
2261.8219208967379927
 30
0.0
 11
8607.9288102041118691
 21
2262.9903673077310486
 31
0.0
  0
ARC
  5
11482
  8
0
 10
8562.8816119866023655
 20
2262.2631438487628657
 30
0.0
 40
45.0530678334645174
 50
0.9248791823403729
 51
2.1845084830829848
  0
ARC
  5
11483
  8
0
 10
8608.1457512595607113
 20
2261.6119667826378645
 30
0.0
 40
0.3005653795523075
 50
92.6548685888044758
 51
176.4961321082903112
  0
ARC
  5
11484
  8
0
 10
8614.9587224732749746
 20
2250.8491843727069863
 30
0.0
 40
7.112985502212525
 50
179.9003251859392947
 51
269.5676056458485732
  0
LINE
  5
11485
  8
0
 10
8607.3368651345954277
 20
2269.3833555001310742
 30
0.0
 11
8622.473221545229535
 21
2269.3833555001310742
 31
0.0
  0
LINE
  5
11486
  8
0
 10
8611.1229600237675186
 20
2262.2994755216309386
 30
0.0
 11
8618.6871266560556251
 21
2262.2994755216309386
 31
0.0
  0
ARC
  5
11487
  8
0
 10
8611.1255252085611573
 20
2262.1420066706468788
 30
0.0
 40
0.1574897431685184
 50
90.9332719638654083
 51
180.0041706825720098
  0
LINE
  5
11488
  8
0
 10
8610.968035465812136
 20
2262.1419952066307815
 30
0.0
 11
8610.968035465812136
 21
2261.9122095564821393
 31
0.0
  0
CIRCLE
  5
11489
  8
0
 10
8611.1255157808118383
 20
2262.1419952066307815
 30
0.0
 40
0.0492125093999994
  0
LINE
  5
1148A
  8
0
 10
8611.6448145888116414
 20
2261.8095950092310886
 30
0.0
 11
8611.6372944392096542
 21
2261.909197845629933
 31
0.0
  0
LINE
  5
1148B
  8
0
 10
8611.6372944392096542
 20
2261.909197845629933
 30
0.0
 11
8611.6160805040126434
 21
2261.9122095564821393
 31
0.0
  0
LINE
  5
1148C
  8
0
 10
8611.6434980226204061
 20
2261.8270326579299763
 30
0.0
 11
8611.6570118438121426
 21
2261.8270326579299763
 31
0.0
  0
LINE
  5
1148D
  8
0
 10
8611.6570118438121426
 20
2261.8270326579299763
 30
0.0
 11
8611.6570118438121426
 21
2261.8047687476619103
 31
0.0
  0
ARC
  5
1148E
  8
0
 10
8611.689402408330352
 20
2261.9044543704358148
 30
0.0
 40
0.1048158960163895
 50
244.8245363138426001
 51
257.6272193990546953
  0
ARC
  5
1148F
  8
0
 10
8611.7612722461035446
 20
2261.8622348214271369
 30
0.0
 40
0.0829541171122768
 50
91.868885835060027
 51
186.7753422635674099
  0
LINE
  5
11490
  8
0
 10
8611.6779941491859063
 20
2261.80207290934095
 30
0.0
 11
8611.6788974496594165
 21
2261.8524481745748744
 31
0.0
  0
LINE
  5
11491
  8
0
 10
8611.6669433682400268
 20
2261.80207290934095
 30
0.0
 11
8618.1431433115812979
 21
2261.80207290934095
 31
0.0
  0
LINE
  5
11492
  8
0
 10
8611.7585669109757873
 20
2261.9451448130298559
 30
0.0
 11
8612.149137828111634
 21
2261.9451448130298559
 31
0.0
  0
LINE
  5
11493
  8
0
 10
8617.6609488517115096
 20
2261.9451448130298559
 30
0.0
 11
8618.0515197688455373
 21
2261.9451448130298559
 31
0.0
  0
LINE
  5
11494
  8
0
 10
8612.149137828111634
 20
2261.80207290934095
 30
0.0
 11
8612.149137828111634
 21
2261.9451448130298559
 31
0.0
  0
LINE
  5
11495
  8
0
 10
8612.149137828111634
 20
2261.8270345768301013
 30
0.0
 11
8612.1688228674120182
 21
2261.8270345768301013
 31
0.0
  0
LINE
  5
11496
  8
0
 10
8612.1688228674120182
 20
2261.8270345768301013
 30
0.0
 11
8612.1688228674120182
 21
2261.80207290934095
 31
0.0
  0
CIRCLE
  5
11497
  8
0
 10
8611.1255157808118383
 20
2262.1419952066307815
 30
0.0
 40
0.0374014835999995
  0
LINE
  5
11498
  8
0
 10
8612.1885079068124469
 20
2261.80207290934095
 30
0.0
 11
8612.1885079068124469
 21
2261.9569558366310957
 31
0.0
  0
ARC
  5
11499
  8
0
 10
8612.2672496032901108
 20
2261.9569576648668772
 30
0.0
 40
0.0787416965005462
 50
90.5298751929980767
 51
180.001330301409098
  0
LINE
  5
1149A
  8
0
 10
8612.2665214052067313
 20
2262.0356959941300374
 30
0.0
 11
8617.5435652746145934
 21
2262.0356959941300374
 31
0.0
  0
LINE
  5
1149B
  8
0
 10
8613.2987441273107834
 20
2262.2994755216309386
 30
0.0
 11
8613.2987441273107834
 21
2262.3034125294789192
 31
0.0
  0
ARC
  5
1149C
  8
0
 10
8613.079010295057742
 20
2262.4053389762839288
 30
0.0
 40
0.0167322835531158
 50
223.1729052435300957
 51
359.9999998181093019
  0
ARC
  5
1149D
  8
0
 10
8613.060970337015533
 20
2262.3879993917730644
 30
0.0
 40
0.0082934258602528
 50
45.2642088946031009
 51
113.4257999770408958
  0
ARC
  5
1149E
  8
0
 10
8613.0711379277727247
 20
2262.357825840453188
 30
0.0
 40
0.0401108985997874
 50
109.614360606810294
 51
179.6965251960317005
  0
LINE
  5
1149F
  8
0
 10
8613.0310275918091065
 20
2262.3034125294789192
 30
0.0
 11
8613.0310275918091065
 21
2262.3580382922309582
 31
0.0
  0
LINE
  5
114A0
  8
0
 10
8613.100595231875559
 20
2262.4142670069982159
 30
0.0
 11
8613.1138684521665709
 21
2262.4193524982351846
 31
0.0
  0
ARC
  5
114A1
  8
0
 10
8613.1036803537117521
 20
2262.4068073535950134
 30
0.0
 40
0.0080724473129375
 50
112.4687357147402054
 51
190.4804432449674039
  0
ARC
  5
114A2
  8
0
 10
8613.1165992534206453
 20
2262.4119671850990017
 30
0.0
 40
0.0078740158511501
 50
37.9486683439370012
 51
110.2924313173738966
  0
ARC
  5
114A3
  8
0
 10
8613.1360028335111565
 20
2262.427098974430919
 30
0.0
 40
0.0167322835000032
 50
217.9487399884339993
 51
358.6210835222602782
  0
ARC
  5
114A4
  8
0
 10
8613.160602007759735
 20
2262.4265068741938194
 30
0.0
 40
0.0078740156207468
 50
106.2772931018515976
 51
178.621343361537896
  0
LINE
  5
114A5
  8
0
 10
8613.158395029087842
 20
2262.4340652713249256
 30
0.0
 11
8613.1719921595868072
 21
2262.4378802895262197
 31
0.0
  0
ARC
  5
114A6
  8
0
 10
8613.1740523539847345
 20
2262.4303111652570806
 30
0.0
 40
0.0078444912619219
 50
32.5666231933310328
 51
105.2261415813622989
  0
ARC
  5
114A7
  8
0
 10
8613.1947399637938361
 20
2262.4435791591881753
 30
0.0
 40
0.0167322835598403
 50
212.724449159316805
 51
353.3968923579316765
  0
ARC
  5
114A8
  8
0
 10
8613.2191830382034823
 20
2262.440749655333093
 30
0.0
 40
0.0078740160492983
 50
101.0530267507182032
 51
173.3968911273385061
  0
ARC
  5
114A9
  8
0
 10
8613.2329099408761977
 20
2262.4432850147059071
 30
0.0
 40
0.0078699715261525
 50
27.4794138104250898
 51
99.8664787463614374
  0
LINE
  5
114AA
  8
0
 10
8613.2176734523982304
 20
2262.4484776096460337
 30
0.0
 11
8613.2315613997961918
 21
2262.4510385873531959
 31
0.0
  0
ARC
  5
114AB
  8
0
 10
8613.2547336885127152
 20
2262.4546426101310317
 30
0.0
 40
0.0167322835002436
 50
207.5001804141747925
 51
348.1726606695821147
  0
ARC
  5
114AC
  8
0
 10
8613.2788175854711881
 20
2262.4495992113947977
 30
0.0
 40
0.0078740157672232
 50
95.8287563643221318
 51
168.1725476271014088
  0
ARC
  5
114AD
  8
0
 10
8613.2927158674574457
 20
2262.4508701474128429
 30
0.0
 40
0.0078737566529362
 50
22.2752965459029397
 51
94.6220585156116272
  0
LINE
  5
114AE
  8
0
 10
8613.2780179349756509
 20
2262.4574325174480691
 30
0.0
 11
8613.2920813791060937
 21
2262.4587182980458238
 31
0.0
  0
LINE
  5
114AF
  8
0
 10
8607.0362656190118287
 20
2269.0777778252468124
 30
0.0
 11
8607.0362656190118287
 21
2266.7260853112311452
 31
0.0
  0
LINE
  5
114B0
  8
0
 10
8608.1318291857278382
 20
2261.9122095564821393
 30
0.0
 11
8611.6160805040126434
 21
2261.9122095564821393
 31
0.0
  0
LINE
  5
114B1
  8
0
 10
8618.1940061758123193
 20
2261.9122095564821393
 30
0.0
 11
8621.6782574940934865
 21
2261.9122095564821393
 31
0.0
  0
LINE
  5
114B2
  8
0
 10
8607.8457477344127255
 20
2261.6303361126078926
 30
0.0
 11
8607.8457477344127255
 21
2250.8615584979179403
 31
0.0
  0
ARC
  5
114B3
  8
0
 10
8613.3154855703705834
 20
2262.460197410883211
 30
0.0
 40
0.0167322835536016
 50
202.2759123968515098
 51
342.9483559920748235
  0
LINE
  5
114B4
  8
0
 10
8613.5340105111736193
 20
2262.4339274459389344
 30
0.0
 11
8613.5203544121704908
 21
2262.437870992326225
 31
0.0
  0
ARC
  5
114B5
  8
0
 10
8613.5311351310556347
 20
2262.4262157539078544
 30
0.0
 40
0.0082303101282509
 50
354.4127035874136027
 51
69.5515355889076403
  0
ARC
  5
114B6
  8
0
 10
8613.5180939515194041
 20
2262.4299766258791351
 30
0.0
 40
0.0082116200570231
 50
74.0215465839312685
 51
151.6847392935098924
  0
ARC
  5
114B7
  8
0
 10
8613.4972297361528035
 20
2262.4435958605808992
 30
0.0
 40
0.016747468588254
 50
189.4879464298942935
 51
324.5043184324472918
  0
ARC
  5
114B8
  8
0
 10
8613.4728839293311466
 20
2262.4399800289547784
 30
0.0
 40
0.0078740156207468
 50
6.2350322403934308
 51
78.5790825000629241
  0
LINE
  5
114B9
  8
0
 10
8613.4744431040562631
 20
2262.4476981308098402
 30
0.0
 11
8613.4605704946698097
 21
2262.4503485808099867
 31
0.0
  0
ARC
  5
114BA
  8
0
 10
8613.45917583071423
 20
2262.4425990622780773
 30
0.0
 40
0.0078740158131875
 50
79.7978122103008047
 51
152.1319256499440939
  0
ARC
  5
114BB
  8
0
 10
8613.4374232166137517
 20
2262.4541009641379787
 30
0.0
 40
0.0167322835598403
 50
191.4594832440077994
 51
332.1319264425914071
  0
ARC
  5
114BC
  8
0
 10
8613.4133074327546638
 20
2262.4492123091558824
 30
0.0
 40
0.0078740160492983
 50
11.45948447460637
 51
83.8033488512205622
  0
ARC
  5
114BD
  8
0
 10
8613.399417804694167
 20
2262.4505722807198254
 30
0.0
 40
0.0078740158188089
 50
85.0123288648868538
 51
157.3561949355899969
  0
LINE
  5
114BE
  8
0
 10
8613.4141573637989495
 20
2262.4570403194011305
 30
0.0
 11
8613.4001023824985168
 21
2262.4584164810198672
 31
0.0
  0
ARC
  5
114BF
  8
0
 10
8613.3767082539325202
 20
2262.4600457315182211
 30
0.0
 40
0.0167322835002469
 50
196.6837509935805031
 51
337.3561951877472893
  0
ARC
  5
114C0
  8
0
 10
8613.3531377826511743
 20
2262.4529815367927768
 30
0.0
 40
0.0078740157672033
 50
16.6837513447001591
 51
89.0276192376714874
  0
ARC
  5
114C1
  8
0
 10
8613.3392994011646806
 20
2262.452716148062791
 30
0.0
 40
0.0082302115612994
 50
91.0429253464334636
 51
161.7691210433468996
  0
LINE
  5
114C2
  8
0
 10
8613.3532714081284212
 20
2262.4608544186589825
 30
0.0
 11
8613.3391495991672855
 21
2262.4609449962031249
 31
0.0
  0
LINE
  5
114C3
  8
0
 10
8613.6609488517442514
 20
2262.3034125294789192
 30
0.0
 11
8613.6609488516114652
 21
2262.3580383000030452
 31
0.0
  0
ARC
  5
114C4
  8
0
 10
8613.6208385158206511
 20
2262.3578258405641463
 30
0.0
 40
0.0401108984725892
 50
0.3034857485686407
 51
70.3856394312469007
  0
ARC
  5
114C5
  8
0
 10
8613.6129661484574171
 20
2262.4053389762589177
 30
0.0
 40
0.0167322835433486
 50
180.0000000972896999
 51
316.8269240144664991
  0
ARC
  5
114C6
  8
0
 10
8613.5883174569935363
 20
2262.4068115998848043
 30
0.0
 40
0.0080522133871947
 50
349.4621768366479273
 51
67.2644547222120508
  0
ARC
  5
114C7
  8
0
 10
8613.6309113086117577
 20
2262.3885032645312094
 30
0.0
 40
0.007874015700002
 50
64.4831465653987408
 51
136.8272075695151955
  0
LINE
  5
114C8
  8
0
 10
8613.5914294626873016
 20
2262.4142381442361511
 30
0.0
 11
8613.5781079916996532
 21
2262.4193524981451446
 31
0.0
  0
ARC
  5
114C9
  8
0
 10
8613.5559736100240116
 20
2262.4270989744409235
 30
0.0
 40
0.0167322835140045
 50
185.7781076768775961
 51
322.05125888887261
  0
ARC
  5
114CA
  8
0
 10
8613.5753771901527216
 20
2262.4119671850198756
 30
0.0
 40
0.0078740159411237
 50
69.7075666636339122
 51
142.0513023357046904
  0
LINE
  5
114CB
  8
0
 10
8613.3932323162116518
 20
2262.2994755216309386
 30
0.0
 11
8613.3932323162116518
 21
2262.3034125294789192
 31
0.0
  0
LINE
  5
114CC
  8
0
 10
8613.0310275918091065
 20
2262.3034125294789192
 30
0.0
 11
8613.6609488517442514
 21
2262.3034125294789192
 31
0.0
  0
ARC
  5
114CD
  8
0
 10
8622.4586736899327661
 20
2269.0684045785028502
 30
0.0
 40
0.3152867316071302
 50
1.7036131437387609
 51
87.3553382313565407
  0
ARC
  5
114CE
  8
0
 10
8743.1110878245981439
 20
2262.4740573277108524
 30
0.0
 40
120.4123644571085947
 50
177.9763380739059073
 51
178.5847868537103977
  0
ARC
  5
114CF
  8
0
 10
8620.7921946388469223
 20
2265.5765271080558705
 30
0.0
 40
1.9475071019830259
 50
275.4889349056650758
 51
356.2146725401660774
  0
ARC
  5
114D0
  8
0
 10
8614.9251267461131647
 20
2322.2246668912830501
 30
0.0
 40
58.8986120079178832
 50
269.9804631315627148
 51
275.8990377358358046
  0
LINE
  5
114D1
  8
0
 10
8621.879318736402638
 20
2261.8219208967379927
 30
0.0
 11
8621.8812764757112745
 21
2262.9903673077310486
 31
0.0
  0
ARC
  5
114D2
  8
0
 10
8666.9284746932207781
 20
2262.2631438487628657
 30
0.0
 40
45.0530678334645174
 50
177.8154915169170067
 51
179.0751208176596094
  0
ARC
  5
114D3
  8
0
 10
8621.6643354202624323
 20
2261.6119667826378645
 30
0.0
 40
0.3005653795523075
 50
3.503867891709648
 51
87.3451314111955242
  0
ARC
  5
114D4
  8
0
 10
8614.8513642061716382
 20
2250.849184372496893
 30
0.0
 40
7.1129855025881561
 50
270.4323949789705921
 51
0.0996748157542723
  0
ARC
  5
114D5
  8
0
 10
8618.6845614712601673
 20
2262.1420066706468788
 30
0.0
 40
0.1574897431685184
 50
359.9958293174279902
 51
89.0667280361345775
  0
LINE
  5
114D6
  8
0
 10
8618.8420512140110077
 20
2262.1419952066307815
 30
0.0
 11
8618.8420512140110077
 21
2261.9122095564821393
 31
0.0
  0
CIRCLE
  5
114D7
  8
0
 10
8618.6845708990113053
 20
2262.1419952066307815
 30
0.0
 40
0.0492125093999994
  0
LINE
  5
114D8
  8
0
 10
8618.1652720910115022
 20
2261.8095950092310886
 30
0.0
 11
8618.1727922406116704
 21
2261.909197845629933
 31
0.0
  0
LINE
  5
114D9
  8
0
 10
8618.1727922406116704
 20
2261.909197845629933
 30
0.0
 11
8618.1940061758123193
 21
2261.9122095564821393
 31
0.0
  0
LINE
  5
114DA
  8
0
 10
8618.1665886572027375
 20
2261.8270326579299763
 30
0.0
 11
8618.15307483601282
 21
2261.8270326579299763
 31
0.0
  0
LINE
  5
114DB
  8
0
 10
8618.15307483601282
 20
2261.8270326579299763
 30
0.0
 11
8618.15307483601282
 21
2261.8047687476619103
 31
0.0
  0
ARC
  5
114DC
  8
0
 10
8618.1206842714927916
 20
2261.9044543704358148
 30
0.0
 40
0.1048158960163895
 50
282.3727806009454184
 51
295.1754636861575136
  0
ARC
  5
114DD
  8
0
 10
8618.048814433719599
 20
2261.8622348214271369
 30
0.0
 40
0.0829541171122768
 50
353.2246577364326185
 51
88.131114164939973
  0
LINE
  5
114DE
  8
0
 10
8618.1320925306372374
 20
2261.80207290934095
 30
0.0
 11
8618.1311892301637272
 21
2261.8524481745748744
 31
0.0
  0
LINE
  5
114DF
  8
0
 10
8617.6609488517115096
 20
2261.80207290934095
 30
0.0
 11
8617.6609488517115096
 21
2261.9451448130298559
 31
0.0
  0
LINE
  5
114E0
  8
0
 10
8617.6609488517115096
 20
2261.8270345768301013
 30
0.0
 11
8617.6412638124111254
 21
2261.8270345768301013
 31
0.0
  0
LINE
  5
114E1
  8
0
 10
8617.6412638124111254
 20
2261.8270345768301013
 30
0.0
 11
8617.6412638124111254
 21
2261.80207290934095
 31
0.0
  0
CIRCLE
  5
114E2
  8
0
 10
8618.6845708990113053
 20
2262.1419952066307815
 30
0.0
 40
0.0374014835999995
  0
LINE
  5
114E3
  8
0
 10
8617.6215787730106968
 20
2261.80207290934095
 30
0.0
 11
8617.6215787730106968
 21
2261.9569558366310957
 31
0.0
  0
ARC
  5
114E4
  8
0
 10
8617.5428370765312138
 20
2261.9569576648668772
 30
0.0
 40
0.0787416965005223
 50
359.9986696985648109
 51
89.4701248071061457
  0
LINE
  5
114E5
  8
0
 10
8616.5113425525105413
 20
2262.2994755216309386
 30
0.0
 11
8616.5113425525105413
 21
2262.3034125294789192
 31
0.0
  0
ARC
  5
114E6
  8
0
 10
8616.7310763847635826
 20
2262.4053389762839288
 30
0.0
 40
0.0167322835531158
 50
180.0000001818906128
 51
316.8270947564699895
  0
ARC
  5
114E7
  8
0
 10
8616.7491163428076106
 20
2262.3879993917730644
 30
0.0
 40
0.0082934258602528
 50
66.57420002295909
 51
134.7357911053969133
  0
ARC
  5
114E8
  8
0
 10
8616.738948752052238
 20
2262.357825840453188
 30
0.0
 40
0.0401108985997874
 50
0.3034748039682732
 51
70.3856393931897202
  0
LINE
  5
114E9
  8
0
 10
8616.7790590880122181
 20
2262.3034125294789192
 30
0.0
 11
8616.7790590880122181
 21
2262.3580382922309582
 31
0.0
  0
LINE
  5
114EA
  8
0
 10
8616.7094914479475847
 20
2262.4142670069982159
 30
0.0
 11
8616.6962182276565727
 21
2262.4193524982351846
 31
0.0
  0
ARC
  5
114EB
  8
0
 10
8616.7064063261113915
 20
2262.4068073535950134
 30
0.0
 40
0.0080724473129375
 50
349.5195567550326246
 51
67.5312642852597236
  0
ARC
  5
114EC
  8
0
 10
8616.6934874264006794
 20
2262.4119671850990017
 30
0.0
 40
0.0078740158511501
 50
69.7075686826261034
 51
142.051331656063013
  0
ARC
  5
114ED
  8
0
 10
8616.6740838463119871
 20
2262.427098974430919
 30
0.0
 40
0.0167322835000032
 50
181.3789164777396934
 51
322.0512600115660007
  0
ARC
  5
114EE
  8
0
 10
8616.6494846720634087
 20
2262.4265068741938194
 30
0.0
 40
0.0078740156207468
 50
1.3786566384620731
 51
73.7227068981484024
  0
LINE
  5
114EF
  8
0
 10
8616.6516916507353017
 20
2262.4340652713249256
 30
0.0
 11
8616.6380945202363364
 21
2262.4378802895262197
 31
0.0
  0
ARC
  5
114F0
  8
0
 10
8616.6360343258384091
 20
2262.4303111652570806
 30
0.0
 40
0.0078444912619219
 50
74.7738584186377153
 51
147.433376806668889
  0
ARC
  5
114F1
  8
0
 10
8616.6153467160293076
 20
2262.4435791591881753
 30
0.0
 40
0.0167322835598403
 50
186.603107642068295
 51
327.2755508406830813
  0
ARC
  5
114F2
  8
0
 10
8616.5909036416196614
 20
2262.440749655333093
 30
0.0
 40
0.0078740160492983
 50
6.6031088726615197
 51
78.9469732492817826
  0
ARC
  5
114F3
  8
0
 10
8616.577176738948765
 20
2262.4432850147059071
 30
0.0
 40
0.0078699715261525
 50
80.1335212536385768
 51
152.5205861895749138
  0
LINE
  5
114F4
  8
0
 10
8616.5924132274267322
 20
2262.4484776096460337
 30
0.0
 11
8616.5785252800269518
 21
2262.4510385873531959
 31
0.0
  0
ARC
  5
114F5
  8
0
 10
8616.5553529913122475
 20
2262.4546426101310317
 30
0.0
 40
0.0167322835002436
 50
191.8273393304178001
 51
332.4998195858252075
  0
ARC
  5
114F6
  8
0
 10
8616.5312690943501366
 20
2262.4495992113947977
 30
0.0
 40
0.0078740157672232
 50
11.8274523728986303
 51
84.1712436356778824
  0
ARC
  5
114F7
  8
0
 10
8616.5173708123656979
 20
2262.4508701474128429
 30
0.0
 40
0.0078737566529362
 50
85.3779414843883586
 51
157.7247034540970105
  0
LINE
  5
114F8
  8
0
 10
8616.5320687448474928
 20
2262.4574325174480691
 30
0.0
 11
8616.518005300715231
 21
2262.4587182980458238
 31
0.0
  0
LINE
  5
114F9
  8
0
 10
8622.773821060809496
 20
2269.0777778252468124
 30
0.0
 11
8622.773821060809496
 21
2266.7260853112311452
 31
0.0
  0
LINE
  5
114FA
  8
0
 10
8621.9643389454122371
 20
2261.6303361126078926
 30
0.0
 11
8621.9643389454122371
 21
2250.8615584979179403
 31
0.0
  0
ARC
  5
114FB
  8
0
 10
8616.4946011094525602
 20
2262.460197410883211
 30
0.0
 40
0.0167322835536016
 50
197.051644007925205
 51
337.7240876031485186
  0
LINE
  5
114FC
  8
0
 10
8616.2760761686495243
 20
2262.4339274459389344
 30
0.0
 11
8616.2897322676508338
 21
2262.437870992326225
 31
0.0
  0
ARC
  5
114FD
  8
0
 10
8616.2789515487675089
 20
2262.4262157539078544
 30
0.0
 40
0.0082303101282509
 50
110.4484644110923028
 51
185.5872964125863973
  0
ARC
  5
114FE
  8
0
 10
8616.2919927283055586
 20
2262.4299766258791351
 30
0.0
 40
0.0082116200570231
 50
28.3152607064900792
 51
105.9784534160687031
  0
ARC
  5
114FF
  8
0
 10
8616.3128569436721591
 20
2262.4435958605808992
 30
0.0
 40
0.016747468588254
 50
215.4956815675525945
 51
350.5120535701057065
  0
ARC
  5
11500
  8
0
 10
8616.337202750490178
 20
2262.4399800289547784
 30
0.0
 40
0.0078740156207468
 50
101.4209174999371044
 51
173.7649677596064919
  0
LINE
  5
11501
  8
0
 10
8616.3356435757686995
 20
2262.4476981308098402
 30
0.0
 11
8616.3495161851515149
 21
2262.4503485808099867
 31
0.0
  0
ARC
  5
11502
  8
0
 10
8616.3509108491070947
 20
2262.4425990622780773
 30
0.0
 40
0.0078740158131875
 50
27.8680743500558989
 51
100.2021877896991953
  0
ARC
  5
11503
  8
0
 10
8616.3726634632112109
 20
2262.4541009641379787
 30
0.0
 40
0.0167322835598403
 50
207.8680735574085077
 51
348.5405167559922006
  0
ARC
  5
11504
  8
0
 10
8616.3967792470702989
 20
2262.4492123091558824
 30
0.0
 40
0.0078740160492983
 50
96.1966511487794662
 51
168.5405155253936016
  0
ARC
  5
11505
  8
0
 10
8616.4106688751289767
 20
2262.4505722807198254
 30
0.0
 40
0.0078740158188089
 50
22.6438050644099711
 51
94.9876711351131462
  0
LINE
  5
11506
  8
0
 10
8616.3959293160241941
 20
2262.4570403194011305
 30
0.0
 11
8616.4099842973246268
 21
2262.4584164810198672
 31
0.0
  0
ARC
  5
11507
  8
0
 10
8616.4333784258924425
 20
2262.4600457315182211
 30
0.0
 40
0.0167322835002469
 50
202.643804812252597
 51
343.3162490064195254
  0
ARC
  5
11508
  8
0
 10
8616.4569488971737883
 20
2262.4529815367927768
 30
0.0
 40
0.0078740157672033
 50
90.9723807623284983
 51
163.3162486552998018
  0
ARC
  5
11509
  8
0
 10
8616.470787278658463
 20
2262.452716148062791
 30
0.0
 40
0.0082302115612994
 50
18.2308789566531217
 51
88.9570746535665222
  0
LINE
  5
1150A
  8
0
 10
8616.4568152716947225
 20
2262.4608544186589825
 30
0.0
 11
8616.4709370806558582
 21
2262.4609449962031249
 31
0.0
  0
LINE
  5
1150B
  8
0
 10
8616.1491378280788922
 20
2262.3034125294789192
 30
0.0
 11
8616.1491378282116784
 21
2262.3580383000030452
 31
0.0
  0
ARC
  5
1150C
  8
0
 10
8616.1892481640024926
 20
2262.3578258405641463
 30
0.0
 40
0.0401108984725892
 50
109.6143605687530993
 51
179.6965142514314095
  0
ARC
  5
1150D
  8
0
 10
8616.1971205313675455
 20
2262.4053389762589177
 30
0.0
 40
0.0167322835433486
 50
223.1730759855335862
 51
359.9999999027102149
  0
ARC
  5
1150E
  8
0
 10
8616.2217692228296073
 20
2262.4068115998848043
 30
0.0
 40
0.0080522133871947
 50
112.7355452777879066
 51
190.5378231633521011
  0
ARC
  5
1150F
  8
0
 10
8616.1791753712113859
 20
2262.3885032645312094
 30
0.0
 40
0.007874015700002
 50
43.172792430484769
 51
115.5168534346012024
  0
LINE
  5
11510
  8
0
 10
8616.2186572171322041
 20
2262.4142381442361511
 30
0.0
 11
8616.2319786881253094
 21
2262.4193524981451446
 31
0.0
  0
ARC
  5
11511
  8
0
 10
8616.2541130697973131
 20
2262.4270989744409235
 30
0.0
 40
0.0167322835140045
 50
217.94874111112739
 51
354.2218923231224039
  0
ARC
  5
11512
  8
0
 10
8616.234709489670422
 20
2262.4119671850198756
 30
0.0
 40
0.0078740159411237
 50
37.9486976642952527
 51
110.292433336366102
  0
LINE
  5
11513
  8
0
 10
8616.4168543636114919
 20
2262.2994755216309386
 30
0.0
 11
8616.4168543636114919
 21
2262.3034125294789192
 31
0.0
  0
LINE
  5
11514
  8
0
 10
8616.7790590880122181
 20
2262.3034125294789192
 30
0.0
 11
8616.1491378280788922
 21
2262.3034125294789192
 31
0.0
  0
LINE
  5
11568
  8
0
 10
8607.1439479713662877
 20
2265.4746039350311548
 30
0.0
 11
8607.1439479713662877
 21
2269.0883345189890861
 31
0.0
  0
ARC
  5
11569
  8
0
 10
8614.9232124516402109
 20
2323.3018459225741026
 30
0.0
 40
59.8656802151689291
 50
264.171522714270111
 51
269.982610847639819
  0
ARC
  5
1156A
  8
0
 10
8609.0713657200667512
 20
2265.6694829597718126
 30
0.0
 40
1.937244696029458
 50
185.7734905604554001
 51
263.2541679461428998
  0
ARC
  5
1156B
  8
0
 10
8607.4593630386716541
 20
2269.0672393904828823
 30
0.0
 40
0.3161197069621273
 50
90.2733388934278764
 51
176.1737257957819054
  0
LINE
  5
1156C
  8
0
 10
8622.666138708458675
 20
2265.4746039350311548
 30
0.0
 11
8622.666138708458675
 21
2269.0883345189890861
 31
0.0
  0
ARC
  5
1156D
  8
0
 10
8614.8868742281829327
 20
2323.3018459225741026
 30
0.0
 40
59.8656802151689291
 50
270.017389152360181
 51
275.8284772857300027
  0
ARC
  5
1156E
  8
0
 10
8620.7387209597545734
 20
2265.6694829597718126
 30
0.0
 40
1.937244696029458
 50
276.7458320538572139
 51
354.2265094395445999
  0
ARC
  5
1156F
  8
0
 10
8622.3507240907601954
 20
2269.0672398688720932
 30
0.0
 40
0.3161192264327152
 50
3.8261931284788302
 51
89.7267421823277118
  0
ENDSEC
  0
EOF
