  0
SECTION
  2
HEADER
  9
$ACADVER
  1
AC1009
  9
$INSBASE
 10
7892.6641000485051336
 20
1795.795333729010963
 30
0.0
  9
$EXTMIN
 10
7865.9387085468224541
 20
1795.7251803074750569
 30
-0.0000000000000058
  9
$EXTMAX
 10
7893.0364625186930425
 20
1827.9396226499670775
 30
0.0000000000000104
  9
$LIMMIN
 10
0.0
 20
0.0
  9
$LIMMAX
 10
11.6929133858000007
 20
8.2677165353999982
  9
$ORTHOMODE
 70
     0
  9
$REGENMODE
 70
     1
  9
$FILLMODE
 70
     1
  9
$QTEXTMODE
 70
     0
  9
$MIRRTEXT
 70
     0
  9
$DRAGMODE
 70
     2
  9
$LTSCALE
 40
0.6431102362
  9
$OSMODE
 70
  4063
  9
$ATTMODE
 70
     1
  9
$TEXTSIZE
 40
0.2
  9
$TRACEWID
 40
0.05
  9
$TEXTSTYLE
  7
STANDARD
  9
$CLAYER
  8
0
  9
$CELTYPE
  6
BYLAYER
  9
$CECOLOR
 62
   256
  9
$DIMSCALE
 40
1.0
  9
$DIMASZ
 40
0.1875
  9
$DIMEXO
 40
0.0625
  9
$DIMDLI
 40
0.4443307087
  9
$DIMRND
 40
0.0
  9
$DIMDLE
 40
0.0
  9
$DIMEXE
 40
0.125
  9
$DIMTP
 40
0.01
  9
$DIMTM
 40
0.01
  9
$DIMTXT
 40
2.0
  9
$DIMCEN
 40
0.1052362205
  9
$DIMTSZ
 40
0.0
  9
$DIMTOL
 70
     1
  9
$DIMLIM
 70
     0
  9
$DIMTIH
 70
     1
  9
$DIMTOH
 70
     1
  9
$DIMSE1
 70
     0
  9
$DIMSE2
 70
     0
  9
$DIMTAD
 70
     0
  9
$DIMZIN
 70
     0
  9
$DIMBLK
  1

  9
$DIMASO
 70
     1
  9
$DIMSHO
 70
     1
  9
$DIMPOST
  1
\X
  9
$DIMAPOST
  1

  9
$DIMALT
 70
     1
  9
$DIMALTD
 70
     2
  9
$DIMALTF
 40
25.3999999999999986
  9
$DIMLFAC
 40
1.0
  9
$DIMTOFL
 70
     0
  9
$DIMTVP
 40
0.0
  9
$DIMTIX
 70
     0
  9
$DIMSOXD
 70
     0
  9
$DIMSAH
 70
     0
  9
$DIMBLK1
  1

  9
$DIMBLK2
  1

  9
$DIMSTYLE
  2
STANDARD
  9
$DIMCLRD
 70
     0
  9
$DIMCLRE
 70
     0
  9
$DIMCLRT
 70
     0
  9
$DIMTFAC
 40
1.0
  9
$DIMGAP
 40
0.09
  9
$LUNITS
 70
     2
  9
$LUPREC
 70
     4
  9
$SKETCHINC
 40
0.1
  9
$FILLETRAD
 40
0.0
  9
$AUNITS
 70
     0
  9
$AUPREC
 70
     0
  9
$MENU
  1
.
  9
$ELEVATION
 40
0.0
  9
$PELEVATION
 40
0.0
  9
$THICKNESS
 40
0.0
  9
$LIMCHECK
 70
     0
  9
$BLIPMODE
 70
     0
  9
$CHAMFERA
 40
0.0
  9
$CHAMFERB
 40
0.0
  9
$SKPOLY
 70
     0
  9
$TDCREATE
 40
2458060.468368056230247
  9
$TDUPDATE
 40
2459435.9568634261377156
  9
$TDINDWG
 40
0.4196135417
  9
$TDUSRTIMER
 40
0.4196135417
  9
$USRTIMER
 70
     1
  9
$ANGBASE
 50
0.0
  9
$ANGDIR
 70
     0
  9
$PDMODE
 70
     0
  9
$PDSIZE
 40
0.3125
  9
$PLINEWID
 40
0.0
  9
$COORDS
 70
     1
  9
$SPLFRAME
 70
     0
  9
$SPLINETYPE
 70
     6
  9
$SPLINESEGS
 70
     8
  9
$ATTDIA
 70
     1
  9
$ATTREQ
 70
     1
  9
$HANDLING
 70
     1
  9
$HANDSEED
  5
EC50
  9
$SURFTAB1
 70
     6
  9
$SURFTAB2
 70
     6
  9
$SURFTYPE
 70
     6
  9
$SURFU
 70
     6
  9
$SURFV
 70
     6
  9
$UCSNAME
  2

  9
$UCSORG
 10
0.0
 20
0.0
 30
0.0
  9
$UCSXDIR
 10
1.0
 20
0.0
 30
0.0
  9
$UCSYDIR
 10
0.0
 20
1.0
 30
0.0
  9
$PUCSNAME
  2

  9
$PUCSORG
 10
0.0
 20
0.0
 30
0.0
  9
$PUCSXDIR
 10
1.0
 20
0.0
 30
0.0
  9
$PUCSYDIR
 10
0.0
 20
1.0
 30
0.0
  9
$USERI1
 70
     0
  9
$USERI2
 70
     0
  9
$USERI3
 70
     0
  9
$USERI4
 70
     0
  9
$USERI5
 70
     0
  9
$USERR1
 40
0.0
  9
$USERR2
 40
0.0
  9
$USERR3
 40
0.0
  9
$USERR4
 40
0.0
  9
$USERR5
 40
0.0
  9
$WORLDVIEW
 70
     1
  9
$SHADEDGE
 70
     3
  9
$SHADEDIF
 70
    70
  9
$TILEMODE
 70
     1
  9
$MAXACTVP
 70
    64
  9
$PLIMCHECK
 70
     0
  9
$PEXTMIN
 10
1.0000000000000000E+20
 20
1.0000000000000000E+20
 30
1.0000000000000000E+20
  9
$PEXTMAX
 10
-1.0000000000000000E+20
 20
-1.0000000000000000E+20
 30
-1.0000000000000000E+20
  9
$PLIMMIN
 10
0.0
 20
0.0
  9
$PLIMMAX
 10
12.0
 20
9.0
  9
$UNITMODE
 70
     0
  9
$VISRETAIN
 70
     1
  9
$PLINEGEN
 70
     0
  9
$PSLTSCALE
 70
     1
  0
ENDSEC
  0
SECTION
  2
TABLES
  0
TABLE
  2
VPORT
 70
     1
  0
VPORT
  2
*ACTIVE
 70
     0
 10
0.0
 20
0.0
 11
1.0
 21
1.0
 12
3064.189245689008203
 22
1564.0237772111429422
 13
0.0
 23
0.0
 14
1.0
 24
1.0
 15
0.0
 25
0.0
 16
0.0
 26
0.0
 36
9.5192988075487186
 17
4815.2983398437490905
 27
247.8086242675780966
 37
0.0
 40
32.4591089931941497
 41
2.0798479087452471
 42
50.0
 43
0.0
 44
0.0
 50
0.0
 51
0.0
 71
     0
 72
   100
 73
     1
 74
     1
 75
     0
 76
     0
 77
     0
 78
     0
  0
ENDTAB
  0
TABLE
  2
LTYPE
 70
     2
  0
LTYPE
  2
CONTINUOUS
 70
     0
  3
Solid line
 72
    65
 73
     0
 40
0.0
  0
LTYPE
  2
PHANTOM2
 70
     0
  3
___ _ _ ___ _ _ ___ _ _ ___ _ _
 72
    65
 73
     6
 40
1.25
 49
0.625
 49
-0.125
 49
0.125
 49
-0.125
 49
0.125
 49
-0.125
  0
ENDTAB
  0
TABLE
  2
LAYER
 70
     2
  0
LAYER
  2
0
 70
     0
 62
   255
  6
CONTINUOUS
  0
LAYER
  2
DEFPOINTS
 70
     0
 62
     7
  6
CONTINUOUS
  0
ENDTAB
  0
TABLE
  2
STYLE
 70
     1
  0
STYLE
  2
STANDARD
 70
     0
 40
0.0
 41
0.8
 50
0.0
 71
     0
 42
0.2
  3
txt
  4

  0
ENDTAB
  0
TABLE
  2
VIEW
 70
     0
  0
ENDTAB
  0
TABLE
  2
UCS
 70
     0
  0
ENDTAB
  0
TABLE
  2
APPID
 70
    10
  0
APPID
  2
ACAD
 70
     0
  0
APPID
  2
ACAD_MLEADERVER
 70
     0
  0
APPID
  2
ACAD_EXEMPT_FROM_CAD_STANDARDS
 70
     0
  0
APPID
  2
ACAD_NAV_VCDISPLAY
 70
     0
  0
APPID
  2
ACAECLAYERSTANDARD
 70
     0
  0
APPID
  2
ACCMTRANSPARENCY
 70
     0
  0
APPID
  2
ACAD_DSTYLE_DIMJAG
 70
     0
  0
APPID
  2
ACAD_DSTYLE_DIMTALN
 70
     0
  0
APPID
  2
ACDBATTR
 70
     0
  0
APPID
  2
ACADANNOTATIVE
 70
     0
  0
ENDTAB
  0
TABLE
  2
DIMSTYLE
 70
     1
  0
DIMSTYLE
  2
STANDARD
 70
     0
  3

  4

  5

  6

  7

 40
1.0
 41
0.1875
 42
0.0625
 43
0.38
 44
0.125
 45
0.0
 46
0.0
 47
0.01
 48
0.01
140
0.15625
141
0.09
142
0.0
143
25.3999999999999986
144
1.0
145
0.0
146
1.0
147
0.09
 71
     1
 72
     0
 73
     1
 74
     1
 75
     0
 76
     0
 77
     0
 78
     4
170
     0
171
     2
172
     0
173
     0
174
     0
175
     0
176
     0
177
     0
178
     0
  0
ENDTAB
  0
ENDSEC
  0
SECTION
  2
BLOCKS
  0
BLOCK
  8
0
  2
$MODEL_SPACE
 70
     0
 10
0.0
 20
0.0
 30
0.0
  3
$MODEL_SPACE
  1

  0
ENDBLK
  5
21
  8
0
  0
BLOCK
 67
     1
  8
0
  2
$PAPER_SPACE
 70
     0
 10
0.0
 20
0.0
 30
0.0
  3
$PAPER_SPACE
  1

  0
ENDBLK
  5
1D
 67
     1
  8
0
  0
BLOCK
  8
0
  2
_FILLED
 70
     0
 10
0.0
 20
0.0
 30
0.0
  3
_FILLED
  1

  0
SOLID
  5
EAC2
  8
0
  6
BYBLOCK
 62
     0
 10
0.0
 20
0.0
 30
0.0
 11
-1.0
 21
0.1666666667
 31
0.0
 12
-1.0
 22
-0.1666666667
 32
0.0
 13
-1.0
 23
-0.1666666667
 33
0.0
  0
ENDBLK
  5
EAC3
  8
0
  6
BYBLOCK
 62
     0
  0
ENDSEC
  0
SECTION
  2
ENTITIES
  0
ATTDEF
  5
3930
  8
DEFPOINTS
 10
7892.6644353759784281
 20
1795.7937837276140272
 30
0.0
 40
0.001
  1
K-76190K
  3

  2
MODELNUMBER
 70
     0
1001
ACDBATTR
1070
     0
1070
     1
  0
ATTDEF
  5
3931
  8
DEFPOINTS
 10
7892.6644353759784281
 20
1795.7921170609470209
 30
0.0
 40
0.001
  1
PARLIAMENT GRANDE
  3

  2
TRADENAME
 70
     0
1001
ACDBATTR
1070
     0
1070
     1
  0
ATTDEF
  5
3932
  8
DEFPOINTS
 10
7892.6644353759784281
 20
1795.7904503942800147
 30
0.0
 40
0.001
  1
TOILET
  3

  2
PRODUCT
 70
     0
1001
ACDBATTR
1070
     0
1070
     1
  0
ARC
  5
EB29
  8
0
 10
7885.3606784080411671
 20
1827.6514479691959423
 30
0.0
 40
0.1176392623812781
 50
90.216169043881365
 51
176.7161747158463072
  0
LINE
  5
EB2A
  8
0
 10
7885.1494086886996229
 20
1826.1241815272160238
 30
0.0
 11
7885.2432323061211719
 21
1827.658186603860031
 31
0.0
  0
ARC
  5
EB2B
  8
0
 10
7885.2670441176960594
 20
1826.1167258665439022
 30
0.0
 40
0.1178714597814072
 50
176.3734796158354072
 51
269.4783139351833938
  0
LINE
  5
EB2C
  8
0
 10
7885.6980185702313975
 20
1812.7242407717640162
 30
0.0
 11
7885.3566479665068982
 21
1825.9998775738470158
 31
0.0
  0
ARC
  5
EB2D
  8
0
 10
7885.9072351574950517
 20
1812.7420007893620095
 30
0.0
 40
0.2099690420313452
 50
184.8521026218712109
 51
264.8910419891481069
  0
LINE
  5
EB2E
  8
0
 10
7885.2659708964420133
 20
1825.9988592927109039
 30
0.0
 11
7891.4053432066375535
 21
1826.0678029298110232
 31
0.0
  0
LINE
  5
EB2F
  8
0
 10
7885.8885374093470091
 20
1812.5328659218109806
 30
0.0
 11
7891.7309304134150807
 21
1812.5328659218109806
 31
0.0
  0
ARC
  5
EB30
  8
0
 10
7866.4785691460892849
 20
1811.3305826146590789
 30
0.0
 40
0.2190452490874621
 50
98.2157927966476052
 51
187.2767041759774997
  0
LINE
  5
EB31
  8
0
 10
7885.3602345724420957
 20
1827.7690863943109889
 30
0.0
 11
7891.9364966480707153
 21
1827.7690863943109889
 31
0.0
  0
ARC
  5
EB32
  8
0
 10
7892.0241062137847621
 20
1826.1947534077719411
 30
0.0
 40
0.1199938347205218
 50
271.0127696917870139
 51
7.7268798916811381
  0
ARC
  5
EB33
  8
0
 10
7891.050872964273367
 20
1885.2555634648849718
 30
0.0
 40
59.1888219709600705
 50
270.3431352336148734
 51
270.9442020484959244
  0
LINE
  5
EB34
  8
0
 10
7892.1430105323279349
 20
1826.2108867088159059
 30
0.0
 11
7892.0536093183427511
 21
1827.6581866155358966
 31
0.0
  0
ARC
  5
EB35
  8
0
 10
7891.9361080148028122
 20
1827.6513892874349949
 30
0.0
 40
0.1176977485029468
 50
3.3108112826843681
 51
89.8108112797386156
  0
LINE
  5
EB36
  8
0
 10
7866.4582008447596309
 20
1811.8758939483388986
 30
0.0
 11
7866.552729863175955
 21
1812.7857126634769429
 31
0.0
  0
ARC
  5
EB37
  8
0
 10
7866.9339805676572723
 20
1812.7697949019388943
 30
0.0
 40
0.3815828544369263
 50
92.1194444920798645
 51
177.6092079067952056
  0
ARC
  5
EB38
  8
0
 10
7877.6179989774527712
 20
1641.4632183988001088
 30
0.0
 40
172.0208836833346879
 50
90.6186263523410247
 51
93.5655760037729323
  0
ARC
  5
EB39
  8
0
 10
7883.5731258257746958
 20
1444.1995495809180738
 30
0.0
 40
369.3571566571876019
 50
90.2592303851911169
 51
91.2119748965878614
  0
ARC
  5
EB3A
  8
0
 10
7880.8088050697697327
 20
1826.6674781291519594
 30
0.0
 40
14.79523100251971
 50
271.2721635315390927
 51
277.3563712170052895
  0
LINE
  5
EB3B
  8
0
 10
7866.753317801594676
 20
1811.7836003850329689
 30
0.0
 11
7866.7664076612709323
 21
1811.8758939483388986
 31
0.0
  0
LINE
  5
EB3C
  8
0
 10
7882.1009128228988629
 20
1811.8654957074929825
 30
0.0
 11
7882.0943222891237383
 21
1811.9282004705739837
 31
0.0
  0
ARC
  5
EB3D
  8
0
 10
7869.7344519943007981
 20
1811.7867407237249608
 30
0.0
 40
0.0387146024325707
 50
216.1198014859637055
 51
266.6738536935600905
  0
ARC
  5
EB3E
  8
0
 10
7870.1083509103646065
 20
1811.8982816904699575
 30
0.0
 40
0.4155578446260226
 50
201.1873453277779902
 51
237.6089612599224949
  0
LINE
  5
EB3F
  8
0
 10
7869.7208832596916182
 20
1811.7480913382109975
 30
0.0
 11
7870.9417874139871856
 21
1811.7480913382109975
 31
0.0
  0
ARC
  5
EB40
  8
0
 10
7870.5604639702642089
 20
1811.8938956156689528
 30
0.0
 40
0.4082480325220398
 50
301.9199615114221729
 51
339.0749559081326083
  0
ARC
  5
EB41
  8
0
 10
7870.9269862141218255
 20
1811.7893504625790229
 30
0.0
 40
0.041273344179915
 50
271.5040496969925812
 51
325.9228812607419741
  0
ARC
  5
EB42
  8
0
 10
7869.6534407874387398
 20
1811.7271503106690034
 30
0.0
 40
0.0618534063511668
 50
36.4738295029083091
 51
65.8731795783442067
  0
ARC
  5
EB43
  8
0
 10
7870.9284301938441786
 20
1811.7873725996480516
 30
0.0
 40
0.0389779258529893
 50
327.1417989155299892
 51
354.4463235281090761
  0
ARC
  5
EB44
  8
0
 10
7882.8376413164342011
 20
1813.1388307954139236
 30
0.0
 40
0.4336769088411862
 50
9.2099983217953731
 51
72.716575018906866
  0
ARC
  5
EB45
  8
0
 10
7882.7543173067988391
 20
1812.5900646751179011
 30
0.0
 40
0.6114049842593473
 50
279.4964350634751895
 51
10.9532930151419503
  0
LINE
  5
EB46
  8
0
 10
7883.3545839614380384
 20
1812.7062369528109684
 30
0.0
 11
7883.2657274144376061
 21
1813.2082422783109905
 31
0.0
  0
LINE
  5
EB47
  8
0
 10
7883.2074049402399396
 20
1812.7062375370319387
 30
0.0
 11
7883.1256879444381411
 21
1813.1826669128111007
 31
0.0
  0
LINE
  5
EB48
  8
0
 10
7883.3315545249388379
 20
1812.7062375587111092
 30
0.0
 11
7883.2452746153394401
 21
1813.1826668928110848
 31
0.0
  0
ARC
  5
EB49
  8
0
 10
7883.1854812649953601
 20
1813.093615710522954
 30
0.0
 40
0.1072630309665885
 50
56.1206432147449519
 51
123.8793376206529047
  0
ARC
  5
EB4A
  8
0
 10
7882.72098409677983
 20
1812.5979083996389818
 30
0.0
 40
0.6196130265948585
 50
282.5092647139749147
 51
46.2865722680315415
  0
ARC
  5
EB4B
  8
0
 10
7882.6171417409932474
 20
1812.5986640055909902
 30
0.0
 40
0.6202252654217927
 50
284.9855311845922756
 51
24.4220007118314797
  0
ARC
  5
EB4C
  8
0
 10
7882.5936203033970742
 20
1812.6000977137750851
 30
0.0
 40
0.6228942466461628
 50
281.6512692461060965
 51
9.8109500934287581
  0
ARC
  5
EB4D
  8
0
 10
7883.3097096058645548
 20
1813.2298635600579928
 30
0.0
 40
0.2145650893594214
 50
146.0892074841960095
 51
185.7255304145874959
  0
ARC
  5
EB4E
  8
0
 10
7882.983868066319701
 20
1813.1325931744129321
 30
0.0
 40
0.2918346775863289
 50
15.0237275803978392
 51
49.5617839956170911
  0
ARC
  5
EB4F
  8
0
 10
7883.1549294097676466
 20
1813.3317125977509932
 30
0.0
 40
0.029347078665618
 50
51.59541789660652
 51
142.5202601449090878
  0
LINE
  5
EB50
  8
0
 10
7883.1843790882376197
 20
1812.7062362393110106
 30
0.0
 11
7883.096214935538228
 21
1813.2084578759111082
 31
0.0
  0
ARC
  5
EB51
  8
0
 10
7882.5632115645394151
 20
1812.6072575014079575
 30
0.0
 40
0.6290038815903108
 50
282.8585252176027893
 51
9.0535731551403416
  0
LINE
  5
EB52
  8
0
 10
7882.4625559291389436
 20
1811.8820253707110624
 30
0.0
 11
7882.4625559291389436
 21
1811.9307762600110436
 31
0.0
  0
LINE
  5
EB53
  8
0
 10
7882.7775165591392579
 20
1811.8820253706110179
 30
0.0
 11
7882.7775165591392579
 21
1811.9995318852929813
 31
0.0
  0
LINE
  5
EB54
  8
0
 10
7882.8551907156388552
 20
1811.8820253706110179
 30
0.0
 11
7882.8551907156388552
 21
1812.0259406294840119
 31
0.0
  0
ARC
  5
EB55
  8
0
 10
7881.1181826283936971
 20
1818.3440138455760007
 30
0.0
 40
6.5526296935394184
 50
277.4102873050456992
 51
284.1443152066834728
  0
ARC
  5
EB56
  8
0
 10
7881.0092407888978414
 20
1819.0104787717189083
 30
0.0
 40
7.2276126583650599
 50
270.8167182512905242
 51
277.5852880624021282
  0
LINE
  5
EB57
  8
0
 10
7882.2440099895393359
 20
1811.5867497801109494
 30
0.0
 11
7882.2440099895393359
 21
1811.8032852132109838
 31
0.0
  0
LINE
  5
EB58
  8
0
 10
7882.2440099895393359
 20
1811.5867497801109494
 30
0.0
 11
7884.0972746972383902
 21
1811.5867497801109494
 31
0.0
  0
LINE
  5
EB59
  8
0
 10
7884.0972746972383902
 20
1811.5867497801109494
 30
0.0
 11
7884.0972746972383902
 21
1811.8032852132109838
 31
0.0
  0
LINE
  5
EB5A
  8
0
 10
7884.0196005407387929
 20
1811.5867497801109494
 30
0.0
 11
7884.0196005407387929
 21
1811.8032852132109838
 31
0.0
  0
ARC
  5
EB5B
  8
0
 10
7882.3228228780726567
 20
1811.8032642483919972
 30
0.0
 40
0.0788128913232392
 50
92.0768143854717067
 51
179.9847588939798868
  0
ARC
  5
EB5C
  8
0
 10
7884.0185345397376295
 20
1811.8032852132109838
 30
0.0
 40
0.0787401575000075
 50
0.0
 51
90.0
  0
ARC
  5
EB5D
  8
0
 10
7883.9408603834081077
 20
1811.8032852132810149
 30
0.0
 40
0.0787401573292996
 50
359.9999999485542048
 51
90.0000001242307235
  0
LINE
  5
EB5E
  8
0
 10
7884.0185345397376295
 20
1811.8820253707110624
 30
0.0
 11
7882.3199667531007435
 21
1811.8820253707110624
 31
0.0
  0
LINE
  5
EB5F
  8
0
 10
7884.0165660358388777
 20
1811.5473797759809713
 30
0.0
 11
7884.0165660358388777
 21
1811.5867497801109494
 31
0.0
  0
LINE
  5
EB60
  8
0
 10
7883.9388918793383709
 20
1811.5473797759809713
 30
0.0
 11
7883.9388918793383709
 21
1811.5867497801109494
 31
0.0
  0
LINE
  5
EB61
  8
0
 10
7882.3247186509388484
 20
1811.5473797759809713
 30
0.0
 11
7882.3247186509388484
 21
1811.5867497801109494
 31
0.0
  0
LINE
  5
EB62
  8
0
 10
7891.8564762447858811
 20
1812.581820940921034
 30
0.0
 11
7891.8564757681397168
 21
1814.0357447090109417
 31
0.0
  0
LINE
  5
EB63
  8
0
 10
7891.8564757681397168
 20
1814.0357447090109417
 30
0.0
 11
7891.9234149928379338
 21
1814.0357447090109417
 31
0.0
  0
LINE
  5
EB64
  8
0
 10
7891.9234149928379338
 20
1814.0357447090109417
 30
0.0
 11
7891.9234149928379338
 21
1826.0731732063090931
 31
0.0
  0
ARC
  5
EB65
  8
0
 10
7891.7303163958240475
 20
1812.4067079845219723
 30
0.0
 40
0.1261594315087976
 50
0.0071916105701297
 51
89.7211405042960592
  0
ARC
  5
EB66
  8
0
 10
7891.7263472533395543
 20
1812.7300790299389064
 30
0.0
 40
0.197266356416193
 50
271.3312932017806247
 51
311.2740507095759881
  0
ARC
  5
EB67
  8
0
 10
7953.1917259987458237
 20
1815.442066893152969
 30
0.0
 40
87.0289276718136762
 50
182.7261033034369007
 51
192.9491016320721997
  0
ARC
  5
EB68
  8
0
 10
7868.6242949519746617
 20
1796.0683431679140085
 30
0.0
 40
0.279444526960634
 50
207.3046950157547883
 51
257.6801894205877943
  0
ARC
  5
EB69
  8
0
 10
7885.3296791217571808
 20
1811.9824103984678914
 30
0.0
 40
0.4363972738744081
 50
274.535643304201983
 51
345.5012748662672948
  0
ARC
  5
EB6A
  8
0
 10
7885.9789846261910498
 20
1812.401078814137918
 30
0.0
 40
0.1318724474200913
 50
92.0613877771894806
 51
167.9344234831073948
  0
LINE
  5
EB6B
  8
0
 10
7885.7521785438384541
 20
1811.8731546481110399
 30
0.0
 11
7885.8500253730398981
 21
1812.4286442529109991
 31
0.0
  0
LINE
  5
EB6C
  8
0
 10
7891.8565048075388404
 20
1811.7444769454109519
 30
0.0
 11
7891.8564758263382828
 21
1812.4067238197110328
 31
0.0
  0
LINE
  5
EB6D
  8
0
 10
7891.8565048075388404
 20
1811.7444769454109519
 30
0.0
 11
7891.8482510130388619
 21
1811.2011027431381081
 31
0.0
  0
LINE
  5
EB6E
  8
0
 10
7887.1238415642383188
 20
1795.9921838551099427
 30
0.0
 11
7887.1238415642383188
 21
1802.6219603991789882
 31
0.0
  0
ARC
  5
EB6F
  8
0
 10
7891.8482510130388619
 20
1802.6219602418109389
 30
0.0
 40
4.724409448800027
 50
135.0000171305414938
 51
179.9999980915027038
  0
LINE
  5
EB70
  8
0
 10
7888.5075880558861172
 20
1805.962621201354068
 30
0.0
 11
7890.4645082843662749
 21
1807.9195414299490494
 31
0.0
  0
ARC
  5
EB71
  8
0
 10
7887.1216256103316482
 20
1811.2616651454520706
 30
0.0
 40
4.7270133807817283
 50
315.0065048734364836
 51
359.2659075174944974
  0
ARC
  5
EB72
  8
0
 10
7886.8709881575859981
 20
1796.0465272723729413
 30
0.0
 40
0.2586272457723701
 50
283.7704725814867857
 51
347.8704657182855726
  0
CIRCLE
  5
EB73
  8
0
 10
7875.3033603474386837
 20
1796.9767518750109048
 30
0.0
 40
0.5366077700999994
  0
LINE
  5
EB74
  8
0
 10
7869.0373032967199833
 20
1811.5473797759809713
 30
0.0
 11
7868.9578403416853689
 21
1811.7836003850329689
 31
0.0
  0
ARC
  5
EB75
  8
0
 10
7877.0459604964144091
 20
1811.8912568096438918
 30
0.0
 40
0.3510612594780137
 50
197.8580577521387056
 51
235.2318190766744124
  0
ARC
  5
EB76
  8
0
 10
7877.2577545690846819
 20
1811.8816850909499863
 30
0.0
 40
0.3325071911768094
 50
296.2882958734633121
 51
342.8433490841213143
  0
ARC
  5
EB77
  8
0
 10
7877.1479678170417174
 20
1812.8073237760340817
 30
0.0
 40
1.256054654967119
 50
259.0161755040022058
 51
278.747244125582597
  0
ARC
  5
EB78
  8
0
 10
7877.3060733232514394
 20
1811.820845222898015
 30
0.0
 40
0.2570818874649372
 50
277.3548413637872159
 51
292.6360567198286162
  0
ARC
  5
EB79
  8
0
 10
7876.9745025662414264
 20
1811.802554446996055
 30
0.0
 40
0.2375845650565958
 50
237.1897107924860109
 51
253.9081584163830883
  0
LINE
  5
EB7A
  8
0
 10
7868.5646703771917601
 20
1795.795333729010963
 30
0.0
 11
7886.9325499641627175
 21
1795.795333729010963
 31
0.0
  0
LINE
  5
EB7B
  8
0
 10
7881.9020032379103213
 20
1813.5529257982989293
 30
0.0
 11
7882.9664861450000899
 21
1813.5529257982989293
 31
0.0
  0
LINE
  5
EB7C
  8
0
 10
7881.1372831357921314
 20
1811.8758939483388986
 30
0.0
 11
7866.4582008447596309
 21
1811.8758939483388986
 31
0.0
  0
LINE
  5
EB7D
  8
0
 10
7866.753317801594676
 20
1811.7836003850329689
 30
0.0
 11
7881.1122627448339699
 21
1811.7836003850329689
 31
0.0
  0
LINE
  5
EB7E
  8
0
 10
7866.4472671974235709
 20
1811.5473797759809713
 30
0.0
 11
7885.3641890934150069
 21
1811.5473797759809713
 31
0.0
  0
ARC
  5
EB7F
  8
0
 10
7887.7770538281010886
 20
1827.8119915863230744
 30
0.0
 40
0.0439259308439187
 50
95.6968598628935183
 51
174.3484351137549027
  0
LINE
  5
EB80
  8
0
 10
7887.7726935111377315
 20
1827.8557005676109384
 30
0.0
 11
7889.5837171331386344
 21
1827.8557005676109384
 31
0.0
  0
ARC
  5
EB81
  8
0
 10
7889.5780015777263543
 20
1827.8105965919269238
 30
0.0
 40
0.0454646697573944
 50
7.5774235918663679
 51
82.7779971608082548
  0
LINE
  5
EB82
  8
0
 10
7887.7333414135382554
 20
1827.8163173479449597
 30
0.0
 11
7887.7333414135382554
 21
1827.7690863943109889
 31
0.0
  0
LINE
  5
EB83
  8
0
 10
7889.6230692307381105
 20
1827.8165918273718944
 30
0.0
 11
7889.6230692307381105
 21
1827.7690863943109889
 31
0.0
  0
ARC
  5
EB84
  8
0
 10
7753.8867010010708327
 20
10110.5201850587600347
 30
0.0
 40
8298.4993226749538735
 50
270.7779100807168788
 51
270.8881835227854253
  0
ARC
  5
EB85
  8
0
 10
7882.3145946237664248
 20
1814.6028192532569392
 30
0.0
 40
1.5984911518092531
 50
277.4775483237445997
 51
299.2731555011897058
  0
ENDSEC
  0
EOF
