  0
SECTION
  2
HEADER
  9
$ACADVER
  1
AC1009
  9
$INSBASE
 10
3509.720910431170978
 20
204.6701129733413893
 30
0.0
  9
$EXTMIN
 10
3493.811703735770152
 20
186.1590992207138981
 30
-0.0000000000000058
  9
$EXTMAX
 10
3525.5525939595690943
 20
207.4808262719741094
 30
0.0000000000000104
  9
$LIMMIN
 10
0.0
 20
0.0
  9
$LIMMAX
 10
11.6929133858000007
 20
8.2677165353999982
  9
$ORTHOMODE
 70
     0
  9
$REGENMODE
 70
     1
  9
$FILLMODE
 70
     1
  9
$QTEXTMODE
 70
     0
  9
$MIRRTEXT
 70
     0
  9
$DRAGMODE
 70
     2
  9
$LTSCALE
 40
0.6431102362
  9
$OSMODE
 70
  3839
  9
$ATTMODE
 70
     1
  9
$TEXTSIZE
 40
0.2
  9
$TRACEWID
 40
0.05
  9
$TEXTSTYLE
  7
STANDARD
  9
$CLAYER
  8
0
  9
$CELTYPE
  6
BYLAYER
  9
$CECOLOR
 62
   256
  9
$DIMSCALE
 40
1.0
  9
$DIMASZ
 40
0.1875
  9
$DIMEXO
 40
0.0625
  9
$DIMDLI
 40
0.4443307087
  9
$DIMRND
 40
0.0
  9
$DIMDLE
 40
0.0
  9
$DIMEXE
 40
0.125
  9
$DIMTP
 40
0.01
  9
$DIMTM
 40
0.01
  9
$DIMTXT
 40
2.0
  9
$DIMCEN
 40
0.1052362205
  9
$DIMTSZ
 40
0.0
  9
$DIMTOL
 70
     1
  9
$DIMLIM
 70
     0
  9
$DIMTIH
 70
     1
  9
$DIMTOH
 70
     1
  9
$DIMSE1
 70
     0
  9
$DIMSE2
 70
     0
  9
$DIMTAD
 70
     0
  9
$DIMZIN
 70
     0
  9
$DIMBLK
  1

  9
$DIMASO
 70
     1
  9
$DIMSHO
 70
     1
  9
$DIMPOST
  1
\X
  9
$DIMAPOST
  1

  9
$DIMALT
 70
     1
  9
$DIMALTD
 70
     2
  9
$DIMALTF
 40
25.3999999999999986
  9
$DIMLFAC
 40
1.0
  9
$DIMTOFL
 70
     0
  9
$DIMTVP
 40
0.0
  9
$DIMTIX
 70
     0
  9
$DIMSOXD
 70
     0
  9
$DIMSAH
 70
     0
  9
$DIMBLK1
  1

  9
$DIMBLK2
  1

  9
$DIMSTYLE
  2
STANDARD
  9
$DIMCLRD
 70
     0
  9
$DIMCLRE
 70
     0
  9
$DIMCLRT
 70
     0
  9
$DIMTFAC
 40
1.0
  9
$DIMGAP
 40
0.09
  9
$LUNITS
 70
     2
  9
$LUPREC
 70
     4
  9
$SKETCHINC
 40
0.1
  9
$FILLETRAD
 40
0.0
  9
$AUNITS
 70
     0
  9
$AUPREC
 70
     0
  9
$MENU
  1
.
  9
$ELEVATION
 40
0.0
  9
$PELEVATION
 40
0.0
  9
$THICKNESS
 40
0.0
  9
$LIMCHECK
 70
     0
  9
$BLIPMODE
 70
     0
  9
$CHAMFERA
 40
0.0
  9
$CHAMFERB
 40
0.0
  9
$SKPOLY
 70
     0
  9
$TDCREATE
 40
2458060.468368056230247
  9
$TDUPDATE
 40
2459215.4109490741975605
  9
$TDINDWG
 40
0.5823103009
  9
$TDUSRTIMER
 40
0.5823103009
  9
$USRTIMER
 70
     1
  9
$ANGBASE
 50
0.0
  9
$ANGDIR
 70
     0
  9
$PDMODE
 70
     0
  9
$PDSIZE
 40
0.3125
  9
$PLINEWID
 40
0.0
  9
$COORDS
 70
     1
  9
$SPLFRAME
 70
     0
  9
$SPLINETYPE
 70
     6
  9
$SPLINESEGS
 70
     8
  9
$ATTDIA
 70
     1
  9
$ATTREQ
 70
     1
  9
$HANDLING
 70
     1
  9
$HANDSEED
  5
13D39
  9
$SURFTAB1
 70
     6
  9
$SURFTAB2
 70
     6
  9
$SURFTYPE
 70
     6
  9
$SURFU
 70
     6
  9
$SURFV
 70
     6
  9
$UCSNAME
  2

  9
$UCSORG
 10
0.0
 20
0.0
 30
0.0
  9
$UCSXDIR
 10
1.0
 20
0.0
 30
0.0
  9
$UCSYDIR
 10
0.0
 20
1.0
 30
0.0
  9
$PUCSNAME
  2

  9
$PUCSORG
 10
0.0
 20
0.0
 30
0.0
  9
$PUCSXDIR
 10
1.0
 20
0.0
 30
0.0
  9
$PUCSYDIR
 10
0.0
 20
1.0
 30
0.0
  9
$USERI1
 70
     0
  9
$USERI2
 70
     0
  9
$USERI3
 70
     0
  9
$USERI4
 70
     0
  9
$USERI5
 70
     0
  9
$USERR1
 40
0.0
  9
$USERR2
 40
0.0
  9
$USERR3
 40
0.0
  9
$USERR4
 40
0.0
  9
$USERR5
 40
0.0
  9
$WORLDVIEW
 70
     1
  9
$SHADEDGE
 70
     3
  9
$SHADEDIF
 70
    70
  9
$TILEMODE
 70
     1
  9
$MAXACTVP
 70
    64
  9
$PLIMCHECK
 70
     0
  9
$PEXTMIN
 10
1.0000000000000000E+20
 20
1.0000000000000000E+20
 30
1.0000000000000000E+20
  9
$PEXTMAX
 10
-1.0000000000000000E+20
 20
-1.0000000000000000E+20
 30
-1.0000000000000000E+20
  9
$PLIMMIN
 10
0.0
 20
0.0
  9
$PLIMMAX
 10
12.0
 20
9.0
  9
$UNITMODE
 70
     0
  9
$VISRETAIN
 70
     1
  9
$PLINEGEN
 70
     0
  9
$PSLTSCALE
 70
     1
  0
ENDSEC
  0
SECTION
  2
TABLES
  0
TABLE
  2
VPORT
 70
     1
  0
VPORT
  2
*ACTIVE
 70
     0
 10
0.0
 20
0.0
 11
1.0
 21
1.0
 12
-5.8171187304560581
 22
36.1380245749572921
 13
0.0
 23
0.0
 14
1.0
 24
1.0
 15
0.0
 25
0.0
 16
0.0
 26
0.0
 36
20.9203132949307395
 17
3515.499267578125
 27
160.6819381713866903
 37
0.0
 40
21.5328332596885907
 41
2.9735537190082639
 42
50.0
 43
0.0
 44
0.0
 50
0.0
 51
0.0
 71
     0
 72
   100
 73
     1
 74
     1
 75
     0
 76
     0
 77
     0
 78
     0
  0
ENDTAB
  0
TABLE
  2
LTYPE
 70
     2
  0
LTYPE
  2
CONTINUOUS
 70
     0
  3
Solid line
 72
    65
 73
     0
 40
0.0
  0
LTYPE
  2
PHANTOM2
 70
     0
  3
___ _ _ ___ _ _ ___ _ _ ___ _ _
 72
    65
 73
     6
 40
1.25
 49
0.625
 49
-0.125
 49
0.125
 49
-0.125
 49
0.125
 49
-0.125
  0
ENDTAB
  0
TABLE
  2
LAYER
 70
     2
  0
LAYER
  2
0
 70
     0
 62
   255
  6
CONTINUOUS
  0
LAYER
  2
DEFPOINTS
 70
     0
 62
     7
  6
CONTINUOUS
  0
ENDTAB
  0
TABLE
  2
STYLE
 70
     1
  0
STYLE
  2
STANDARD
 70
     0
 40
0.0
 41
0.8
 50
0.0
 71
     0
 42
0.2
  3
txt
  4

  0
ENDTAB
  0
TABLE
  2
VIEW
 70
     0
  0
ENDTAB
  0
TABLE
  2
UCS
 70
     0
  0
ENDTAB
  0
TABLE
  2
APPID
 70
     9
  0
APPID
  2
ACAD
 70
     0
  0
APPID
  2
ACAD_MLEADERVER
 70
     0
  0
APPID
  2
ACAD_EXEMPT_FROM_CAD_STANDARDS
 70
     0
  0
APPID
  2
ACAD_NAV_VCDISPLAY
 70
     0
  0
APPID
  2
ACAECLAYERSTANDARD
 70
     0
  0
APPID
  2
ACCMTRANSPARENCY
 70
     0
  0
APPID
  2
ACAD_DSTYLE_DIMJAG
 70
     0
  0
APPID
  2
ACAD_DSTYLE_DIMTALN
 70
     0
  0
APPID
  2
ACDBATTR
 70
     0
  0
ENDTAB
  0
TABLE
  2
DIMSTYLE
 70
     1
  0
DIMSTYLE
  2
STANDARD
 70
     0
  3

  4

  5

  6

  7

 40
1.0
 41
0.1875
 42
0.0625
 43
0.38
 44
0.125
 45
0.0
 46
0.0
 47
0.01
 48
0.01
140
0.15625
141
0.09
142
0.0
143
25.3999999999999986
144
1.0
145
0.0
146
1.0
147
0.09
 71
     1
 72
     0
 73
     1
 74
     1
 75
     0
 76
     0
 77
     0
 78
     4
170
     0
171
     2
172
     0
173
     0
174
     0
175
     0
176
     0
177
     0
178
     0
  0
ENDTAB
  0
ENDSEC
  0
SECTION
  2
BLOCKS
  0
BLOCK
  8
0
  2
$MODEL_SPACE
 70
     0
 10
0.0
 20
0.0
 30
0.0
  3
$MODEL_SPACE
  1

  0
ENDBLK
  5
21
  8
0
  0
BLOCK
 67
     1
  8
0
  2
$PAPER_SPACE
 70
     0
 10
0.0
 20
0.0
 30
0.0
  3
$PAPER_SPACE
  1

  0
ENDBLK
  5
1D
 67
     1
  8
0
  0
BLOCK
  8
0
  2
_FILLED
 70
     0
 10
0.0
 20
0.0
 30
0.0
  3
_FILLED
  1

  0
SOLID
  5
13356
  8
0
  6
BYBLOCK
 62
     0
 10
0.0
 20
0.0
 30
0.0
 11
-1.0
 21
0.1666666667
 31
0.0
 12
-1.0
 22
-0.1666666667
 32
0.0
 13
-1.0
 23
-0.1666666667
 33
0.0
  0
ENDBLK
  5
13357
  8
0
  6
BYBLOCK
 62
     0
  0
BLOCK
  8
0
  2
_CLOSED
 70
     0
 10
0.0
 20
0.0
 30
0.0
  3
_CLOSED
  1

  0
LINE
  5
13993
  8
0
  6
BYBLOCK
 62
     0
 10
0.0
 20
0.0
 30
0.0
 11
-1.0
 21
0.1666666667
 31
0.0
  0
LINE
  5
13994
  8
0
  6
BYBLOCK
 62
     0
 10
-1.0
 20
0.1666666667
 30
0.0
 11
-1.0
 21
-0.1666666667
 31
0.0
  0
LINE
  5
13995
  8
0
  6
BYBLOCK
 62
     0
 10
-1.0
 20
-0.1666666667
 30
0.0
 11
0.0
 21
0.0
 31
0.0
  0
LINE
  5
13996
  8
0
  6
BYBLOCK
 62
     0
 10
-1.0
 20
0.0
 30
0.0
 11
0.0
 21
0.0
 31
0.0
  0
ENDBLK
  5
13997
  8
0
  6
BYBLOCK
 62
     0
  0
ENDSEC
  0
SECTION
  2
ENTITIES
  0
ATTDEF
  5
12BEB
  8
DEFPOINTS
 10
3509.7099786258982022
 20
204.6686486870256942
 30
0.0
 40
0.001
  1
K-76438T
  3

  2
MODELNUMBER
 70
     0
1001
ACDBATTR
1070
     0
1070
     1
  0
ATTDEF
  5
12BEC
  8
DEFPOINTS
 10
3509.7099786258982022
 20
204.6669820203590007
 30
0.0
 40
0.001
  1
KARESS
  3

  2
TRADENAME
 70
     0
1001
ACDBATTR
1070
     0
1070
     1
  0
ATTDEF
  5
12BED
  8
DEFPOINTS
 10
3509.7099786258982022
 20
204.6653153536923924
 30
0.0
 40
0.001
  1
BATH
  3

  2
PRODUCT
 70
     0
1001
ACDBATTR
1070
     0
1070
     1
  0
LINE
  5
13B84
  8
0
 10
3493.9476104311720519
 20
204.6701129733413893
 30
0.0
 11
3525.4942104311708135
 21
204.6701129733413893
 31
0.0
  0
LINE
  5
13B85
  8
0
 10
3494.3139539365579367
 20
207.0292917179116046
 30
0.0
 11
3525.1278669257840193
 21
207.0292917179116046
 31
0.0
  0
LINE
  5
13B86
  8
0
 10
3503.5070989553710206
 20
186.1692370883737055
 30
0.0
 11
3505.8693036797708373
 21
186.1692370883737055
 31
0.0
  0
LINE
  5
13B87
  8
0
 10
3493.9549721867711014
 20
206.6732992191737992
 30
0.0
 11
3493.9476104311720519
 21
204.6701129733413893
 31
0.0
  0
ARC
  5
13B88
  8
0
 10
3494.3606322149948937
 20
206.6232271842440866
 30
0.0
 40
0.408738629420289
 50
96.5575305701199227
 51
172.9633739339818987
  0
LINE
  5
13B89
  8
0
 10
3495.8846716232837935
 20
204.6701129733413893
 30
0.0
 11
3496.2123957300927941
 21
199.0409634823953979
 31
0.0
  0
ARC
  5
13B8A
  8
0
 10
3502.1115769273142178
 20
199.2427495954451047
 30
0.0
 40
5.90263131434304
 50
181.9590831844691934
 51
190.5802629121918983
  0
ARC
  5
13B8B
  8
0
 10
3497.8646853767500033
 20
198.3937215207538998
 30
0.0
 40
1.573005443493219
 50
188.5834351618503888
 51
255.6893751670972108
  0
ARC
  5
13B8C
  8
0
 10
3498.9155548366161383
 20
201.8781614820329935
 30
0.0
 40
5.2114403469411652
 50
253.9632226867406075
 51
263.4715663554350158
  0
ARC
  5
13B8D
  8
0
 10
6668.3807405619018027
 20
902.1401072059531998
 30
0.0
 40
3247.6007890626428889
 50
192.5457256709374008
 51
192.6978950679178979
  0
ARC
  5
13B8E
  8
0
 10
3501.5102468445120394
 20
188.6885609606603111
 30
0.0
 40
1.363933498647709
 50
197.2634450181525096
 51
265.0823467125914021
  0
ARC
  5
13B8F
  8
0
 10
3558.2560847254999317
 20
1604.2453000524110394
 30
0.0
 40
1418.0561829158179989
 50
267.7018753447446215
 51
267.9570697530340908
  0
ARC
  5
13B90
  8
0
 10
3507.7218952155831175
 20
186.8364553061356901
 30
0.0
 40
0.2545579331202914
 50
43.143906103910183
 51
93.8538307858802483
  0
ARC
  5
13B91
  8
0
 10
9805.9077384865358908
 20
6484.7680119057249613
 30
0.0
 40
8906.5456073486093374
 50
224.9988963365412076
 51
225.0008994684772006
  0
ARC
  5
13B92
  8
0
 10
3508.4635207163219093
 20
187.1362601425686876
 30
0.0
 40
0.4820326265984002
 50
225.8575693423346991
 51
269.1427091663912279
  0
LINE
  5
13B93
  8
0
 10
3503.5070989553710206
 20
187.2463986897732866
 30
0.0
 11
3503.5070989553710206
 21
186.1692370883737055
 31
0.0
  0
LINE
  5
13B94
  8
0
 10
3505.8693036797708373
 20
187.1571012879705052
 30
0.0
 11
3505.8693036797708373
 21
186.1692370883737055
 31
0.0
  0
CIRCLE
  5
13B95
  8
0
 10
3509.7209109579707729
 20
203.5440452526736976
 30
0.0
 40
1.023622047200007
  0
LINE
  5
13B96
  8
0
 10
3515.9347219069709354
 20
186.1692370883737055
 30
0.0
 11
3513.5725171825711186
 21
186.1692370883737055
 31
0.0
  0
LINE
  5
13B97
  8
0
 10
3525.4868486755708545
 20
206.6732992191737992
 30
0.0
 11
3525.4942104311708135
 21
204.6701129733413893
 31
0.0
  0
ARC
  5
13B98
  8
0
 10
3525.0811886473479717
 20
206.6232271842440866
 30
0.0
 40
0.408738629420289
 50
7.0366260660181164
 51
83.4424694298800489
  0
LINE
  5
13B99
  8
0
 10
3523.557149239059072
 20
204.6701129733413893
 30
0.0
 11
3523.2294251322500713
 21
199.0409634823953979
 31
0.0
  0
ARC
  5
13B9A
  8
0
 10
3517.3302439350281929
 20
199.2427495954451047
 30
0.0
 40
5.90263131434304
 50
349.4197370878080164
 51
358.0409168155306929
  0
ARC
  5
13B9B
  8
0
 10
3521.5771354855919526
 20
198.3937215207538998
 30
0.0
 40
1.573005443493219
 50
284.3106248329028176
 51
351.4165648381494975
  0
ARC
  5
13B9C
  8
0
 10
3520.5262660257258176
 20
201.8781614820329935
 30
0.0
 40
5.2114403469411652
 50
276.5284336445649842
 51
286.0367773132593925
  0
ARC
  5
13B9D
  8
0
 10
351.0610803004396985
 20
902.1401072059531998
 30
0.0
 40
3247.6007890626428889
 50
347.3021049320821021
 51
347.4542743290626277
  0
ARC
  5
13B9E
  8
0
 10
3517.9315740178299166
 20
188.6885609606603111
 30
0.0
 40
1.363933498647709
 50
274.9176532874085979
 51
342.7365549818475188
  0
ARC
  5
13B9F
  8
0
 10
3461.1857361368420243
 20
1604.2453000524110394
 30
0.0
 40
1418.0561829158179989
 50
272.0429302469657955
 51
272.2981246552553785
  0
ARC
  5
13BA0
  8
0
 10
3511.7199256467588384
 20
186.8364553061356901
 30
0.0
 40
0.2545579331202914
 50
86.1461692141197375
 51
136.8560938960897886
  0
ARC
  5
13BA1
  8
0
 10
-2786.4659176241921159
 20
6484.7680119057249613
 30
0.0
 40
8906.5456073486093374
 50
314.9991005315229131
 51
315.0011036634588208
  0
ARC
  5
13BA2
  8
0
 10
3510.9783001460200467
 20
187.1362601425686876
 30
0.0
 40
0.4820326265984002
 50
270.8572908336087721
 51
314.1424306576652725
  0
LINE
  5
13BA3
  8
0
 10
3515.9347219069709354
 20
187.2463986897732866
 30
0.0
 11
3515.9347219069709354
 21
186.1692370883737055
 31
0.0
  0
LINE
  5
13BA4
  8
0
 10
3513.5725171825711186
 20
187.1571012879705052
 30
0.0
 11
3513.5725171825711186
 21
186.1692370883737055
 31
0.0
  0
ARC
  5
13BA5
  8
0
 10
3496.7376152563961114
 20
231.9252894517915138
 30
0.0
 40
24.920785417248279
 50
272.5557051131859794
 51
273.8801225725787276
  0
ARC
  5
13BA6
  8
0
 10
3522.7042056059472088
 20
231.9252894517915138
 30
0.0
 40
24.920785417248279
 50
266.1198774274212724
 51
267.4442948868140206
  0
ARC
  5
13BA7
  8
0
 10
3509.720910431170978
 20
52.6319664965896479
 30
0.0
 40
154.8423088707253896
 50
85.8161189540804941
 51
94.1838810459195344
  0
ARC
  5
13BA8
  8
0
 10
3509.720910431170978
 20
450.0480870675871188
 30
0.0
 40
263.3968413694959168
 50
269.7249145867148741
 51
270.2750854132851259
  0
ARC
  5
13BA9
  8
0
 10
3503.5087453715068477
 20
189.7440611072964884
 30
0.0
 40
5.559077922762822
 50
97.9277726197067295
 51
131.4568411452426062
  0
ARC
  5
13BAA
  8
0
 10
3515.9330754908351082
 20
189.7440611072964884
 30
0.0
 40
5.559077922762822
 50
48.5431588547573725
 51
82.0722273802932847
  0
ARC
  5
13BAB
  8
0
 10
3509.720910431170978
 20
74.0594037984946141
 30
0.0
 40
121.3913831955224936
 50
86.704197250246466
 51
93.2958027497535625
  0
LINE
  5
13BAD
  8
0
 10
3499.8283261526021306
 20
193.9103378293187916
 30
0.0
 11
3519.6134947097398253
 21
193.9103378293187916
 31
0.0
  0
ENDSEC
  0
EOF
