  0
SECTION
  2
HEADER
  9
$ACADVER
  1
AC1009
  9
$INSBASE
 10
3318.0975163966068067
 20
134.0100749313984068
 30
0.0
  9
$EXTMIN
 10
3284.4739628530719528
 20
116.0806618405366066
 30
-0.0015258207003583
  9
$EXTMAX
 10
3351.7253058346291255
 20
136.7847532038124996
 30
0.0000000349246037
  9
$LIMMIN
 10
0.0
 20
0.0
  9
$LIMMAX
 10
11.6929133858000007
 20
8.2677165353999982
  9
$ORTHOMODE
 70
     1
  9
$REGENMODE
 70
     1
  9
$FILLMODE
 70
     1
  9
$QTEXTMODE
 70
     0
  9
$MIRRTEXT
 70
     0
  9
$DRAGMODE
 70
     2
  9
$LTSCALE
 40
0.6431102362
  9
$OSMODE
 70
  4095
  9
$ATTMODE
 70
     1
  9
$TEXTSIZE
 40
0.2
  9
$TRACEWID
 40
0.05
  9
$TEXTSTYLE
  7
STANDARD
  9
$CLAYER
  8
0
  9
$CELTYPE
  6
BYLAYER
  9
$CECOLOR
 62
   256
  9
$DIMSCALE
 40
1.0
  9
$DIMASZ
 40
0.1875
  9
$DIMEXO
 40
0.0625
  9
$DIMDLI
 40
0.4443307087
  9
$DIMRND
 40
0.0
  9
$DIMDLE
 40
0.0
  9
$DIMEXE
 40
0.125
  9
$DIMTP
 40
0.01
  9
$DIMTM
 40
0.01
  9
$DIMTXT
 40
2.0
  9
$DIMCEN
 40
0.1052362205
  9
$DIMTSZ
 40
0.0
  9
$DIMTOL
 70
     1
  9
$DIMLIM
 70
     0
  9
$DIMTIH
 70
     1
  9
$DIMTOH
 70
     1
  9
$DIMSE1
 70
     0
  9
$DIMSE2
 70
     0
  9
$DIMTAD
 70
     0
  9
$DIMZIN
 70
     0
  9
$DIMBLK
  1

  9
$DIMASO
 70
     1
  9
$DIMSHO
 70
     1
  9
$DIMPOST
  1
\X
  9
$DIMAPOST
  1

  9
$DIMALT
 70
     1
  9
$DIMALTD
 70
     2
  9
$DIMALTF
 40
25.3999999999999986
  9
$DIMLFAC
 40
1.0
  9
$DIMTOFL
 70
     0
  9
$DIMTVP
 40
0.0
  9
$DIMTIX
 70
     0
  9
$DIMSOXD
 70
     0
  9
$DIMSAH
 70
     0
  9
$DIMBLK1
  1

  9
$DIMBLK2
  1

  9
$DIMSTYLE
  2
STANDARD
  9
$DIMCLRD
 70
     0
  9
$DIMCLRE
 70
     0
  9
$DIMCLRT
 70
     0
  9
$DIMTFAC
 40
1.0
  9
$DIMGAP
 40
0.09
  9
$LUNITS
 70
     2
  9
$LUPREC
 70
     4
  9
$SKETCHINC
 40
0.1
  9
$FILLETRAD
 40
0.0
  9
$AUNITS
 70
     0
  9
$AUPREC
 70
     0
  9
$MENU
  1
.
  9
$ELEVATION
 40
0.0
  9
$PELEVATION
 40
0.0
  9
$THICKNESS
 40
0.0
  9
$LIMCHECK
 70
     0
  9
$BLIPMODE
 70
     0
  9
$CHAMFERA
 40
0.0
  9
$CHAMFERB
 40
0.0
  9
$SKPOLY
 70
     0
  9
$TDCREATE
 40
2458060.468368056230247
  9
$TDUPDATE
 40
2459537.7489120368845761
  9
$TDINDWG
 40
0.3949607639
  9
$TDUSRTIMER
 40
0.3949607639
  9
$USRTIMER
 70
     1
  9
$ANGBASE
 50
0.0
  9
$ANGDIR
 70
     0
  9
$PDMODE
 70
     0
  9
$PDSIZE
 40
0.3125
  9
$PLINEWID
 40
0.0
  9
$COORDS
 70
     1
  9
$SPLFRAME
 70
     0
  9
$SPLINETYPE
 70
     6
  9
$SPLINESEGS
 70
     8
  9
$ATTDIA
 70
     1
  9
$ATTREQ
 70
     1
  9
$HANDLING
 70
     1
  9
$HANDSEED
  5
1B8AA
  9
$SURFTAB1
 70
     6
  9
$SURFTAB2
 70
     6
  9
$SURFTYPE
 70
     6
  9
$SURFU
 70
     6
  9
$SURFV
 70
     6
  9
$UCSNAME
  2

  9
$UCSORG
 10
0.0
 20
0.0
 30
0.0
  9
$UCSXDIR
 10
1.0
 20
0.0
 30
0.0
  9
$UCSYDIR
 10
0.0
 20
1.0
 30
0.0
  9
$PUCSNAME
  2

  9
$PUCSORG
 10
0.0
 20
0.0
 30
0.0
  9
$PUCSXDIR
 10
1.0
 20
0.0
 30
0.0
  9
$PUCSYDIR
 10
0.0
 20
1.0
 30
0.0
  9
$USERI1
 70
     0
  9
$USERI2
 70
     0
  9
$USERI3
 70
     0
  9
$USERI4
 70
     0
  9
$USERI5
 70
     0
  9
$USERR1
 40
0.0
  9
$USERR2
 40
0.0
  9
$USERR3
 40
0.0
  9
$USERR4
 40
0.0
  9
$USERR5
 40
0.0
  9
$WORLDVIEW
 70
     1
  9
$SHADEDGE
 70
     3
  9
$SHADEDIF
 70
    70
  9
$TILEMODE
 70
     1
  9
$MAXACTVP
 70
    64
  9
$PLIMCHECK
 70
     0
  9
$PEXTMIN
 10
1.0000000000000000E+20
 20
1.0000000000000000E+20
 30
1.0000000000000000E+20
  9
$PEXTMAX
 10
-1.0000000000000000E+20
 20
-1.0000000000000000E+20
 30
-1.0000000000000000E+20
  9
$PLIMMIN
 10
0.0
 20
0.0
  9
$PLIMMAX
 10
12.0
 20
9.0
  9
$UNITMODE
 70
     0
  9
$VISRETAIN
 70
     1
  9
$PLINEGEN
 70
     0
  9
$PSLTSCALE
 70
     1
  0
ENDSEC
  0
SECTION
  2
TABLES
  0
TABLE
  2
VPORT
 70
     1
  0
VPORT
  2
*ACTIVE
 70
     0
 10
0.0
 20
0.0
 11
1.0
 21
1.0
 12
-485.4444330389624156
 22
0.4374453254246902
 13
0.0
 23
0.0
 14
1.0
 24
1.0
 15
0.0
 25
0.0
 16
0.0
 26
0.0
 36
17.1152628219792007
 17
3803.5440673828129547
 27
125.9952621967499056
 37
0.0
 40
28.771177950012639
 41
2.344785276073619
 42
50.0
 43
0.0
 44
0.0
 50
0.0
 51
0.0
 71
     0
 72
   100
 73
     1
 74
     1
 75
     0
 76
     0
 77
     0
 78
     0
  0
ENDTAB
  0
TABLE
  2
LTYPE
 70
     2
  0
LTYPE
  2
CONTINUOUS
 70
     0
  3
Solid line
 72
    65
 73
     0
 40
0.0
  0
LTYPE
  2
PHANTOM2
 70
     0
  3
___ _ _ ___ _ _ ___ _ _ ___ _ _
 72
    65
 73
     6
 40
1.25
 49
0.625
 49
-0.125
 49
0.125
 49
-0.125
 49
0.125
 49
-0.125
  0
ENDTAB
  0
TABLE
  2
LAYER
 70
     2
  0
LAYER
  2
0
 70
     0
 62
   255
  6
CONTINUOUS
  0
LAYER
  2
DEFPOINTS
 70
     0
 62
     7
  6
CONTINUOUS
  0
ENDTAB
  0
TABLE
  2
STYLE
 70
     1
  0
STYLE
  2
STANDARD
 70
     0
 40
0.0
 41
0.8
 50
0.0
 71
     0
 42
0.2
  3
txt
  4

  0
ENDTAB
  0
TABLE
  2
VIEW
 70
     0
  0
ENDTAB
  0
TABLE
  2
UCS
 70
     0
  0
ENDTAB
  0
TABLE
  2
APPID
 70
     9
  0
APPID
  2
ACAD
 70
     0
  0
APPID
  2
ACAD_MLEADERVER
 70
     0
  0
APPID
  2
ACAD_EXEMPT_FROM_CAD_STANDARDS
 70
     0
  0
APPID
  2
ACAD_NAV_VCDISPLAY
 70
     0
  0
APPID
  2
ACAECLAYERSTANDARD
 70
     0
  0
APPID
  2
ACCMTRANSPARENCY
 70
     0
  0
APPID
  2
ACAD_DSTYLE_DIMJAG
 70
     0
  0
APPID
  2
ACAD_DSTYLE_DIMTALN
 70
     0
  0
APPID
  2
ACDBATTR
 70
     0
  0
ENDTAB
  0
TABLE
  2
DIMSTYLE
 70
     1
  0
DIMSTYLE
  2
STANDARD
 70
     0
  3

  4

  5

  6

  7

 40
1.0
 41
0.1875
 42
0.0625
 43
0.38
 44
0.125
 45
0.0
 46
0.0
 47
0.01
 48
0.01
140
0.15625
141
0.09
142
0.0
143
25.3999999999999986
144
1.0
145
0.0
146
1.0
147
0.09
 71
     1
 72
     0
 73
     1
 74
     1
 75
     0
 76
     0
 77
     0
 78
     4
170
     0
171
     2
172
     0
173
     0
174
     0
175
     0
176
     0
177
     0
178
     0
  0
ENDTAB
  0
ENDSEC
  0
SECTION
  2
BLOCKS
  0
BLOCK
  8
0
  2
$MODEL_SPACE
 70
     0
 10
0.0
 20
0.0
 30
0.0
  3
$MODEL_SPACE
  1

  0
ENDBLK
  5
21
  8
0
  0
BLOCK
 67
     1
  8
0
  2
$PAPER_SPACE
 70
     0
 10
0.0
 20
0.0
 30
0.0
  3
$PAPER_SPACE
  1

  0
ENDBLK
  5
1D
 67
     1
  8
0
  0
ENDSEC
  0
SECTION
  2
ENTITIES
  0
ATTDEF
  5
1A94C
  8
DEFPOINTS
 10
3318.0995582152149836
 20
134.0141915156578136
 30
0.0
 40
0.001
  1
K-76442H-NW
  3

  2
MODELNUMBER
 70
     0
1001
ACDBATTR
1070
     0
1070
     1
  0
ATTDEF
  5
1A94D
  8
DEFPOINTS
 10
3318.0995582152149836
 20
134.0125248489912053
 30
0.0
 40
0.001
  1

  3

  2
TRADENAME
 70
     0
1001
ACDBATTR
1070
     0
1070
     1
  0
ATTDEF
  5
1A94E
  8
DEFPOINTS
 10
3318.0995582152149836
 20
134.0108581823245117
 30
0.0
 40
0.001
  1
BATH
  3

  2
PRODUCT
 70
     0
1001
ACDBATTR
1070
     0
1070
     1
  0
LINE
  5
1B6CA
  8
0
 10
3284.8926986179581036
 20
136.3725382169814964
 30
0.0
 11
3351.3023341752559645
 21
136.3742415847646896
 31
0.0
  0
ARC
  5
1B6CB
  8
0
 10
3284.9488457494790055
 20
136.1702858463629013
 30
0.0
 40
0.2099012191458205
 50
105.5151470470273978
 51
176.8293615286972909
  0
LINE
  5
1B6CC
  8
0
 10
3284.739265838909887
 20
136.1818954494983984
 30
0.0
 11
3284.663459668825908
 21
134.0100749313984068
 31
0.0
  0
LINE
  5
1B6CD
  8
0
 10
3284.663459668825908
 20
134.0100749313984068
 30
0.0
 11
3351.5925935333848429
 21
134.0100749313984068
 31
0.0
  0
ARC
  5
1B6CE
  8
0
 10
3295.5834899087149097
 20
137.7091143782679126
 30
0.0
 40
7.0959614079114797
 50
211.4186869184597981
 51
220.5464448779000861
  0
ARC
  5
1B6CF
  8
0
 10
3362.2086615783628076
 20
221.9896786316591886
 30
0.0
 40
114.4050668891429012
 50
230.9872364820290898
 51
231.8888279661528884
  0
ARC
  5
1B6D0
  8
0
 10
-15364.9273773333006829
 20
-23462.7722622614492138
 30
0.0
 40
30079.5285010904517549
 50
51.6543821650058774
 51
51.666338071002329
  0
ARC
  5
1B6D1
  8
0
 10
3296.6814730700430118
 20
128.3739469073802866
 30
0.0
 40
0.3338727630612468
 50
241.5044148783833862
 51
278.6747275056156923
  0
ARC
  5
1B6D2
  8
0
 10
3297.3782672210841156
 20
122.3646194504285063
 30
0.0
 40
5.7159457129374989
 50
94.4889098727584269
 51
96.4936889153792947
  0
ARC
  5
1B6D3
  8
0
 10
3296.9612983915671975
 20
127.7897734108374976
 30
0.0
 40
0.274943471996117
 50
55.3231336253487811
 51
96.3472584762059938
  0
LINE
  5
1B6D4
  8
0
 10
3297.1177268008100327
 20
128.0158797255984098
 30
0.0
 11
3297.1986493815761605
 21
127.9518067894252056
 31
0.0
  0
ARC
  5
1B6D5
  8
0
 10
3296.4304419672589574
 20
127.7932298701037013
 30
0.0
 40
0.7844037677099887
 50
0.5769112050681964
 51
11.6634366992307097
  0
ARC
  5
1B6D6
  8
0
 10
3297.4978952202832261
 20
127.8039784201786944
 30
0.0
 40
0.2831035993463212
 50
180.5769112050681997
 51
196.692664583170199
  0
ARC
  5
1B6D7
  8
0
 10
3297.375064800573
 20
127.7671446686485979
 30
0.0
 40
0.1548692932584235
 50
196.692664583170199
 51
223.2329453981392078
  0
LINE
  5
1B6D8
  8
0
 10
3297.2622309225098434
 20
127.6610644444983933
 30
0.0
 11
3299.3130701645100089
 21
126.0325685346983988
 31
0.0
  0
ARC
  5
1B6D9
  8
0
 10
3299.3809887689690186
 20
126.1347609959752987
 30
0.0
 40
0.1227038547618986
 50
236.3914064513037943
 51
276.4195043191191985
  0
ARC
  5
1B6DA
  8
0
 10
3299.3094608641022205
 20
127.3481458543542999
 30
0.0
 40
1.338037679024118
 50
273.6528181316057839
 51
279.830831906868525
  0
ARC
  5
1B6DB
  8
0
 10
3299.6517350425501718
 20
125.1112847855675057
 30
0.0
 40
0.9254962756096166
 50
92.0837947661689213
 51
97.0641457193794821
  0
LINE
  5
1B6DC
  8
0
 10
3299.6180830146190601
 20
126.0361690470744946
 30
0.0
 11
3300.2619746974110058
 21
125.5263512299983972
 31
0.0
  0
ARC
  5
1B6DD
  8
0
 10
5678.0288969648318016
 20
804.7557212413956904
 30
0.0
 40
2472.8784995860942217
 50
195.9424416392400872
 51
195.9501454574657089
  0
LINE
  5
1B6DE
  8
0
 10
3300.3533233292100704
 20
125.2066499803983959
 30
0.0
 11
3302.3900291643099081
 21
123.5891139418984039
 31
0.0
  0
LINE
  5
1B6DF
  8
0
 10
3302.3900291643099081
 20
123.5891139418984039
 30
0.0
 11
3302.7258447642320789
 21
123.5755328009648935
 31
0.0
  0
LINE
  5
1B6E0
  8
0
 10
3302.7258447642320789
 20
123.5755328009648935
 30
0.0
 11
3303.3511425929100369
 21
123.0804397284984049
 31
0.0
  0
LINE
  5
1B6E1
  8
0
 10
3303.3511425929100369
 20
123.0804397284984049
 30
0.0
 11
3303.4371720194098998
 21
122.7574811768982954
 31
0.0
  0
LINE
  5
1B6E2
  8
0
 10
3303.4371720194098998
 20
122.7574811768982954
 30
0.0
 11
3304.9759328899099273
 21
121.5354091820984053
 31
0.0
  0
ARC
  5
1B6E3
  8
0
 10
3284.0816061119730875
 20
108.8987992766684982
 30
0.0
 40
23.1316138072263406
 50
47.8050296368099694
 51
55.4526402764159627
  0
ARC
  5
1B6E4
  8
0
 10
3279.3325566887037894
 20
96.5613077224486176
 30
0.0
 40
35.7353366232554208
 50
49.1086864982693001
 51
54.1490632772570919
  0
ARC
  5
1B6E5
  8
0
 10
3089.2230012277900641
 20
-182.0974658101980026
 30
0.0
 40
372.8061358849482758
 50
54.6472634509782793
 51
54.9445725812111476
  0
ARC
  5
1B6E6
  8
0
 10
3304.3519541414370906
 20
121.6776933530072
 30
0.0
 40
0.6472443961435724
 50
355.5391706332958961
 51
26.3742322492265693
  0
ARC
  5
1B6E7
  8
0
 10
3303.7259321251749498
 20
121.8734982148091035
 30
0.0
 40
1.29491548213664
 50
344.8652719379418841
 51
349.042168646212815
  0
ARC
  5
1B6E8
  8
0
 10
3305.3688884659668474
 20
121.4641724880311955
 30
0.0
 40
0.3993604278546338
 50
169.7247641577428112
 51
196.8122934931498094
  0
ARC
  5
1B6E9
  8
0
 10
3306.1371501619569244
 20
121.7314329641097004
 30
0.0
 40
1.212552712848366
 50
198.4014575863733967
 51
221.7385480262124133
  0
ARC
  5
1B6EA
  8
0
 10
3307.5887326582028436
 20
123.004550092152698
 30
0.0
 40
3.1433078737480669
 50
221.440013534256309
 51
240.9056533051731037
  0
ARC
  5
1B6EB
  8
0
 10
3308.0650495101790511
 20
124.0334539082199967
 30
0.0
 40
4.2748206026325404
 50
242.0327689640724884
 51
260.4932741367265976
  0
ARC
  5
1B6EC
  8
0
 10
3333.0104731966421241
 20
222.5716929778905921
 30
0.0
 40
105.9077630604852942
 50
255.983238766855294
 51
256.4681061276610876
  0
ARC
  5
1B6ED
  8
0
 10
3308.2499063366230985
 20
119.6557614659152051
 30
0.0
 40
0.0556957069816118
 50
248.4800670072939113
 51
2.8750203939004901
  0
ARC
  5
1B6EE
  8
0
 10
3305.2328943073471237
 20
118.2257178294381958
 30
0.0
 40
3.3902985785479731
 50
25.0006545638853588
 51
45.8815256617075633
  0
ARC
  5
1B6EF
  8
0
 10
3301.3046628911511107
 20
114.1747119691012955
 30
0.0
 40
9.0331392230883072
 50
45.8815256617075633
 51
68.7862789101230589
  0
ARC
  5
1B6F0
  8
0
 10
3303.4762806641970201
 20
121.2870874897481031
 30
0.0
 40
1.6057651879078561
 50
24.9805937236032491
 51
38.2805965987760075
  0
ARC
  5
1B6F1
  8
0
 10
3307.344748065092972
 20
124.3400923497680992
 30
0.0
 40
3.3223052972932559
 50
214.4900503229258959
 51
218.2805965987759862
  0
ARC
  5
1B6F2
  8
0
 10
3304.8087081993548964
 20
122.597768780324202
 30
0.0
 40
0.2454254456807844
 50
187.49399701446211
 51
214.4900503229258959
  0
ARC
  5
1B6F3
  8
0
 10
3304.6059428683151964
 20
122.5710958300829958
 30
0.0
 40
0.0409132804043379
 50
142.9612594767287135
 51
187.4939970144606036
  0
ARC
  5
1B6F4
  8
0
 10
206981.660689298005309
 20
256574.7030476680083666
 30
0.0
 40
327494.151241539278999
 50
231.5436472448722043
 51
231.5438261088831098
  0
ARC
  5
1B6F5
  8
0
 10
3375.8666166361299474
 20
204.8674066409353998
 30
0.0
 40
109.3440091840031982
 50
231.5438261088831098
 51
232.0134819447110033
  0
ARC
  5
1B6F6
  8
0
 10
3301.9859373677250005
 20
100.2663208001560946
 30
0.0
 40
19.5616081187030915
 50
69.7341207969247705
 51
70.3375258268013397
  0
ARC
  5
1B6F7
  8
0
 10
3303.4681294385491128
 20
114.7355146046477046
 30
0.0
 40
6.564059607903773
 50
30.5686733612852386
 51
36.2507417553286473
  0
ARC
  5
1B6F8
  8
0
 10
3310.2948670235668942
 20
118.7764075435782019
 30
0.0
 40
1.3689993978509329
 50
210.8788685698920915
 51
227.8540853362598
  0
ARC
  5
1B6F9
  8
0
 10
3310.2759847954989709
 20
118.8213834062485006
 30
0.0
 40
1.3903779467540891
 50
229.6749857116460873
 51
253.9196630057114987
  0
ARC
  5
1B6FA
  8
0
 10
3338.7124219113939034
 20
253.8797560540315885
 30
0.0
 40
139.4062437181918028
 50
258.0683282758615746
 51
258.3065556965971723
  0
ARC
  5
1B6FB
  8
0
 10
3305.2120828191991677
 20
121.4894872662022038
 30
0.0
 40
0.2404639592681954
 50
125.7583889818153011
 51
161.9302664236948885
  0
ARC
  5
1B6FC
  8
0
 10
3305.3171419766990766
 20
121.3435959445514953
 30
0.0
 40
0.4202463396832196
 50
98.0995547739616569
 51
125.7583889818153011
  0
ARC
  5
1B6FD
  8
0
 10
3305.4001298577841226
 20
120.7604602156869049
 30
0.0
 40
1.009257601617406
 50
76.3753870611431722
 51
98.0995547739616569
  0
ARC
  5
1B6FE
  8
0
 10
3304.9397495270281979
 20
118.8610464893495049
 30
0.0
 40
2.9636686517156359
 50
64.6778825337971313
 51
76.3753870611431722
  0
ARC
  5
1B6FF
  8
0
 10
3304.7856748637509554
 20
118.535424410617594
 30
0.0
 40
3.3239029366212391
 50
48.4790258836430894
 51
64.6778825337971313
  0
ARC
  5
1B700
  8
0
 10
3305.4686686097870734
 20
119.3068392023160982
 30
0.0
 40
2.293581997314214
 50
31.668476432367239
 51
48.4790258836430894
  0
ARC
  5
1B701
  8
0
 10
3306.9174578176430259
 20
120.2005288651426014
 30
0.0
 40
0.5913272037405536
 50
6.7133937161957498
 51
31.668476432367239
  0
ARC
  5
1B702
  8
0
 10
3307.1414720387360831
 20
120.2268975787226992
 30
0.0
 40
0.3657663908590973
 50
340.1102413818031209
 51
6.7133937161957498
  0
ARC
  5
1B703
  8
0
 10
3307.2249439191909914
 20
120.2299351808057963
 30
0.0
 40
0.2899962766836372
 50
285.0851553992952176
 51
333.9231419652185195
  0
ARC
  5
1B704
  8
0
 10
3307.1219097280982169
 20
121.4723727738202967
 30
0.0
 40
1.5524289676355141
 50
256.516151235891698
 51
268.2139346826220958
  0
ARC
  5
1B705
  8
0
 10
3307.0959970263188552
 20
120.6413799246388976
 30
0.0
 40
0.7210322010409339
 50
268.2139346826220958
 51
286.4697921320187106
  0
ARC
  5
1B706
  8
0
 10
3305.6011037426669645
 20
121.2521474192197957
 30
0.0
 40
0.1880771724708312
 50
87.5160209099821742
 51
174.5635065560516921
  0
ARC
  5
1B707
  8
0
 10
3305.6713363026001389
 20
120.4337627948099936
 30
0.0
 40
1.0081982642044089
 50
67.4124176550672445
 51
93.530305128460796
  0
ARC
  5
1B708
  8
0
 10
3305.300943385978826
 20
119.3615258440110978
 30
0.0
 40
2.141593535888171
 50
42.9804531285514528
 51
69.2817629699037951
  0
ARC
  5
1B709
  8
0
 10
3306.2271645539908604
 20
120.2246504796299007
 30
0.0
 40
0.8755485964465028
 50
19.1452921438926396
 51
42.9804531285514528
  0
ARC
  5
1B70A
  8
0
 10
3306.8639804562890276
 20
120.4457316759089025
 30
0.0
 40
0.201448167157537
 50
316.9400281215104087
 51
19.1452921438926396
  0
ARC
  5
1B70B
  8
0
 10
3305.728379783975015
 20
121.2508586486572995
 30
0.0
 40
0.3150871102543931
 50
176.5233106607061018
 51
204.4891225697373045
  0
ARC
  5
1B70C
  8
0
 10
3307.0533938592448067
 20
122.0975340797051985
 30
0.0
 40
1.8848989772283899
 50
211.2304571621569949
 51
253.0649021458141021
  0
ARC
  5
1B70D
  8
0
 10
3306.813123331512088
 20
121.264444055797199
 30
0.0
 40
1.0180283452652359
 50
252.3434679165983994
 51
267.301697039243777
  0
ARC
  5
1B70E
  8
0
 10
3306.7861332199518074
 20
120.6917596383136981
 30
0.0
 40
0.4447082704811275
 50
267.301697039243777
 51
300.3993747297452046
  0
ARC
  5
1B70F
  8
0
 10
3305.8777827634498863
 20
121.3699670084052968
 30
0.0
 40
0.3872760990430748
 50
174.7444838128998867
 51
217.701847710167101
  0
ARC
  5
1B710
  8
0
 10
3306.6863869662438447
 20
121.8654658508245063
 30
0.0
 40
1.3340112601806799
 50
213.2967066034109109
 51
227.777897490266696
  0
ARC
  5
1B711
  8
0
 10
3307.2956242063951322
 20
122.5196356958036006
 30
0.0
 40
2.2278950120091099
 50
227.4805617852489092
 51
243.4380384282773093
  0
ARC
  5
1B712
  8
0
 10
3307.1166190507087776
 20
122.1356167882400996
 30
0.0
 40
1.804401235385545
 50
243.0694252634995109
 51
254.0756363969040024
  0
ARC
  5
1B713
  8
0
 10
3306.8444849949009949
 20
120.9998921996997012
 30
0.0
 40
0.6395463789870658
 50
249.5992178303928029
 51
275.0124533003595957
  0
ARC
  5
1B714
  8
0
 10
3306.8673108224829775
 20
120.7396433030871066
 30
0.0
 40
0.3782983998696708
 50
275.0124533003595957
 51
301.1906364769913012
  0
ARC
  5
1B715
  8
0
 10
3306.2109317438039398
 20
117.4179104478726998
 30
0.0
 40
2.8184774900468348
 50
25.1778747695248093
 51
53.6782732152211608
  0
ARC
  5
1B716
  8
0
 10
3351.3013233314059107
 20
135.886643512432812
 30
0.0
 40
0.4875991201253682
 50
84.9117489083209591
 51
89.8812197859766115
  0
ARC
  5
1B717
  8
0
 10
3351.3287431852049849
 20
136.19451452854031
 30
0.0
 40
0.1785094716111318
 50
41.7959800277909324
 51
84.9139006522724031
  0
ARC
  5
1B718
  8
0
 10
3351.29931389764306
 20
136.1682054238465867
 30
0.0
 40
0.217984171814984
 50
4.0695265504673257
 51
41.7959800277909324
  0
LINE
  5
1B719
  8
0
 10
3351.516748459127939
 20
136.1836750920427903
 30
0.0
 11
3351.5925935333848429
 21
134.0100749313984068
 31
0.0
  0
ARC
  5
1B71A
  8
0
 10
3285.5604638019131016
 20
121.2643356124344933
 30
0.0
 40
13.5065363925833104
 50
47.4209839899153565
 51
70.6776468161872629
  0
ARC
  5
1B71B
  8
0
 10
3287.4765519233319537
 20
122.3350201584705985
 30
0.0
 40
11.4423164678991807
 50
36.4229458835348012
 51
50.8604498746730087
  0
ARC
  5
1B71C
  8
0
 10
3294.9532236912550616
 20
127.6838352824132983
 30
0.0
 40
2.2544160387511871
 50
19.8911343894633887
 51
39.8624117682989478
  0
ARC
  5
1B71D
  8
0
 10
3296.0476533244668644
 20
128.079821752960612
 30
0.0
 40
1.0905511381247821
 50
355.9012486989570903
 51
19.8911343894633887
  0
ARC
  5
1B71F
  8
0
 10
3285.1066843698181401
 20
136.8096481411413947
 30
0.0
 40
0.4509480833888412
 50
284.2308359928284176
 51
309.9319883534012092
  0
ARC
  5
1B720
  8
0
 10
3284.957558417609107
 20
136.9877985666036864
 30
0.0
 40
0.6832757048951857
 50
309.9319883534012092
 51
328.5107837002965994
  0
ARC
  5
1B721
  8
0
 10
3285.8293039908830906
 20
136.4538178515624907
 30
0.0
 40
0.3390137592778808
 50
121.0882767887503064
 51
148.5107837002965994
  0
ARC
  5
1B722
  8
0
 10
3285.7837213877969589
 20
136.5294159644614922
 30
0.0
 40
0.2507366479864612
 50
90.9772815321923076
 51
121.0882767887503064
  0
ARC
  5
1B723
  8
0
 10
3283.9488709541187745
 20
95.2405951996402109
 30
0.0
 40
41.5798364672519369
 50
86.5062068341427874
 51
87.4767079944835189
  0
ARC
  5
1B724
  8
0
 10
3292.7625334885869961
 20
212.3485292409363865
 30
0.0
 40
75.8657276862991097
 50
265.2519208912023032
 51
267.3904426924942754
  0
ARC
  5
1B725
  8
0
 10
3304.2904968190359796
 20
522.5708019997057363
 30
0.0
 40
386.2999660587465769
 50
267.7773062636126156
 51
268.6852288676216745
  0
LINE
  5
1B726
  8
0
 10
3348.8573999028271828
 20
134.0100749313984068
 30
0.0
 11
3348.3138737674721597
 21
125.7170336909814949
 31
0.0
  0
ARC
  5
1B727
  8
0
 10
3339.3576432033391939
 20
126.335595932640004
 30
0.0
 40
8.9775656591698336
 50
349.7223250078912997
 51
356.0491397177881936
  0
ARC
  5
1B728
  8
0
 10
3346.4005265930650239
 20
125.0322443399857946
 30
0.0
 40
1.8153295887326359
 50
320.4906877401609222
 51
350.5384177566149901
  0
ARC
  5
1B729
  8
0
 10
3333.4099555628909002
 20
119.8978447425583056
 30
0.0
 40
1.9304768078666701
 50
127.3936961715399008
 51
183.767474182334297
  0
ARC
  5
1B72A
  8
0
 10
3333.468475012943145
 20
119.8212870238511982
 30
0.0
 40
2.0268386796211431
 50
61.5710072596064606
 51
127.3936961715399008
  0
ARC
  5
1B72B
  8
0
 10
3333.550495666740062
 20
119.972797752521501
 30
0.0
 40
1.854551452725292
 50
1.473433193035337
 51
61.5710072596064606
  0
ARC
  5
1B72C
  8
0
 10
3333.4334840380788592
 20
119.9697879874861997
 30
0.0
 40
1.971601783469537
 50
315.9221335054966744
 51
1.473433193035337
  0
ARC
  5
1B72D
  8
0
 10
3333.4205801165257981
 20
119.9822830950154042
 30
0.0
 40
1.989563935445539
 50
239.1308065115956936
 51
315.9221335054966744
  0
ARC
  5
1B72E
  8
0
 10
3333.3695412919191767
 20
119.8968992831156015
 30
0.0
 40
1.8900885266661489
 50
183.8193745397005046
 51
239.1308065115956936
  0
ARC
  5
1B72F
  8
0
 10
3333.4574990718369918
 20
119.8794323121130958
 30
0.0
 40
1.695506400818809
 50
76.283360716419665
 51
170.5047356523714939
  0
ARC
  5
1B730
  8
0
 10
3333.4666624326991951
 20
119.9169745434236063
 30
0.0
 40
1.656862043998629
 50
8.3655924353479847
 51
76.283360716419665
  0
ARC
  5
1B731
  8
0
 10
3333.4663350991631887
 20
119.946710084955896
 30
0.0
 40
1.6531223452026791
 50
300.9230703291589748
 51
7.3442456008802273
  0
ARC
  5
1B732
  8
0
 10
3333.4256436612640755
 20
119.9374624168526964
 30
0.0
 40
1.666571909830262
 50
210.4949492969633127
 51
302.28667771459601
  0
ARC
  5
1B733
  8
0
 10
3333.381632820194227
 20
119.9115432757237016
 30
0.0
 40
1.615495927131674
 50
171.1841333509746903
 51
210.4949492969633127
  0
ARC
  5
1B734
  8
0
 10
3346.8972700333961257
 20
-615.3191608399107508
 30
0.0
 40
741.9802578120878707
 50
91.0753493540815953
 51
93.5712734597478146
  0
ARC
  5
1B735
  8
0
 10
3311.8434994122599164
 20
867.6003211215447664
 30
0.0
 40
741.3710455484681461
 50
271.6331308200470858
 51
272.8274310774353921
  0
ARC
  5
1B736
  8
0
 10
2692.3122157256739229
 20
-25815.9725786100098048
 30
0.0
 40
25940.7053283002096578
 50
88.6253765659105568
 51
88.634557850035165
  0
ARC
  5
1B737
  8
0
 10
3346.9159134183028073
 20
124.7752611880278977
 30
0.0
 40
1.2608846490012029
 50
290.5158075042173209
 51
314.5900716358577824
  0
ARC
  5
1B738
  8
0
 10
3346.8468475825579844
 20
124.9598309063074026
 30
0.0
 40
1.457953344062213
 50
270.002990787166425
 51
290.5158075042173209
  0
ARC
  5
1B739
  8
0
 10
3346.8471098549248381
 20
119.9353678120905045
 30
0.0
 40
3.5665097569999249
 50
90.002990787166425
 51
94.9923725105028325
  0
ARC
  5
1B73A
  8
0
 10
3346.5306503127972064
 20
122.7360747757902999
 30
0.0
 40
0.7522971523391641
 50
89.5361188235532239
 51
107.9146974896680007
  0
ARC
  5
1B73B
  8
0
 10
3346.3308792531588551
 20
123.308704657807894
 30
0.0
 40
0.1466456455587834
 50
102.4584438027287945
 51
167.2352811452421122
  0
LINE
  5
1B73C
  8
0
 10
3346.1878578677960832
 20
123.3411057178265935
 30
0.0
 11
3345.9922945204530151
 21
122.6327662339260058
 31
0.0
  0
ARC
  5
1B73D
  8
0
 10
3345.8097167644978072
 20
122.251432793079104
 30
0.0
 40
0.4226643690315252
 50
353.2397642849580279
 51
64.270636662848446
  0
ARC
  5
1B73E
  8
0
 10
3339.2393855690438613
 20
123.8659794892089963
 30
0.0
 40
7.1854570289460904
 50
329.0706961094713279
 51
346.6074923806515926
  0
ARC
  5
1B73F
  8
0
 10
3344.2028970129767913
 20
119.8355084884045993
 30
0.0
 40
3.320638212182577
 50
57.3745116649967386
 51
64.765573806432414
  0
ARC
  5
1B740
  8
0
 10
3347.7325772060771669
 20
120.7261753848295029
 30
0.0
 40
2.989012897193895
 50
135.0126030905113055
 51
175.3205515410058126
  0
ARC
  5
1B741
  8
0
 10
3349.5996915013338366
 20
120.5612036313437017
 30
0.0
 40
4.863377183122406
 50
175.1779913771925976
 51
188.4206529284610951
  0
ARC
  5
1B742
  8
0
 10
3345.3086212155239991
 20
119.924105944664106
 30
0.0
 40
0.5252732102183574
 50
188.2192016247554136
 51
217.0238871004366104
  0
ARC
  5
1B743
  8
0
 10
3344.9553875004958172
 20
119.6591490552216044
 30
0.0
 40
0.0837216882076684
 50
217.8187734764767924
 51
302.6143191968894257
  0
ARC
  5
1B744
  8
0
 10
3343.2547617443228773
 20
121.4314667261273968
 30
0.0
 40
2.4898883787424251
 50
319.5739123184379764
 51
329.634646418085822
  0
ARC
  5
1B745
  8
0
 10
3344.0101543412188221
 20
120.3473669127301946
 30
0.0
 40
1.25741045312158
 50
324.9495704823469282
 51
335.0449920362780745
  0
ARC
  5
1B746
  8
0
 10
3344.8767974579959628
 20
119.759572782574196
 30
0.0
 40
0.2110144946551292
 50
305.8937659663832278
 51
320.4607717467201837
  0
ARC
  5
1B747
  8
0
 10
3343.6586298207480468
 20
117.5526759890065023
 30
0.0
 40
1.0200659812589321
 50
264.2554242790311037
 51
349.0045911005253743
  0
LINE
  5
1B748
  8
0
 10
3344.6599699099360805
 20
117.3581184604815064
 30
0.0
 11
3345.361036183485794
 21
120.1041736030815059
 31
0.0
  0
LINE
  5
1B749
  8
0
 10
3314.614259141570983
 20
117.2673481030275013
 30
0.0
 11
3343.5565274731361569
 21
116.5377327803815035
 31
0.0
  0
LINE
  5
1B74A
  8
0
 10
3343.5565274731361569
 20
116.5377327803815035
 30
0.0
 11
3343.5701929622059652
 21
116.1842026836853989
 31
0.0
  0
LINE
  5
1B74B
  8
0
 10
3343.5701929622059652
 20
116.1842026836853989
 30
0.0
 11
3340.5889525668358147
 21
116.0958186561815069
 31
0.0
  0
LINE
  5
1B74C
  8
0
 10
3340.5889525668358147
 20
116.0958186561815069
 30
0.0
 11
3337.5501637551360545
 21
116.0889072046815045
 31
0.0
  0
LINE
  5
1B74D
  8
0
 10
3337.5501637551360545
 20
116.0889072046815045
 30
0.0
 11
3322.2910626191519441
 21
116.6669279409486961
 31
0.0
  0
LINE
  5
1B74E
  8
0
 10
3322.2910626191519441
 20
116.6669279409486961
 30
0.0
 11
3322.2910626191519441
 21
117.0738209965125947
 31
0.0
  0
ARC
  5
1B74F
  8
0
 10
3321.5345872909210811
 20
119.1689930087276963
 30
0.0
 40
2.4105727199906579
 50
272.0877377251039775
 51
288.2893275467500871
  0
ARC
  5
1B750
  8
0
 10
3319.7097471493129888
 20
169.2276567468607027
 30
0.0
 40
52.5024868058977674
 50
271.4061485795966178
 51
272.0877377251039775
  0
ARC
  5
1B751
  8
0
 10
3237.4092901460780922
 20
-2924.2172559492491928
 30
0.0
 40
3042.1068504407121509
 50
88.4254693151344355
 51
88.6243991063138168
  0
LINE
  5
1B752
  8
0
 10
3310.4395014849878862
 20
117.0128697942964067
 30
0.0
 11
3310.4586144742361284
 21
117.3667350884303033
 31
0.0
  0
ARC
  5
1B754
  8
0
 10
3345.936052210176058
 20
122.1366270875027027
 30
0.0
 40
0.2734813153662791
 50
355.9907630587629228
 51
16.5708189845935188
  0
ARC
  5
1B755
  8
0
 10
3346.1687363922319491
 20
122.1904958310649931
 30
0.0
 40
0.0380633467885311
 50
39.3381377171223008
 51
141.0404571886469114
  0
ARC
  5
1B756
  8
0
 10
3347.5735524975630142
 20
120.8595228099070056
 30
0.0
 40
1.973148154826089
 50
136.6327341400578064
 51
152.797161095316909
  0
ARC
  5
1B757
  8
0
 10
3360.0054204197549552
 20
114.4696318564019037
 30
0.0
 40
15.9510609615548393
 50
152.797161095316909
 51
157.1681763858177021
  0
ARC
  5
1B758
  8
0
 10
3348.412861123752009
 20
119.3502734236522969
 30
0.0
 40
3.3729810946074248
 50
157.1681763858177021
 51
168.8722742530023879
  0
ARC
  5
1B759
  8
0
 10
3345.4176780928910375
 20
119.9394102893236038
 30
0.0
 40
0.3204078137743108
 50
168.8722742530023879
 51
185.5796629318874125
  0
ARC
  5
1B75A
  8
0
 10
3345.1973379794521861
 20
119.917884710924497
 30
0.0
 40
0.099018753259482
 50
185.5796629318874125
 51
205.9298814900940897
  0
ARC
  5
1B75B
  8
0
 10
3345.1326784146681348
 20
119.8864460296951933
 30
0.0
 40
0.0271212568119522
 50
205.9298814900969887
 51
304.9982156539563789
  0
ARC
  5
1B75C
  8
0
 10
3342.5584390288217946
 20
123.5630845699296998
 30
0.0
 40
4.515370288581571
 50
304.9982156539563789
 51
306.4736466590561008
  0
ARC
  5
1B75D
  8
0
 10
3349.3215964707110288
 20
119.3991192527823983
 30
0.0
 40
4.131605992435615
 50
142.6726042528597134
 51
169.1012185656927045
  0
ARC
  5
1B75E
  8
0
 10
3342.8853564392579756
 20
122.2799531391683985
 30
0.0
 40
3.1731573731451639
 50
318.5709686474348246
 51
353.2028553785378904
  0
ARC
  5
1B75F
  8
0
 10
3340.1802062752490201
 20
123.5040939210637987
 30
0.0
 40
5.9751785981101984
 50
329.6044137033558741
 51
342.0303091156264941
  0
ENDSEC
  0
EOF
