  0
SECTION
  2
HEADER
  9
$ACADVER
  1
AC1009
  9
$INSBASE
 10
3371.1028571899960298
 20
165.9541343855109972
 30
0.0
  9
$EXTMIN
 10
3335.6031094559239136
 20
148.2286821298096129
 30
-0.0000000000000058
  9
$EXTMAX
 10
3406.5590061504449295
 20
183.6827135211134987
 30
0.0000000000000104
  9
$LIMMIN
 10
0.0
 20
0.0
  9
$LIMMAX
 10
11.6929133858000007
 20
8.2677165353999982
  9
$ORTHOMODE
 70
     1
  9
$REGENMODE
 70
     1
  9
$FILLMODE
 70
     1
  9
$QTEXTMODE
 70
     0
  9
$MIRRTEXT
 70
     0
  9
$DRAGMODE
 70
     2
  9
$LTSCALE
 40
0.6431102362
  9
$OSMODE
 70
  4095
  9
$ATTMODE
 70
     1
  9
$TEXTSIZE
 40
0.2
  9
$TRACEWID
 40
0.05
  9
$TEXTSTYLE
  7
STANDARD
  9
$CLAYER
  8
0
  9
$CELTYPE
  6
BYLAYER
  9
$CECOLOR
 62
   256
  9
$DIMSCALE
 40
1.0
  9
$DIMASZ
 40
0.1875
  9
$DIMEXO
 40
0.0625
  9
$DIMDLI
 40
0.4443307087
  9
$DIMRND
 40
0.0
  9
$DIMDLE
 40
0.0
  9
$DIMEXE
 40
0.125
  9
$DIMTP
 40
0.01
  9
$DIMTM
 40
0.01
  9
$DIMTXT
 40
2.0
  9
$DIMCEN
 40
0.1052362205
  9
$DIMTSZ
 40
0.0
  9
$DIMTOL
 70
     1
  9
$DIMLIM
 70
     0
  9
$DIMTIH
 70
     1
  9
$DIMTOH
 70
     1
  9
$DIMSE1
 70
     0
  9
$DIMSE2
 70
     0
  9
$DIMTAD
 70
     0
  9
$DIMZIN
 70
     0
  9
$DIMBLK
  1

  9
$DIMASO
 70
     1
  9
$DIMSHO
 70
     1
  9
$DIMPOST
  1
\X
  9
$DIMAPOST
  1

  9
$DIMALT
 70
     1
  9
$DIMALTD
 70
     2
  9
$DIMALTF
 40
25.3999999999999986
  9
$DIMLFAC
 40
1.0
  9
$DIMTOFL
 70
     0
  9
$DIMTVP
 40
0.0
  9
$DIMTIX
 70
     0
  9
$DIMSOXD
 70
     0
  9
$DIMSAH
 70
     0
  9
$DIMBLK1
  1

  9
$DIMBLK2
  1

  9
$DIMSTYLE
  2
STANDARD
  9
$DIMCLRD
 70
     0
  9
$DIMCLRE
 70
     0
  9
$DIMCLRT
 70
     0
  9
$DIMTFAC
 40
1.0
  9
$DIMGAP
 40
0.09
  9
$LUNITS
 70
     2
  9
$LUPREC
 70
     4
  9
$SKETCHINC
 40
0.1
  9
$FILLETRAD
 40
0.0
  9
$AUNITS
 70
     0
  9
$AUPREC
 70
     0
  9
$MENU
  1
.
  9
$ELEVATION
 40
0.0
  9
$PELEVATION
 40
0.0
  9
$THICKNESS
 40
0.0
  9
$LIMCHECK
 70
     0
  9
$BLIPMODE
 70
     0
  9
$CHAMFERA
 40
0.0
  9
$CHAMFERB
 40
0.0
  9
$SKPOLY
 70
     0
  9
$TDCREATE
 40
2458060.468368056230247
  9
$TDUPDATE
 40
2459531.491064814850688
  9
$TDINDWG
 40
0.3868357639
  9
$TDUSRTIMER
 40
0.3868357639
  9
$USRTIMER
 70
     1
  9
$ANGBASE
 50
0.0
  9
$ANGDIR
 70
     0
  9
$PDMODE
 70
     0
  9
$PDSIZE
 40
0.3125
  9
$PLINEWID
 40
0.0
  9
$COORDS
 70
     1
  9
$SPLFRAME
 70
     0
  9
$SPLINETYPE
 70
     6
  9
$SPLINESEGS
 70
     8
  9
$ATTDIA
 70
     1
  9
$ATTREQ
 70
     1
  9
$HANDLING
 70
     1
  9
$HANDSEED
  5
19EF0
  9
$SURFTAB1
 70
     6
  9
$SURFTAB2
 70
     6
  9
$SURFTYPE
 70
     6
  9
$SURFU
 70
     6
  9
$SURFV
 70
     6
  9
$UCSNAME
  2

  9
$UCSORG
 10
0.0
 20
0.0
 30
0.0
  9
$UCSXDIR
 10
1.0
 20
0.0
 30
0.0
  9
$UCSYDIR
 10
0.0
 20
1.0
 30
0.0
  9
$PUCSNAME
  2

  9
$PUCSORG
 10
0.0
 20
0.0
 30
0.0
  9
$PUCSXDIR
 10
1.0
 20
0.0
 30
0.0
  9
$PUCSYDIR
 10
0.0
 20
1.0
 30
0.0
  9
$USERI1
 70
     0
  9
$USERI2
 70
     0
  9
$USERI3
 70
     0
  9
$USERI4
 70
     0
  9
$USERI5
 70
     0
  9
$USERR1
 40
0.0
  9
$USERR2
 40
0.0
  9
$USERR3
 40
0.0
  9
$USERR4
 40
0.0
  9
$USERR5
 40
0.0
  9
$WORLDVIEW
 70
     1
  9
$SHADEDGE
 70
     3
  9
$SHADEDIF
 70
    70
  9
$TILEMODE
 70
     1
  9
$MAXACTVP
 70
    64
  9
$PLIMCHECK
 70
     0
  9
$PEXTMIN
 10
1.0000000000000000E+20
 20
1.0000000000000000E+20
 30
1.0000000000000000E+20
  9
$PEXTMAX
 10
-1.0000000000000000E+20
 20
-1.0000000000000000E+20
 30
-1.0000000000000000E+20
  9
$PLIMMIN
 10
0.0
 20
0.0
  9
$PLIMMAX
 10
12.0
 20
9.0
  9
$UNITMODE
 70
     0
  9
$VISRETAIN
 70
     1
  9
$PLINEGEN
 70
     0
  9
$PSLTSCALE
 70
     1
  0
ENDSEC
  0
SECTION
  2
TABLES
  0
TABLE
  2
VPORT
 70
     1
  0
VPORT
  2
*ACTIVE
 70
     0
 10
0.0
 20
0.0
 11
1.0
 21
1.0
 12
-432.4630095796281921
 22
39.9604356287116715
 13
0.0
 23
0.0
 14
1.0
 24
1.0
 15
0.0
 25
0.0
 16
0.0
 26
0.0
 36
17.1152628219792007
 17
3803.5440673828129547
 27
125.9952621967499056
 37
0.0
 40
35.7147227985929518
 41
2.344785276073619
 42
50.0
 43
0.0
 44
0.0
 50
0.0
 51
0.0
 71
     0
 72
   100
 73
     1
 74
     1
 75
     0
 76
     0
 77
     0
 78
     0
  0
ENDTAB
  0
TABLE
  2
LTYPE
 70
     2
  0
LTYPE
  2
CONTINUOUS
 70
     0
  3
Solid line
 72
    65
 73
     0
 40
0.0
  0
LTYPE
  2
PHANTOM2
 70
     0
  3
___ _ _ ___ _ _ ___ _ _ ___ _ _
 72
    65
 73
     6
 40
1.25
 49
0.625
 49
-0.125
 49
0.125
 49
-0.125
 49
0.125
 49
-0.125
  0
ENDTAB
  0
TABLE
  2
LAYER
 70
     2
  0
LAYER
  2
0
 70
     0
 62
   255
  6
CONTINUOUS
  0
LAYER
  2
DEFPOINTS
 70
     0
 62
     7
  6
CONTINUOUS
  0
ENDTAB
  0
TABLE
  2
STYLE
 70
     1
  0
STYLE
  2
STANDARD
 70
     0
 40
0.0
 41
0.8
 50
0.0
 71
     0
 42
0.2
  3
txt
  4

  0
ENDTAB
  0
TABLE
  2
VIEW
 70
     0
  0
ENDTAB
  0
TABLE
  2
UCS
 70
     0
  0
ENDTAB
  0
TABLE
  2
APPID
 70
     9
  0
APPID
  2
ACAD
 70
     0
  0
APPID
  2
ACAD_MLEADERVER
 70
     0
  0
APPID
  2
ACAD_EXEMPT_FROM_CAD_STANDARDS
 70
     0
  0
APPID
  2
ACAD_NAV_VCDISPLAY
 70
     0
  0
APPID
  2
ACAECLAYERSTANDARD
 70
     0
  0
APPID
  2
ACCMTRANSPARENCY
 70
     0
  0
APPID
  2
ACAD_DSTYLE_DIMJAG
 70
     0
  0
APPID
  2
ACAD_DSTYLE_DIMTALN
 70
     0
  0
APPID
  2
ACDBATTR
 70
     0
  0
ENDTAB
  0
TABLE
  2
DIMSTYLE
 70
     1
  0
DIMSTYLE
  2
STANDARD
 70
     0
  3

  4

  5

  6

  7

 40
1.0
 41
0.1875
 42
0.0625
 43
0.38
 44
0.125
 45
0.0
 46
0.0
 47
0.01
 48
0.01
140
0.15625
141
0.09
142
0.0
143
25.3999999999999986
144
1.0
145
0.0
146
1.0
147
0.09
 71
     1
 72
     0
 73
     1
 74
     1
 75
     0
 76
     0
 77
     0
 78
     4
170
     0
171
     2
172
     0
173
     0
174
     0
175
     0
176
     0
177
     0
178
     0
  0
ENDTAB
  0
ENDSEC
  0
SECTION
  2
BLOCKS
  0
BLOCK
  8
0
  2
$MODEL_SPACE
 70
     0
 10
0.0
 20
0.0
 30
0.0
  3
$MODEL_SPACE
  1

  0
ENDBLK
  5
21
  8
0
  0
BLOCK
 67
     1
  8
0
  2
$PAPER_SPACE
 70
     0
 10
0.0
 20
0.0
 30
0.0
  3
$PAPER_SPACE
  1

  0
ENDBLK
  5
1D
 67
     1
  8
0
  0
ENDSEC
  0
SECTION
  2
ENTITIES
  0
LINE
  5
19221
  8
0
 10
3336.0448635988868773
 20
183.6708682024735992
 30
0.0
 11
3406.1608507688779355
 21
183.670868202473514
 31
0.0
  0
LINE
  5
19222
  8
0
 10
3336.0448636316032207
 20
148.2374005685485088
 30
0.0
 11
3406.1608508015951884
 21
148.2374005685485088
 31
0.0
  0
LINE
  5
19223
  8
0
 10
3406.5362421974491554
 20
148.6128908585168915
 30
0.0
 11
3406.5362421647319024
 21
183.2953779125051881
 31
0.0
  0
LINE
  5
19224
  8
0
 10
3335.6694722030320008
 20
183.295377912504506
 30
0.0
 11
3335.6694722357478895
 21
148.6128908585174884
 31
0.0
  0
ARC
  5
19225
  8
0
 10
3405.6959808578740194
 20
148.6324496844179919
 30
0.0
 40
0.8404889448742514
 50
346.5622373374609992
 51
358.6665626587658835
  0
ARC
  5
19226
  8
0
 10
3406.2561412992768055
 20
148.4986104365358131
 30
0.0
 40
0.2645612893590775
 50
326.4605477472019857
 51
346.5622373374609992
  0
ARC
  5
19227
  8
0
 10
3406.3098939489209442
 20
148.462979082106699
 30
0.0
 40
0.2000714392883579
 50
294.5168653849650013
 51
326.4605477472032931
  0
ARC
  5
19228
  8
0
 10
3406.2258157014380231
 20
148.6473281367426011
 30
0.0
 40
0.4026886291933874
 50
278.1671040616554933
 51
294.5168653849650013
  0
ARC
  5
19229
  8
0
 10
3406.1090834998922219
 20
149.4607012175939929
 30
0.0
 40
1.2243954963494119
 50
272.4231813198982195
 51
278.1671040616554933
  0
ARC
  5
1922A
  8
0
 10
3405.6959808251572213
 20
183.2758190866040877
 30
0.0
 40
0.8404889448742514
 50
1.3334373412341101
 51
13.4377626625389599
  0
ARC
  5
1922B
  8
0
 10
3406.2561412665600074
 20
183.4096583344862097
 30
0.0
 40
0.2645612893590775
 50
13.4377626625389599
 51
33.5394522527966572
  0
ARC
  5
1922C
  8
0
 10
3406.3098939162041461
 20
183.4452896889152953
 30
0.0
 40
0.2000714392883579
 50
33.5394522527966572
 51
65.4831346150349702
  0
ARC
  5
1922D
  8
0
 10
3406.2258156687212249
 20
183.2609406342795069
 30
0.0
 40
0.4026886291933874
 50
65.4831346150349702
 51
81.8328959383702852
  0
ARC
  5
1922E
  8
0
 10
3406.109083467174969
 20
182.4475675534280015
 30
0.0
 40
1.2243954963494119
 50
81.8328959383702852
 51
87.5768186801017947
  0
LINE
  5
1922F
  8
0
 10
3335.6694722357478895
 20
148.6128908585168915
 30
0.0
 11
3335.6694722030320008
 21
183.2953779125051881
 31
0.0
  0
ARC
  5
19230
  8
0
 10
3336.5097335753239349
 20
148.6324496844179919
 30
0.0
 40
0.8404889448742514
 50
181.3334373412340881
 51
193.4377626625390008
  0
ARC
  5
19231
  8
0
 10
3335.9495731339197846
 20
148.4986104365358131
 30
0.0
 40
0.2645612893590775
 50
193.4377626625390008
 51
213.5394522527965933
  0
ARC
  5
19232
  8
0
 10
3335.8958204842770101
 20
148.462979082106699
 30
0.0
 40
0.2000714392883579
 50
213.5394522527965933
 51
245.4831346150349134
  0
ARC
  5
19233
  8
0
 10
3335.9798987317608407
 20
148.6473281367426011
 30
0.0
 40
0.4026886291933874
 50
245.4831346150349134
 51
261.8328959383703136
  0
ARC
  5
19234
  8
0
 10
3336.096630933304823
 20
149.4607012175939929
 30
0.0
 40
1.2243954963494119
 50
261.8328959383703136
 51
267.5768186801017805
  0
ARC
  5
19235
  8
0
 10
3336.5097335426071368
 20
183.2758190866040877
 30
0.0
 40
0.8404889448742514
 50
166.5622373374609992
 51
178.6665626587659119
  0
ARC
  5
19236
  8
0
 10
3335.9495731012029864
 20
183.4096583344862097
 30
0.0
 40
0.2645612893590775
 50
146.4605477472032931
 51
166.5622373374609992
  0
ARC
  5
19237
  8
0
 10
3335.8958204515602119
 20
183.4452896889152953
 30
0.0
 40
0.2000714392883579
 50
114.5168653849650013
 51
146.4605477472032931
  0
ARC
  5
19238
  8
0
 10
3335.9798986990440426
 20
183.2609406342795069
 30
0.0
 40
0.4026886291933874
 50
98.167104061629729
 51
114.5168653849650013
  0
ARC
  5
19239
  8
0
 10
3336.0966309005889343
 20
182.4475675534280015
 30
0.0
 40
1.2243954963494119
 50
92.4231813198982337
 51
98.167104061629729
  0
ARC
  5
1923A
  8
0
 10
3345.5827952997701686
 20
172.2196281119333889
 30
0.0
 40
2.4154732765384002
 50
14.09823837768357
 51
51.6532821454922626
  0
ARC
  5
1923B
  8
0
 10
3345.2524677418650754
 20
171.8020613367166902
 30
0.0
 40
2.9479000858525271
 50
51.6532821454922626
 51
83.4578412073433924
  0
ARC
  5
1923C
  8
0
 10
3345.1415736713452134
 20
170.835083030472191
 30
0.0
 40
3.9212163446420569
 50
83.4578412073433924
 51
111.0409781524687958
  0
ARC
  5
1923D
  8
0
 10
3345.2987026503201378
 20
170.4266214580308088
 30
0.0
 40
4.3588581755892717
 50
111.0409781524687958
 51
121.6274474333432067
  0
ARC
  5
1923E
  8
0
 10
3344.80907757856221
 20
171.2216420314371987
 30
0.0
 40
3.4251609960746321
 50
121.6274474333432067
 51
135.6744985968065009
  0
ARC
  5
1923F
  8
0
 10
3345.7484182216389854
 20
170.3041613102311089
 30
0.0
 40
4.7382229586347027
 50
135.6744985968065009
 51
171.8951117202578018
  0
ARC
  5
19240
  8
0
 10
3360.1077599279901733
 20
166.5930057740359018
 30
0.0
 40
19.5470904191733901
 50
167.0540268306477003
 51
176.2879123635069902
  0
ARC
  5
19241
  8
0
 10
3368.5327496322051957
 20
165.9578777356304897
 30
0.0
 40
27.9956637030410391
 50
176.1071203813991133
 51
183.9085242644073901
  0
ARC
  5
19242
  8
0
 10
3359.152319510039888
 20
165.1818615744566898
 30
0.0
 40
18.5846438405948504
 50
183.4929179169797067
 51
194.6961942306340063
  0
ARC
  5
19243
  8
0
 10
3346.035560799860832
 20
161.6956819531748124
 30
0.0
 40
5.0127806947572839
 50
194.1876821470160053
 51
221.6774476371766127
  0
ARC
  5
19244
  8
0
 10
3345.0145233386119799
 20
160.9435754165484127
 30
0.0
 40
3.7518950596251508
 50
223.4671616045405926
 51
237.758768275894198
  0
ARC
  5
19245
  8
0
 10
3345.1288403330067922
 20
161.1173980902518963
 30
0.0
 40
3.959904313717578
 50
237.701491456340392
 51
284.3840727576857148
  0
ARC
  5
19246
  8
0
 10
3345.4906017681241792
 20
159.6786002097200878
 30
0.0
 40
2.4763504097082381
 50
284.5461730967962808
 51
330.4922417233577789
  0
ARC
  5
19247
  8
0
 10
3343.3021387531230175
 20
160.6621050565547932
 30
0.0
 40
4.8704236008614741
 50
333.1044681044775757
 51
356.2066499340119208
  0
ARC
  5
19248
  8
0
 10
3313.1182231483007854
 20
163.0980295637021982
 30
0.0
 40
35.1520422814785718
 50
355.4997629458612209
 51
0.9139059305028606
  0
ARC
  5
19249
  8
0
 10
3826.8354822028468334
 20
166.8491411331187066
 30
0.0
 40
478.5803230148347893
 50
179.7130140808538101
 51
180.3819628784420104
  0
ARC
  5
1924A
  8
0
 10
3321.2000096612591733
 20
169.2573727184798997
 30
0.0
 40
27.0611552407718285
 50
359.9764878343564192
 51
4.6674311384241554
  0
ARC
  5
1924B
  8
0
 10
3340.5737704303578539
 20
170.7707270877992869
 30
0.0
 40
7.628801424408695
 50
5.1792406205097423
 51
15.4888241486848894
  0
ARC
  5
1924C
  8
0
 10
3339.0505914142149777
 20
167.9814562601700061
 30
0.0
 40
7.8003391911892797
 50
359.8227546540933872
 51
8.2494960229728491
  0
ARC
  5
1924D
  8
0
 10
3342.7688746902149433
 20
168.5205482833677024
 30
0.0
 40
4.0431792624586196
 50
8.2494960229728491
 51
25.0093147418870387
  0
ARC
  5
1924E
  8
0
 10
3344.5294107498198173
 20
169.3418482078230909
 30
0.0
 40
2.100495350166796
 50
25.0093147418870387
 51
49.8361187641273773
  0
ARC
  5
1924F
  8
0
 10
3344.6584425538221694
 20
169.4947321154249948
 30
0.0
 40
1.9004386190928071
 50
49.8361187641273773
 51
78.254800412955376
  0
ARC
  5
19250
  8
0
 10
3344.4333413125750667
 20
168.4120612037384035
 30
0.0
 40
3.0062626882029742
 50
78.254800412955376
 51
90.222886741485226
  0
ARC
  5
19251
  8
0
 10
3343.4628370280061063
 20
417.8908711185923721
 30
0.0
 40
246.4744349120284994
 50
270.0732846043532049
 51
270.2228867414851834
  0
ARC
  5
19252
  8
0
 10
3343.7794340102209389
 20
170.3673816676555077
 30
0.0
 40
1.0492570118299469
 50
90.0732846043531339
 51
125.8369961051471932
  0
ARC
  5
19253
  8
0
 10
3343.8587523897567735
 20
170.2575535663935966
 30
0.0
 40
1.1847325341907149
 50
125.8369961051471932
 51
153.6082294648149116
  0
ARC
  5
19254
  8
0
 10
3344.857783563888006
 20
169.7618090230253074
 30
0.0
 40
2.3000019810800501
 50
153.6082294648149116
 51
170.3666216878710031
  0
ARC
  5
19255
  8
0
 10
3347.3551695938967896
 20
169.3379111447065952
 30
0.0
 40
4.833108057447939
 50
170.3666216878710031
 51
183.0734722353168991
  0
ARC
  5
19256
  8
0
 10
3349.6973745578980015
 20
169.463672844208304
 30
0.0
 40
7.17868689825651
 50
183.0734722353168991
 51
194.1590399674450964
  0
ARC
  5
19257
  8
0
 10
3347.168841809856076
 20
168.8257787046387932
 30
0.0
 40
4.5709317733996322
 50
194.1590399674450964
 51
206.5729212782646016
  0
ARC
  5
19258
  8
0
 10
3341.0092189407741898
 20
165.7449095965326933
 30
0.0
 40
2.316209023084264
 50
11.8012833503703796
 51
26.5729212782646016
  0
ARC
  5
19259
  8
0
 10
3341.8717489578748427
 20
165.9251216679923004
 30
0.0
 40
1.4350538601875911
 50
334.6947540483141097
 51
11.8012833503703796
  0
ARC
  5
1925A
  8
0
 10
3351.5695666741758032
 20
161.3398978632928902
 30
0.0
 40
9.2921054002026331
 50
154.694754048313996
 51
160.8690010282361129
  0
ARC
  5
1925B
  8
0
 10
3347.4007630965770659
 20
162.7860019249004893
 30
0.0
 40
4.8796072159997079
 50
160.8690010282361129
 51
182.2806652775518046
  0
ARC
  5
1925C
  8
0
 10
3346.1990330622547845
 20
162.4766416686925936
 30
0.0
 40
3.6758168939686562
 50
178.2043977116296958
 51
198.4165909326848976
  0
ARC
  5
1925D
  8
0
 10
3343.7455937593090312
 20
161.5797325312458099
 30
0.0
 40
1.0673767378138419
 50
194.3403233667634993
 51
244.9387665643369019
  0
ARC
  5
1925E
  8
0
 10
3343.8036637739878643
 20
161.6277685610222932
 30
0.0
 40
1.1359461734690179
 50
243.3116121220319883
 51
267.6165627555927244
  0
ARC
  5
1925F
  8
0
 10
3344.1252011302499341
 20
184.5004319902510872
 30
0.0
 40
24.0104590927311996
 50
269.1199568553951167
 51
270.8369663566140275
  0
ARC
  5
19260
  8
0
 10
3344.3418025086521084
 20
163.7743421093861969
 30
0.0
 40
3.2845471959597781
 50
272.3403604564157945
 51
288.6498262842749796
  0
ARC
  5
19261
  8
0
 10
3344.6419889957169289
 20
162.4516035943321128
 30
0.0
 40
1.9402244724778539
 50
292.7452322972700927
 51
326.0274411293211188
  0
ARC
  5
19262
  8
0
 10
3342.4666879751139277
 20
163.5414984991265044
 30
0.0
 40
4.3643862111043861
 50
330.122847142317994
 51
354.2886171151595818
  0
ARC
  5
19263
  8
0
 10
3338.4923710837470026
 20
163.9389855169044097
 30
0.0
 40
8.3585307606053671
 50
354.2886171151595818
 51
0.0820130576682919
  0
LINE
  5
19264
  8
0
 10
3346.8508932814570471
 20
163.9509498960792087
 30
0.0
 11
3346.8508932814570471
 21
167.9573258333790875
 31
0.0
  0
ARC
  5
19265
  8
0
 10
3344.3216535982369351
 20
170.4148623871602979
 30
0.0
 40
2.8032540843242089
 50
34.9933588181939399
 51
58.4412160098735995
  0
ARC
  5
19266
  8
0
 10
3344.2343495774389339
 20
170.2727227208997078
 30
0.0
 40
2.9700643860809381
 50
58.4412160098735995
 51
86.0733807391433174
  0
ARC
  5
19267
  8
0
 10
3344.2582298083639216
 20
170.6206285455203897
 30
0.0
 40
2.6213399558584021
 50
86.0733807391433174
 51
112.7771177606527999
  0
ARC
  5
19268
  8
0
 10
3344.1803089392419679
 20
170.8062023946345107
 30
0.0
 40
2.4200706951160691
 50
112.7771177606527999
 51
134.1034565953100923
  0
ARC
  5
19269
  8
0
 10
3344.5929143424459653
 20
170.3804780432743939
 30
0.0
 40
3.012931928537085
 50
134.1034565953100923
 51
158.2206776501504919
  0
ARC
  5
1926A
  8
0
 10
3345.9691772173600839
 20
169.8305882249196088
 30
0.0
 40
4.49498399010547
 50
158.2206776501504919
 51
176.440757096085207
  0
ARC
  5
1926B
  8
0
 10
3381.9877277654591126
 20
167.5902150069559013
 30
0.0
 40
40.583143485176727
 50
176.440757096085207
 51
179.190832617503105
  0
ARC
  5
1926C
  8
0
 10
3386.234166993549934
 20
167.5302401082240067
 30
0.0
 40
44.8300062221090485
 50
179.190832617503105
 51
182.0147804444912083
  0
ARC
  5
1926D
  8
0
 10
3267.0612778169138437
 20
165.0971101475099942
 30
0.0
 40
74.3755351954402357
 50
358.8106651746874149
 51
0.6602326695010232
  0
ARC
  5
1926E
  8
0
 10
3352.9359550083631802
 20
163.1754204258164975
 30
0.0
 40
11.5213652484875109
 50
178.1202285131705025
 51
191.9977952647454913
  0
ARC
  5
1926F
  8
0
 10
3344.3800006286660391
 20
161.4191085957675114
 30
0.0
 40
2.787877925264286
 50
193.2436307706624916
 51
228.6157875949315041
  0
ARC
  5
19270
  8
0
 10
3344.3399201273127801
 20
161.3736209299891868
 30
0.0
 40
2.7272514102180292
 50
228.6157875949315041
 51
254.1178905066676919
  0
ARC
  5
19271
  8
0
 10
3344.2780198576779185
 20
161.5661686183316021
 30
0.0
 40
2.89768357005036
 50
256.3375595385285806
 51
287.4758186811063183
  0
ARC
  5
19272
  8
0
 10
3344.2428032554848869
 20
161.573183192915792
 30
0.0
 40
2.9151200681378731
 50
288.0946514779398058
 51
318.4525302680639243
  0
ARC
  5
19273
  8
0
 10
3342.8113143059467802
 20
162.5849267739455968
 30
0.0
 40
4.6614499498885706
 50
320.8159254444885278
 51
356.4366487989864254
  0
ARC
  5
19274
  8
0
 10
3314.18325927800106
 20
165.3863515980461045
 30
0.0
 40
33.4237397758712618
 50
354.6935037836643119
 51
1.100505515617942
  0
ARC
  5
19275
  8
0
 10
3319.3080249481840838
 20
166.7476838611873973
 30
0.0
 40
28.3019531234403985
 50
358.5434826922281104
 51
4.4234940925534199
  0
ARC
  5
19276
  8
0
 10
3339.5957330892201753
 20
168.558759597912001
 30
0.0
 40
7.9386503428887369
 50
2.6843338916300641
 51
13.5459925643507599
  0
ARC
  5
19277
  8
0
 10
3343.4990909451707921
 20
169.7214439116442861
 30
0.0
 40
3.8775694859440271
 50
10.3515865278656403
 51
28.1989396190799404
  0
ARC
  5
19278
  8
0
 10
3341.5627831565611814
 20
168.4759798111975897
 30
0.0
 40
6.1752882279667221
 50
29.8940473868628587
 51
35.0509525781584586
  0
ARC
  5
19279
  8
0
 10
3345.021064161130198
 20
171.7125144339998997
 30
0.0
 40
0.1407333309216293
 50
24.2210281647373584
 51
88.2712752873845545
  0
ARC
  5
1927A
  8
0
 10
3344.958691660157001
 20
171.6862959973205136
 30
0.0
 40
0.2083782328300134
 50
339.3426806624208893
 51
23.7595335277543818
  0
ARC
  5
1927B
  8
0
 10
3345.0402865436449247
 20
171.7338953387667004
 30
0.0
 40
0.120224878267756
 50
97.1561244656214029
 51
142.4042769076222044
  0
ARC
  5
1927C
  8
0
 10
3345.0994230761571089
 20
171.6883611097688913
 30
0.0
 40
0.1948606303442013
 50
142.4042769076222044
 51
180.5712336291796021
  0
ARC
  5
1927D
  8
0
 10
3345.1176367647908592
 20
171.6885427045789072
 30
0.0
 40
0.2130752242269836
 50
180.5712336291796021
 51
208.8963646143641029
  0
ARC
  5
1927E
  8
0
 10
3345.047120751138209
 20
171.6496216111443971
 30
0.0
 40
0.1325310767325561
 50
208.8963646143641029
 51
254.005416659342103
  0
ARC
  5
1927F
  8
0
 10
3345.0384523686170724
 20
171.6193805789168039
 30
0.0
 40
0.1010722006283543
 50
254.005416659342103
 51
317.3734159247366051
  0
ARC
  5
19280
  8
0
 10
3344.9419211418398845
 20
171.7082282877250066
 30
0.0
 40
0.2322674486497914
 50
317.3734159247366051
 51
335.737307919580303
  0
ARC
  5
19281
  8
0
 10
3344.9241961098450702
 20
171.7213528954312096
 30
0.0
 40
0.1357042256305546
 50
29.5735097669258593
 51
62.4590745672146994
  0
ARC
  5
19282
  8
0
 10
3344.8614397515038945
 20
171.6857406903793901
 30
0.0
 40
0.2078609277498704
 50
352.8092286339614816
 51
29.5735097669244382
  0
ARC
  5
19283
  8
0
 10
3344.8725277484109029
 20
171.6843417650314052
 30
0.0
 40
0.1966850310285224
 50
325.9719633705325919
 51
352.8092286339631869
  0
ARC
  5
19284
  8
0
 10
3344.9270058055549271
 20
171.6475570525759906
 30
0.0
 40
0.1309509167449521
 50
297.437535327812725
 51
325.9719633705325919
  0
ARC
  5
19285
  8
0
 10
3344.0319127758689319
 20
171.7651944153504076
 30
0.0
 40
0.0738815039138211
 50
40.0656210616620925
 51
116.412886069672993
  0
ARC
  5
19286
  8
0
 10
3344.0348239319969252
 20
171.7593332395935875
 30
0.0
 40
0.080425830560479
 50
116.412886069672993
 51
158.7198110855244977
  0
ARC
  5
19287
  8
0
 10
3344.0808107273019232
 20
171.7317820730125959
 30
0.0
 40
0.1335785864116358
 50
154.8639596139510104
 51
184.3560775185459875
  0
ARC
  5
19288
  8
0
 10
3344.0716139828728046
 20
171.7294457212103964
 30
0.0
 40
0.1242416589756945
 50
183.6038665404946926
 51
215.3660572319749917
  0
ARC
  5
19289
  8
0
 10
3344.0592308941359079
 20
171.7281981072088115
 30
0.0
 40
0.1135881020276368
 50
218.4696977255316028
 51
236.812770501206586
  0
ARC
  5
1928A
  8
0
 10
3344.0324582230728083
 20
171.6933978719526124
 30
0.0
 40
0.0698901857277639
 50
239.5657614420017012
 51
314.1446547533420244
  0
ARC
  5
1928B
  8
0
 10
3343.9841928119071781
 20
171.7339699930633969
 30
0.0
 40
0.1327728350233004
 50
316.8976456941388165
 51
2.6256113930301441
  0
ARC
  5
1928C
  8
0
 10
3343.9952135612279562
 20
171.73447537893
 30
0.0
 40
0.1217405038788601
 50
2.625611393028517
 51
40.0126900281928783
  0
ARC
  5
1928D
  8
0
 10
3343.8959960550068899
 20
171.7315485125618864
 30
0.0
 40
0.1242864480836458
 50
314.84001597165161
 51
45.7590053102864687
  0
ARC
  5
1928E
  8
0
 10
3343.14741583533214
 20
171.6716869524030074
 30
0.0
 40
0.1407333309216293
 50
24.2210281647373584
 51
88.2712752873845545
  0
ARC
  5
1928F
  8
0
 10
3343.085043334358943
 20
171.6454685157237066
 30
0.0
 40
0.2083782328300134
 50
339.3426806624208893
 51
23.7595335277543818
  0
ARC
  5
19290
  8
0
 10
3343.1666382178468666
 20
171.6930678571698081
 30
0.0
 40
0.120224878267756
 50
97.1561244656214029
 51
142.4042769076222044
  0
ARC
  5
19291
  8
0
 10
3343.2257747503590508
 20
171.647533628171999
 30
0.0
 40
0.1948606303442013
 50
142.4042769076222044
 51
180.5712336291796021
  0
ARC
  5
19292
  8
0
 10
3343.2439884389928011
 20
171.6477152229821002
 30
0.0
 40
0.2130752242269836
 50
180.5712336291796021
 51
208.8963646143641029
  0
ARC
  5
19293
  8
0
 10
3343.1734724253401509
 20
171.60879412954759
 30
0.0
 40
0.1325310767325561
 50
208.8963646143641029
 51
254.005416659342103
  0
ARC
  5
19294
  8
0
 10
3343.1648040428181048
 20
171.5785530973199968
 30
0.0
 40
0.1010722006283543
 50
254.005416659342103
 51
317.3734159247366051
  0
ARC
  5
19295
  8
0
 10
3343.0682728160418264
 20
171.6674008061280858
 30
0.0
 40
0.2322674486497914
 50
317.3734159247366051
 51
335.737307919580303
  0
ARC
  5
19296
  8
0
 10
3343.0505477840461026
 20
171.6805254138344026
 30
0.0
 40
0.1357042256305546
 50
29.5735097669258593
 51
62.4590745672146994
  0
ARC
  5
19297
  8
0
 10
3342.9877914257058364
 20
171.6449132087826115
 30
0.0
 40
0.2078609277498704
 50
352.8092286339614816
 51
29.5735097669244382
  0
ARC
  5
19298
  8
0
 10
3342.9988794226128448
 20
171.6435142834345129
 30
0.0
 40
0.1966850310285224
 50
325.9719633705325919
 51
352.8092286339631869
  0
ARC
  5
19299
  8
0
 10
3343.053357479756869
 20
171.6067295709790983
 30
0.0
 40
0.1309509167449521
 50
297.437535327812725
 51
325.9719633705325919
  0
ARC
  5
1929A
  8
0
 10
3342.2441250909319024
 20
169.6736554563030097
 30
0.0
 40
0.1407333309216293
 50
24.2210281647373584
 51
88.2712752873845545
  0
ARC
  5
1929B
  8
0
 10
3342.1817525899577959
 20
169.6474370196237089
 30
0.0
 40
0.2083782328300134
 50
339.3426806624208893
 51
23.7595335277543818
  0
ARC
  5
1929C
  8
0
 10
3342.2633474734470838
 20
169.6950363610698105
 30
0.0
 40
0.120224878267756
 50
97.1561244656214029
 51
142.4042769076222044
  0
ARC
  5
1929D
  8
0
 10
3342.3224840059601775
 20
169.6495021320720014
 30
0.0
 40
0.1948606303442013
 50
142.4042769076222044
 51
180.5712336291796021
  0
ARC
  5
1929E
  8
0
 10
3342.3406976945939277
 20
169.6496837268821025
 30
0.0
 40
0.2130752242269836
 50
180.5712336291796021
 51
208.8963646143641029
  0
ARC
  5
1929F
  8
0
 10
3342.2701816809408228
 20
169.6107626334475924
 30
0.0
 40
0.1325310767325561
 50
208.8963646143641029
 51
254.005416659342103
  0
ARC
  5
192A0
  8
0
 10
3342.2615132984187767
 20
169.5805216012199992
 30
0.0
 40
0.1010722006283543
 50
254.005416659342103
 51
317.3734159247366051
  0
ARC
  5
192A1
  8
0
 10
3342.1649820716420436
 20
169.6693693100280882
 30
0.0
 40
0.2322674486497914
 50
317.3734159247366051
 51
335.737307919580303
  0
ARC
  5
192A2
  8
0
 10
3342.147257039645865
 20
169.6824939177344049
 30
0.0
 40
0.1357042256305546
 50
29.5735097669258593
 51
62.4590745672146994
  0
ARC
  5
192A3
  8
0
 10
3342.0845006813060536
 20
169.6468817126826139
 30
0.0
 40
0.2078609277498704
 50
352.8092286339614816
 51
29.5735097669244382
  0
ARC
  5
192A4
  8
0
 10
3342.0955886782121524
 20
169.6454827873344868
 30
0.0
 40
0.1966850310285224
 50
325.9719633705325919
 51
352.8092286339631869
  0
ARC
  5
192A5
  8
0
 10
3342.1500667353570861
 20
169.6086980748791007
 30
0.0
 40
0.1309509167449521
 50
297.437535327812725
 51
325.9719633705325919
  0
ARC
  5
192A6
  8
0
 10
3342.8231576193779802
 20
166.6815294720661882
 30
0.0
 40
0.1407333309216293
 50
24.2210281647373584
 51
88.2712752873845545
  0
ARC
  5
192A7
  8
0
 10
3342.7607851184038736
 20
166.6553110353868874
 30
0.0
 40
0.2083782328300134
 50
339.3426806624208893
 51
23.7595335277543818
  0
ARC
  5
192A8
  8
0
 10
3342.8423800018931615
 20
166.702910376832989
 30
0.0
 40
0.120224878267756
 50
97.1561244656214029
 51
142.4042769076222044
  0
ARC
  5
192A9
  8
0
 10
3342.901516534404891
 20
166.6573761478352935
 30
0.0
 40
0.1948606303442013
 50
142.4042769076222044
 51
180.5712336291796021
  0
ARC
  5
192AA
  8
0
 10
3342.919730223039096
 20
166.6575577426453094
 30
0.0
 40
0.2130752242269836
 50
180.5712336291796021
 51
208.8963646143641029
  0
ARC
  5
192AB
  8
0
 10
3342.8492142093859911
 20
166.6186366492107993
 30
0.0
 40
0.1325310767325561
 50
208.8963646143641029
 51
254.005416659342103
  0
ARC
  5
192AC
  8
0
 10
3342.8405458268630355
 20
166.5883956169832061
 30
0.0
 40
0.1010722006283543
 50
254.005416659342103
 51
317.3734159247366051
  0
ARC
  5
192AD
  8
0
 10
3342.7440146000872119
 20
166.6772433257914088
 30
0.0
 40
0.2322674486497914
 50
317.3734159247366051
 51
335.737307919580303
  0
ARC
  5
192AE
  8
0
 10
3342.7262895680910333
 20
166.6903679334976118
 30
0.0
 40
0.1357042256305546
 50
29.5735097669258593
 51
62.4590745672146994
  0
ARC
  5
192AF
  8
0
 10
3342.6635332097512219
 20
166.6547557284457923
 30
0.0
 40
0.2078609277498704
 50
352.8092286339614816
 51
29.5735097669244382
  0
ARC
  5
192B0
  8
0
 10
3342.6746212066577755
 20
166.6533568030978074
 30
0.0
 40
0.1966850310285224
 50
325.9719633705325919
 51
352.8092286339631869
  0
ARC
  5
192B1
  8
0
 10
3342.7290992638017997
 20
166.6165720906423928
 30
0.0
 40
0.1309509167449521
 50
297.437535327812725
 51
325.9719633705325919
  0
ARC
  5
192B2
  8
0
 10
3342.445218160280092
 20
170.7677063072250974
 30
0.0
 40
0.0738815039138211
 50
40.0656210616620925
 51
116.412886069672993
  0
ARC
  5
192B3
  8
0
 10
3342.4481293164080853
 20
170.7618451314683057
 30
0.0
 40
0.080425830560479
 50
116.412886069672993
 51
158.7198110855244977
  0
ARC
  5
192B4
  8
0
 10
3342.4941161117121737
 20
170.7342939648873141
 30
0.0
 40
0.1335785864116358
 50
154.8639596139510104
 51
184.3560775185459875
  0
ARC
  5
192B5
  8
0
 10
3342.4849193672821457
 20
170.7319576130850862
 30
0.0
 40
0.1242416589756945
 50
183.6038665404946926
 51
215.3660572319749917
  0
ARC
  5
192B6
  8
0
 10
3342.4725362785461584
 20
170.7307099990835013
 30
0.0
 40
0.1135881020276368
 50
218.4696977255316028
 51
236.812770501206586
  0
ARC
  5
192B7
  8
0
 10
3342.4457636074839684
 20
170.6959097638273022
 30
0.0
 40
0.0698901857277639
 50
239.5657614420017012
 51
314.1446547533420244
  0
ARC
  5
192B8
  8
0
 10
3342.3974981963169739
 20
170.7364818849380868
 30
0.0
 40
0.1327728350233004
 50
316.8976456941388165
 51
2.6256113930301441
  0
ARC
  5
192B9
  8
0
 10
3342.4085189456391163
 20
170.7369872708046898
 30
0.0
 40
0.1217405038788601
 50
2.625611393028517
 51
40.0126900281928783
  0
ARC
  5
192BA
  8
0
 10
3342.3093014394171405
 20
170.7340604044364909
 30
0.0
 40
0.1242864480836458
 50
314.84001597165161
 51
45.7590053102864687
  0
ARC
  5
192BB
  8
0
 10
3342.3687593190438747
 20
168.1779259777484867
 30
0.0
 40
0.0738815039138211
 50
40.0656210616620925
 51
116.412886069672993
  0
ARC
  5
192BC
  8
0
 10
3342.3716704751727775
 20
168.1720648019916098
 30
0.0
 40
0.080425830560479
 50
116.412886069672993
 51
158.7198110855244977
  0
ARC
  5
192BD
  8
0
 10
3342.417657270476866
 20
168.1445136354105898
 30
0.0
 40
0.1335785864116358
 50
154.8639596139510104
 51
184.3560775185459875
  0
ARC
  5
192BE
  8
0
 10
3342.4084605260459284
 20
168.1421772836083903
 30
0.0
 40
0.1242416589756945
 50
183.6038665404946926
 51
215.3660572319749917
  0
ARC
  5
192BF
  8
0
 10
3342.3960774373108507
 20
168.1409296696068054
 30
0.0
 40
0.1135881020276368
 50
218.4696977255316028
 51
236.812770501206586
  0
ARC
  5
192C0
  8
0
 10
3342.3693047662468416
 20
168.1061294343506063
 30
0.0
 40
0.0698901857277639
 50
239.5657614420017012
 51
314.1446547533420244
  0
ARC
  5
192C1
  8
0
 10
3342.3210393550812114
 20
168.1467015554613909
 30
0.0
 40
0.1327728350233004
 50
316.8976456941388165
 51
2.6256113930301441
  0
ARC
  5
192C2
  8
0
 10
3342.332060104402899
 20
168.1472069413279939
 30
0.0
 40
0.1217405038788601
 50
2.625611393028517
 51
40.0126900281928783
  0
ARC
  5
192C3
  8
0
 10
3342.2328425981818327
 20
168.1442800749599087
 30
0.0
 40
0.1242864480836458
 50
314.84001597165161
 51
45.7590053102864687
  0
ARC
  5
192C4
  8
0
 10
3346.9936555587601106
 20
169.3546191550339017
 30
0.0
 40
0.0738815039138211
 50
40.0656210616620925
 51
116.412886069672993
  0
ARC
  5
192C5
  8
0
 10
3346.9965667148890134
 20
169.3487579792771101
 30
0.0
 40
0.080425830560479
 50
116.412886069672993
 51
158.7198110855244977
  0
ARC
  5
192C6
  8
0
 10
3347.0425535101921923
 20
169.3212068126960901
 30
0.0
 40
0.1335785864116358
 50
154.8639596139510104
 51
184.3560775185459875
  0
ARC
  5
192C7
  8
0
 10
3347.0333567657630738
 20
169.3188704608938906
 30
0.0
 40
0.1242416589756945
 50
183.6038665404946926
 51
215.3660572319749917
  0
ARC
  5
192C8
  8
0
 10
3347.0209736770270865
 20
169.3176228468923057
 30
0.0
 40
0.1135881020276368
 50
218.4696977255316028
 51
236.812770501206586
  0
ARC
  5
192C9
  8
0
 10
3346.994201005963987
 20
169.2828226116361066
 30
0.0
 40
0.0698901857277639
 50
239.5657614420017012
 51
314.1446547533420244
  0
ARC
  5
192CA
  8
0
 10
3346.945935594797902
 20
169.3233947327468911
 30
0.0
 40
0.1327728350233004
 50
316.8976456941388165
 51
2.6256113930301441
  0
ARC
  5
192CB
  8
0
 10
3346.9569563441191349
 20
169.3239001186134942
 30
0.0
 40
0.1217405038788601
 50
2.625611393028517
 51
40.0126900281928783
  0
ARC
  5
192CC
  8
0
 10
3346.8577388378971591
 20
169.3209732522452953
 30
0.0
 40
0.1242864480836458
 50
314.84001597165161
 51
45.7590053102864687
  0
ARC
  5
192CD
  8
0
 10
3345.9463451250808248
 20
171.3853095611870003
 30
0.0
 40
0.0738815039138211
 50
40.0656210616620925
 51
116.412886069672993
  0
ARC
  5
192CE
  8
0
 10
3345.9492562812101824
 20
171.379448385430095
 30
0.0
 40
0.080425830560479
 50
116.412886069672993
 51
158.7198110855244977
  0
ARC
  5
192CF
  8
0
 10
3345.995243076513816
 20
171.3518972188491034
 30
0.0
 40
0.1335785864116358
 50
154.8639596139510104
 51
184.3560775185459875
  0
ARC
  5
192D0
  8
0
 10
3345.986046332083788
 20
171.3495608670469039
 30
0.0
 40
0.1242416589756945
 50
183.6038665404946926
 51
215.3660572319749917
  0
ARC
  5
192D1
  8
0
 10
3345.9736632433478007
 20
171.3483132530452906
 30
0.0
 40
0.1135881020276368
 50
218.4696977255316028
 51
236.812770501206586
  0
ARC
  5
192D2
  8
0
 10
3345.9468905722851559
 20
171.3135130177890915
 30
0.0
 40
0.0698901857277639
 50
239.5657614420017012
 51
314.1446547533420244
  0
ARC
  5
192D3
  8
0
 10
3345.8986251611181615
 20
171.3540851388999045
 30
0.0
 40
0.1327728350233004
 50
316.8976456941388165
 51
2.6256113930301441
  0
ARC
  5
192D4
  8
0
 10
3345.9096459104398491
 20
171.3545905247665075
 30
0.0
 40
0.1217405038788601
 50
2.625611393028517
 51
40.0126900281928783
  0
ARC
  5
192D5
  8
0
 10
3345.8104284042187828
 20
171.3516636583983939
 30
0.0
 40
0.1242864480836458
 50
314.84001597165161
 51
45.7590053102864687
  0
ARC
  5
192D6
  8
0
 10
3346.6518569231029687
 20
170.5283610235323977
 30
0.0
 40
0.1407333309216293
 50
24.2210281647373584
 51
88.2712752873845545
  0
ARC
  5
192D7
  8
0
 10
3346.5894844221302264
 20
170.5021425868530969
 30
0.0
 40
0.2083782328300134
 50
339.3426806624208893
 51
23.7595335277543818
  0
ARC
  5
192D8
  8
0
 10
3346.6710793056181501
 20
170.5497419282991984
 30
0.0
 40
0.120224878267756
 50
97.1561244656214029
 51
142.4042769076222044
  0
ARC
  5
192D9
  8
0
 10
3346.7302158381298796
 20
170.5042076993013893
 30
0.0
 40
0.1948606303442013
 50
142.4042769076222044
 51
180.5712336291796021
  0
ARC
  5
192DA
  8
0
 10
3346.7484295267640846
 20
170.5043892941114905
 30
0.0
 40
0.2130752242269836
 50
180.5712336291796021
 51
208.8963646143641029
  0
ARC
  5
192DB
  8
0
 10
3346.6779135131109797
 20
170.4654682006770088
 30
0.0
 40
0.1325310767325561
 50
208.8963646143641029
 51
254.005416659342103
  0
ARC
  5
192DC
  8
0
 10
3346.6692451305889335
 20
170.4352271684493871
 30
0.0
 40
0.1010722006283543
 50
254.005416659342103
 51
317.3734159247366051
  0
ARC
  5
192DD
  8
0
 10
3346.5727139038131099
 20
170.5240748772575046
 30
0.0
 40
0.2322674486497914
 50
317.3734159247366051
 51
335.737307919580303
  0
ARC
  5
192DE
  8
0
 10
3346.5549888718178408
 20
170.5371994849637076
 30
0.0
 40
0.1357042256305546
 50
29.5735097669258593
 51
62.4590745672146994
  0
ARC
  5
192DF
  8
0
 10
3346.4922325134762104
 20
170.5015872799120018
 30
0.0
 40
0.2078609277498704
 50
352.8092286339614816
 51
29.5735097669244382
  0
ARC
  5
192E0
  8
0
 10
3346.5033205103841283
 20
170.5001883545639032
 30
0.0
 40
0.1966850310285224
 50
325.9719633705325919
 51
352.8092286339631869
  0
ARC
  5
192E1
  8
0
 10
3346.5577985675267882
 20
170.4634036421084886
 30
0.0
 40
0.1309509167449521
 50
297.437535327812725
 51
325.9719633705325919
  0
ARC
  5
192E2
  8
0
 10
3347.1273704384871053
 20
168.1766006502188873
 30
0.0
 40
0.1407333309216293
 50
24.2210281647373584
 51
88.2712752873845545
  0
ARC
  5
192E3
  8
0
 10
3347.0649979375129988
 20
168.1503822135395865
 30
0.0
 40
0.2083782328300134
 50
339.3426806624208893
 51
23.7595335277543818
  0
ARC
  5
192E4
  8
0
 10
3347.1465928210018319
 20
168.197981554985688
 30
0.0
 40
0.120224878267756
 50
97.1561244656214029
 51
142.4042769076222044
  0
ARC
  5
192E5
  8
0
 10
3347.2057293535149256
 20
168.1524473259879073
 30
0.0
 40
0.1948606303442013
 50
142.4042769076222044
 51
180.5712336291796021
  0
ARC
  5
192E6
  8
0
 10
3347.2239430421468569
 20
168.1526289207980085
 30
0.0
 40
0.2130752242269836
 50
180.5712336291796021
 51
208.8963646143641029
  0
ARC
  5
192E7
  8
0
 10
3347.1534270284951162
 20
168.1137078273634984
 30
0.0
 40
0.1325310767325561
 50
208.8963646143641029
 51
254.005416659342103
  0
ARC
  5
192E8
  8
0
 10
3347.1447586459730701
 20
168.0834667951359052
 30
0.0
 40
0.1010722006283543
 50
254.005416659342103
 51
317.3734159247366051
  0
ARC
  5
192E9
  8
0
 10
3347.0482274191967917
 20
168.1723145039439942
 30
0.0
 40
0.2322674486497914
 50
317.3734159247366051
 51
335.737307919580303
  0
ARC
  5
192EA
  8
0
 10
3347.0305023872010679
 20
168.1854391116503109
 30
0.0
 40
0.1357042256305546
 50
29.5735097669258593
 51
62.4590745672146994
  0
ARC
  5
192EB
  8
0
 10
3346.9677460288608017
 20
168.1498269065984914
 30
0.0
 40
0.2078609277498704
 50
352.8092286339614816
 51
29.5735097669244382
  0
ARC
  5
192EC
  8
0
 10
3346.9788340257678101
 20
168.1484279812503928
 30
0.0
 40
0.1966850310285224
 50
325.9719633705325919
 51
352.8092286339631869
  0
ARC
  5
192ED
  8
0
 10
3347.0333120829118343
 20
168.1116432687950919
 30
0.0
 40
0.1309509167449521
 50
297.437535327812725
 51
325.9719633705325919
  0
ARC
  5
192EE
  8
0
 10
3347.0987832288069512
 20
166.6778302468302115
 30
0.0
 40
0.0738815039138211
 50
40.0656210616620925
 51
116.412886069672993
  0
ARC
  5
192EF
  8
0
 10
3347.101694384935854
 20
166.6719690710733914
 30
0.0
 40
0.080425830560479
 50
116.412886069672993
 51
158.7198110855244977
  0
ARC
  5
192F0
  8
0
 10
3347.1476811802399425
 20
166.6444179044923999
 30
0.0
 40
0.1335785864116358
 50
154.8639596139510104
 51
184.3560775185459875
  0
ARC
  5
192F1
  8
0
 10
3347.1384844358099144
 20
166.6420815526902004
 30
0.0
 40
0.1242416589756945
 50
183.6038665404946926
 51
215.3660572319749917
  0
ARC
  5
192F2
  8
0
 10
3347.1261013470739272
 20
166.6408339386885871
 30
0.0
 40
0.1135881020276368
 50
218.4696977255316028
 51
236.812770501206586
  0
ARC
  5
192F3
  8
0
 10
3347.0993286760108276
 20
166.6060337034323879
 30
0.0
 40
0.0698901857277639
 50
239.5657614420017012
 51
314.1446547533420244
  0
ARC
  5
192F4
  8
0
 10
3347.0510632648438332
 20
166.6466058245432009
 30
0.0
 40
0.1327728350233004
 50
316.8976456941388165
 51
2.6256113930301441
  0
ARC
  5
192F5
  8
0
 10
3347.0620840141659755
 20
166.647111210409804
 30
0.0
 40
0.1217405038788601
 50
2.625611393028517
 51
40.0126900281928783
  0
ARC
  5
192F6
  8
0
 10
3346.9628665079449092
 20
166.6441843440416051
 30
0.0
 40
0.1242864480836458
 50
314.84001597165161
 51
45.7590053102864687
  0
ARC
  5
192F7
  8
0
 10
3347.0996171359970504
 20
163.8138165377025928
 30
0.0
 40
0.0738815039138211
 50
40.0656210616620925
 51
116.412886069672993
  0
ARC
  5
192F8
  8
0
 10
3347.1025282921259532
 20
163.8079553619456874
 30
0.0
 40
0.080425830560479
 50
116.412886069672993
 51
158.7198110855244977
  0
ARC
  5
192F9
  8
0
 10
3347.1485150874291321
 20
163.7804041953646959
 30
0.0
 40
0.1335785864116358
 50
154.8639596139510104
 51
184.3560775185459875
  0
ARC
  5
192FA
  8
0
 10
3347.1393183429991041
 20
163.7780678435624964
 30
0.0
 40
0.1242416589756945
 50
183.6038665404946926
 51
215.3660572319749917
  0
ARC
  5
192FB
  8
0
 10
3347.1269352542640263
 20
163.7768202295609115
 30
0.0
 40
0.1135881020276368
 50
218.4696977255316028
 51
236.812770501206586
  0
ARC
  5
192FC
  8
0
 10
3347.1001625832000173
 20
163.7420199943047976
 30
0.0
 40
0.0698901857277639
 50
239.5657614420017012
 51
314.1446547533420244
  0
ARC
  5
192FD
  8
0
 10
3347.0518971720339323
 20
163.7825921154156106
 30
0.0
 40
0.1327728350233004
 50
316.8976456941388165
 51
2.6256113930301441
  0
ARC
  5
192FE
  8
0
 10
3347.0629179213560747
 20
163.7830975012821
 30
0.0
 40
0.1217405038788601
 50
2.625611393028517
 51
40.0126900281928783
  0
ARC
  5
192FF
  8
0
 10
3346.9637004151340989
 20
163.7801706349139863
 30
0.0
 40
0.1242864480836458
 50
314.84001597165161
 51
45.7590053102864687
  0
ARC
  5
19300
  8
0
 10
3346.6635505531048693
 20
161.4410791600280106
 30
0.0
 40
0.0738815039138211
 50
40.0656210616620925
 51
116.412886069672993
  0
ARC
  5
19301
  8
0
 10
3346.6664617092328626
 20
161.4352179842711905
 30
0.0
 40
0.080425830560479
 50
116.412886069672993
 51
158.7198110855244977
  0
ARC
  5
19302
  8
0
 10
3346.7124485045378606
 20
161.407666817690199
 30
0.0
 40
0.1335785864116358
 50
154.8639596139510104
 51
184.3560775185459875
  0
ARC
  5
19303
  8
0
 10
3346.7032517601078325
 20
161.4053304658879995
 30
0.0
 40
0.1242416589756945
 50
183.6038665404946926
 51
215.3660572319749917
  0
ARC
  5
19304
  8
0
 10
3346.6908686713718453
 20
161.4040828518863862
 30
0.0
 40
0.1135881020276368
 50
218.4696977255316028
 51
236.812770501206586
  0
ARC
  5
19305
  8
0
 10
3346.6640960003092005
 20
161.369282616630187
 30
0.0
 40
0.0698901857277639
 50
239.5657614420017012
 51
314.1446547533420244
  0
ARC
  5
19306
  8
0
 10
3346.6158305891431155
 20
161.409854737741
 30
0.0
 40
0.1327728350233004
 50
316.8976456941388165
 51
2.6256113930301441
  0
ARC
  5
19307
  8
0
 10
3346.6268513384638936
 20
161.4103601236076031
 30
0.0
 40
0.1217405038788601
 50
2.625611393028517
 51
40.0126900281928783
  0
ARC
  5
19308
  8
0
 10
3346.5276338322428273
 20
161.4074332572394894
 30
0.0
 40
0.1242864480836458
 50
314.84001597165161
 51
45.7590053102864687
  0
ARC
  5
19309
  8
0
 10
3345.031372413840927
 20
160.268027333302598
 30
0.0
 40
0.0738815039138211
 50
40.0656210616620925
 51
116.412886069672993
  0
ARC
  5
1930A
  8
0
 10
3345.0342835699698298
 20
160.2621661575458063
 30
0.0
 40
0.080425830560479
 50
116.412886069672993
 51
158.7198110855244977
  0
ARC
  5
1930B
  8
0
 10
3345.0802703652739183
 20
160.2346149909647863
 30
0.0
 40
0.1335785864116358
 50
154.8639596139510104
 51
184.3560775185459875
  0
ARC
  5
1930C
  8
0
 10
3345.0710736208438902
 20
160.2322786391625868
 30
0.0
 40
0.1242416589756945
 50
183.6038665404946926
 51
215.3660572319749917
  0
ARC
  5
1930D
  8
0
 10
3345.058690532107903
 20
160.2310310251610019
 30
0.0
 40
0.1135881020276368
 50
218.4696977255316028
 51
236.812770501206586
  0
ARC
  5
1930E
  8
0
 10
3345.0319178610461677
 20
160.1962307899048028
 30
0.0
 40
0.0698901857277639
 50
239.5657614420017012
 51
314.1446547533420244
  0
ARC
  5
1930F
  8
0
 10
3344.9836524498791732
 20
160.2368029110155874
 30
0.0
 40
0.1327728350233004
 50
316.8976456941388165
 51
2.6256113930301441
  0
ARC
  5
19310
  8
0
 10
3344.9946731992008608
 20
160.2373082968821905
 30
0.0
 40
0.1217405038788601
 50
2.625611393028517
 51
40.0126900281928783
  0
ARC
  5
19311
  8
0
 10
3344.8954556929788851
 20
160.2343814305139915
 30
0.0
 40
0.1242864480836458
 50
314.84001597165161
 51
45.7590053102864687
  0
ARC
  5
19312
  8
0
 10
3343.185723461885118
 20
160.3110075357982112
 30
0.0
 40
0.0738815039138211
 50
40.0656210616620925
 51
116.412886069672993
  0
ARC
  5
19313
  8
0
 10
3343.1886346180131113
 20
160.3051463600413058
 30
0.0
 40
0.080425830560479
 50
116.412886069672993
 51
158.7198110855244977
  0
ARC
  5
19314
  8
0
 10
3343.2346214133171998
 20
160.2775951934602858
 30
0.0
 40
0.1335785864116358
 50
154.8639596139510104
 51
184.3560775185459875
  0
ARC
  5
19315
  8
0
 10
3343.2254246688871717
 20
160.2752588416582
 30
0.0
 40
0.1242416589756945
 50
183.6038665404946926
 51
215.3660572319749917
  0
ARC
  5
19316
  8
0
 10
3343.2130415801511845
 20
160.2740112276565867
 30
0.0
 40
0.1135881020276368
 50
218.4696977255316028
 51
236.812770501206586
  0
ARC
  5
19317
  8
0
 10
3343.1862689090880849
 20
160.2392109924003876
 30
0.0
 40
0.0698901857277639
 50
239.5657614420017012
 51
314.1446547533420244
  0
ARC
  5
19318
  8
0
 10
3343.138003497922
 20
160.2797831135112006
 30
0.0
 40
0.1327728350233004
 50
316.8976456941388165
 51
2.6256113930301441
  0
ARC
  5
19319
  8
0
 10
3343.1490242472441423
 20
160.2802884993778036
 30
0.0
 40
0.1217405038788601
 50
2.625611393028517
 51
40.0126900281928783
  0
ARC
  5
1931A
  8
0
 10
3343.0498067410221665
 20
160.27736163300969
 30
0.0
 40
0.1242864480836458
 50
314.84001597165161
 51
45.7590053102864687
  0
ARC
  5
1931B
  8
0
 10
3342.2801227778718385
 20
162.2984990497652973
 30
0.0
 40
0.0738815039138211
 50
40.0656210616620925
 51
116.412886069672993
  0
ARC
  5
1931C
  8
0
 10
3342.283033934001196
 20
162.2926378740085056
 30
0.0
 40
0.080425830560479
 50
116.412886069672993
 51
158.7198110855244977
  0
ARC
  5
1931D
  8
0
 10
3342.3290207293039202
 20
162.2650867074275141
 30
0.0
 40
0.1335785864116358
 50
154.8639596139510104
 51
184.3560775185459875
  0
ARC
  5
1931E
  8
0
 10
3342.3198239848748017
 20
162.2627503556252861
 30
0.0
 40
0.1242416589756945
 50
183.6038665404946926
 51
215.3660572319749917
  0
ARC
  5
1931F
  8
0
 10
3342.3074408961388144
 20
162.2615027416237012
 30
0.0
 40
0.1135881020276368
 50
218.4696977255316028
 51
236.812770501206586
  0
ARC
  5
19320
  8
0
 10
3342.2806682250770791
 20
162.2267025063675021
 30
0.0
 40
0.0698901857277639
 50
239.5657614420017012
 51
314.1446547533420244
  0
ARC
  5
19321
  8
0
 10
3342.2324028139091752
 20
162.2672746274782867
 30
0.0
 40
0.1327728350233004
 50
316.8976456941388165
 51
2.6256113930301441
  0
ARC
  5
19322
  8
0
 10
3342.2434235632308628
 20
162.2677800133448898
 30
0.0
 40
0.1217405038788601
 50
2.625611393028517
 51
40.0126900281928783
  0
ARC
  5
19323
  8
0
 10
3342.1442060570097965
 20
162.2648531469768045
 30
0.0
 40
0.1242864480836458
 50
314.84001597165161
 51
45.7590053102864687
  0
ARC
  5
19324
  8
0
 10
3342.8622389049742196
 20
165.295031662430489
 30
0.0
 40
0.0738815039138211
 50
40.0656210616620925
 51
116.412886069672993
  0
ARC
  5
19325
  8
0
 10
3342.8651500611031224
 20
165.2891704866736973
 30
0.0
 40
0.080425830560479
 50
116.412886069672993
 51
158.7198110855244977
  0
ARC
  5
19326
  8
0
 10
3342.9111368564072109
 20
165.2616193200927057
 30
0.0
 40
0.1335785864116358
 50
154.8639596139510104
 51
184.3560775185459875
  0
ARC
  5
19327
  8
0
 10
3342.9019401119771828
 20
165.2592829682905062
 30
0.0
 40
0.1242416589756945
 50
183.6038665404946926
 51
215.3660572319749917
  0
ARC
  5
19328
  8
0
 10
3342.8895570232411956
 20
165.2580353542888929
 30
0.0
 40
0.1135881020276368
 50
218.4696977255316028
 51
236.812770501206586
  0
ARC
  5
19329
  8
0
 10
3342.862784352178096
 20
165.2232351190326938
 30
0.0
 40
0.0698901857277639
 50
239.5657614420017012
 51
314.1446547533420244
  0
ARC
  5
1932A
  8
0
 10
3342.8145189410120111
 20
165.2638072401435068
 30
0.0
 40
0.1327728350233004
 50
316.8976456941388165
 51
2.6256113930301441
  0
ARC
  5
1932B
  8
0
 10
3342.8255396903327892
 20
165.2643126260101099
 30
0.0
 40
0.1217405038788601
 50
2.625611393028517
 51
40.0126900281928783
  0
ARC
  5
1932C
  8
0
 10
3342.7263221841121776
 20
165.2613857596419962
 30
0.0
 40
0.1242864480836458
 50
314.84001597165161
 51
45.7590053102864687
  0
ARC
  5
1932D
  8
0
 10
3342.3689113427931261
 20
163.7825094641524117
 30
0.0
 40
0.1407333309216293
 50
24.2210281647373584
 51
88.2712752873845545
  0
ARC
  5
1932E
  8
0
 10
3342.3065388418190196
 20
163.7562910274731109
 30
0.0
 40
0.2083782328300134
 50
339.3426806624208893
 51
23.7595335277543818
  0
ARC
  5
1932F
  8
0
 10
3342.3881337253069432
 20
163.8038903689192125
 30
0.0
 40
0.120224878267756
 50
97.1561244656214029
 51
142.4042769076222044
  0
ARC
  5
19330
  8
0
 10
3342.4472702578200369
 20
163.7583561399214886
 30
0.0
 40
0.1948606303442013
 50
142.4042769076222044
 51
180.5712336291796021
  0
ARC
  5
19331
  8
0
 10
3342.4654839464537872
 20
163.7585377347315045
 30
0.0
 40
0.2130752242269836
 50
180.5712336291796021
 51
208.8963646143641029
  0
ARC
  5
19332
  8
0
 10
3342.3949679328011371
 20
163.7196166412969944
 30
0.0
 40
0.1325310767325561
 50
208.8963646143641029
 51
254.005416659342103
  0
ARC
  5
19333
  8
0
 10
3342.3862995502790909
 20
163.6893756090694012
 30
0.0
 40
0.1010722006283543
 50
254.005416659342103
 51
317.3734159247366051
  0
ARC
  5
19334
  8
0
 10
3342.2897683235019031
 20
163.7782233178774902
 30
0.0
 40
0.2322674486497914
 50
317.3734159247366051
 51
335.737307919580303
  0
ARC
  5
19335
  8
0
 10
3342.2720432915070887
 20
163.791347925583807
 30
0.0
 40
0.1357042256305546
 50
29.5735097669258593
 51
62.4590745672146994
  0
ARC
  5
19336
  8
0
 10
3342.2092869331659131
 20
163.7557357205319875
 30
0.0
 40
0.2078609277498704
 50
352.8092286339614816
 51
29.5735097669244382
  0
ARC
  5
19337
  8
0
 10
3342.2203749300729214
 20
163.7543367951840025
 30
0.0
 40
0.1966850310285224
 50
325.9719633705325919
 51
352.8092286339631869
  0
ARC
  5
19338
  8
0
 10
3342.2748529872169456
 20
163.7175520827285879
 30
0.0
 40
0.1309509167449521
 50
297.437535327812725
 51
325.9719633705325919
  0
ARC
  5
19339
  8
0
 10
3342.4063124741728643
 20
161.2089907029499045
 30
0.0
 40
0.1407333309216293
 50
24.2210281647373584
 51
88.2712752873845545
  0
ARC
  5
1933A
  8
0
 10
3342.343939973200122
 20
161.1827722662706037
 30
0.0
 40
0.2083782328300134
 50
339.3426806624208893
 51
23.7595335277543818
  0
ARC
  5
1933B
  8
0
 10
3342.4255348566880457
 20
161.2303716077167053
 30
0.0
 40
0.120224878267756
 50
97.1561244656214029
 51
142.4042769076222044
  0
ARC
  5
1933C
  8
0
 10
3342.4846713891997751
 20
161.1848373787188962
 30
0.0
 40
0.1948606303442013
 50
142.4042769076222044
 51
180.5712336291796021
  0
ARC
  5
1933D
  8
0
 10
3342.5028850778339802
 20
161.1850189735289973
 30
0.0
 40
0.2130752242269836
 50
180.5712336291796021
 51
208.8963646143641029
  0
ARC
  5
1933E
  8
0
 10
3342.4323690641808753
 20
161.1460978800944872
 30
0.0
 40
0.1325310767325561
 50
208.8963646143641029
 51
254.005416659342103
  0
ARC
  5
1933F
  8
0
 10
3342.4237006816601934
 20
161.115856847866894
 30
0.0
 40
0.1010722006283543
 50
254.005416659342103
 51
317.3734159247366051
  0
ARC
  5
19340
  8
0
 10
3342.3271694548830055
 20
161.2047045566750114
 30
0.0
 40
0.2322674486497914
 50
317.3734159247366051
 51
335.737307919580303
  0
ARC
  5
19341
  8
0
 10
3342.3094444228868269
 20
161.2178291643812997
 30
0.0
 40
0.1357042256305546
 50
29.5735097669258593
 51
62.4590745672146994
  0
ARC
  5
19342
  8
0
 10
3342.2466880645470155
 20
161.1822169593295087
 30
0.0
 40
0.2078609277498704
 50
352.8092286339614816
 51
29.5735097669244382
  0
ARC
  5
19343
  8
0
 10
3342.2577760614540239
 20
161.1808180339814101
 30
0.0
 40
0.1966850310285224
 50
325.9719633705325919
 51
352.8092286339631869
  0
ARC
  5
19344
  8
0
 10
3342.3122541185980481
 20
161.1440333215261091
 30
0.0
 40
0.1309509167449521
 50
297.437535327812725
 51
325.9719633705325919
  0
ARC
  5
19345
  8
0
 10
3344.0154834358258995
 20
160.1893508667832862
 30
0.0
 40
0.1407333309216293
 50
24.2210281647373584
 51
88.2712752873845545
  0
ARC
  5
19346
  8
0
 10
3343.9531109348531572
 20
160.1631324301040138
 30
0.0
 40
0.2083782328300134
 50
339.3426806624208893
 51
23.7595335277543818
  0
ARC
  5
19347
  8
0
 10
3344.0347058183410809
 20
160.2107317715500869
 30
0.0
 40
0.120224878267756
 50
97.1561244656214029
 51
142.4042769076222044
  0
ARC
  5
19348
  8
0
 10
3344.0938423508528103
 20
160.1651975425523062
 30
0.0
 40
0.1948606303442013
 50
142.4042769076222044
 51
180.5712336291796021
  0
ARC
  5
19349
  8
0
 10
3344.1120560394870154
 20
160.1653791373624074
 30
0.0
 40
0.2130752242269836
 50
180.5712336291796021
 51
208.8963646143641029
  0
ARC
  5
1934A
  8
0
 10
3344.0415400258339105
 20
160.1264580439278973
 30
0.0
 40
0.1325310767325561
 50
208.8963646143641029
 51
254.005416659342103
  0
ARC
  5
1934B
  8
0
 10
3344.0328716433118643
 20
160.0962170117003041
 30
0.0
 40
0.1010722006283543
 50
254.005416659342103
 51
317.3734159247366051
  0
ARC
  5
1934C
  8
0
 10
3343.9363404165360407
 20
160.1850647205083931
 30
0.0
 40
0.2322674486497914
 50
317.3734159247366051
 51
335.737307919580303
  0
ARC
  5
1934D
  8
0
 10
3343.9186153845398621
 20
160.1981893282147098
 30
0.0
 40
0.1357042256305546
 50
29.5735097669258593
 51
62.4590745672146994
  0
ARC
  5
1934E
  8
0
 10
3343.8558590262000507
 20
160.1625771231628903
 30
0.0
 40
0.2078609277498704
 50
352.8092286339614816
 51
29.5735097669244382
  0
ARC
  5
1934F
  8
0
 10
3343.8669470231070591
 20
160.1611781978147917
 30
0.0
 40
0.1966850310285224
 50
325.9719633705325919
 51
352.8092286339631869
  0
ARC
  5
19350
  8
0
 10
3343.9214250802510833
 20
160.1243934853594055
 30
0.0
 40
0.1309509167449521
 50
297.437535327812725
 51
325.9719633705325919
  0
ARC
  5
19351
  8
0
 10
3345.9428064083508616
 20
160.5842445419650062
 30
0.0
 40
0.1407333309216293
 50
24.2210281647373584
 51
88.2712752873845545
  0
ARC
  5
19352
  8
0
 10
3345.8804339073790288
 20
160.5580261052857054
 30
0.0
 40
0.2083782328300134
 50
339.3426806624208893
 51
23.7595335277543818
  0
ARC
  5
19353
  8
0
 10
3345.9620287908669525
 20
160.605625446731807
 30
0.0
 40
0.120224878267756
 50
97.1561244656214029
 51
142.4042769076222044
  0
ARC
  5
19354
  8
0
 10
3346.0211653233791367
 20
160.5600912177339978
 30
0.0
 40
0.1948606303442013
 50
142.4042769076222044
 51
180.5712336291796021
  0
ARC
  5
19355
  8
0
 10
3346.0393790120119775
 20
160.560272812544099
 30
0.0
 40
0.2130752242269836
 50
180.5712336291796021
 51
208.8963646143641029
  0
ARC
  5
19356
  8
0
 10
3345.9688629983597821
 20
160.5213517191095889
 30
0.0
 40
0.1325310767325561
 50
208.8963646143641029
 51
254.005416659342103
  0
ARC
  5
19357
  8
0
 10
3345.9601946158381907
 20
160.4911106868819957
 30
0.0
 40
0.1010722006283543
 50
254.005416659342103
 51
317.3734159247366051
  0
ARC
  5
19358
  8
0
 10
3345.8636633890610028
 20
160.5799583956901131
 30
0.0
 40
0.2322674486497914
 50
317.3734159247366051
 51
335.737307919580303
  0
ARC
  5
19359
  8
0
 10
3345.8459383570661885
 20
160.5930830033964014
 30
0.0
 40
0.1357042256305546
 50
29.5735097669258593
 51
62.4590745672146994
  0
ARC
  5
1935A
  8
0
 10
3345.7831819987259223
 20
160.5574707983446103
 30
0.0
 40
0.2078609277498704
 50
352.8092286339614816
 51
29.5735097669244382
  0
ARC
  5
1935B
  8
0
 10
3345.7942699956320212
 20
160.5560718729965117
 30
0.0
 40
0.1966850310285224
 50
325.9719633705325919
 51
352.8092286339631869
  0
ARC
  5
1935C
  8
0
 10
3345.8487480527769549
 20
160.5192871605412108
 30
0.0
 40
0.1309509167449521
 50
297.437535327812725
 51
325.9719633705325919
  0
ARC
  5
1935D
  8
0
 10
3347.001470831809911
 20
162.5946388679770109
 30
0.0
 40
0.1407333309216293
 50
24.2210281647373584
 51
88.2712752873845545
  0
ARC
  5
1935E
  8
0
 10
3346.9390983308371688
 20
162.5684204312977101
 30
0.0
 40
0.2083782328300134
 50
339.3426806624208893
 51
23.7595335277543818
  0
ARC
  5
1935F
  8
0
 10
3347.0206932143250924
 20
162.6160197727438117
 30
0.0
 40
0.120224878267756
 50
97.1561244656214029
 51
142.4042769076222044
  0
ARC
  5
19360
  8
0
 10
3347.0798297468368219
 20
162.5704855437460026
 30
0.0
 40
0.1948606303442013
 50
142.4042769076222044
 51
180.5712336291796021
  0
ARC
  5
19361
  8
0
 10
3347.0980434354710269
 20
162.5706671385561037
 30
0.0
 40
0.2130752242269836
 50
180.5712336291796021
 51
208.8963646143641029
  0
ARC
  5
19362
  8
0
 10
3347.0275274218170125
 20
162.5317460451215936
 30
0.0
 40
0.1325310767325561
 50
208.8963646143641029
 51
254.005416659342103
  0
ARC
  5
19363
  8
0
 10
3347.0188590392958758
 20
162.5015050128940004
 30
0.0
 40
0.1010722006283543
 50
254.005416659342103
 51
317.3734159247366051
  0
ARC
  5
19364
  8
0
 10
3346.9223278125191428
 20
162.5903527217020894
 30
0.0
 40
0.2322674486497914
 50
317.3734159247366051
 51
335.737307919580303
  0
ARC
  5
19365
  8
0
 10
3346.9046027805238737
 20
162.6034773294084061
 30
0.0
 40
0.1357042256305546
 50
29.5735097669258593
 51
62.4590745672146994
  0
ARC
  5
19366
  8
0
 10
3346.8418464221831528
 20
162.5678651243565866
 30
0.0
 40
0.2078609277498704
 50
352.8092286339614816
 51
29.5735097669244382
  0
ARC
  5
19367
  8
0
 10
3346.8529344190910706
 20
162.5664661990086017
 30
0.0
 40
0.1966850310285224
 50
325.9719633705325919
 51
352.8092286339631869
  0
ARC
  5
19368
  8
0
 10
3346.9074124762341853
 20
162.5296814865531871
 30
0.0
 40
0.1309509167449521
 50
297.437535327812725
 51
325.9719633705325919
  0
ARC
  5
19369
  8
0
 10
3347.0616757279299236
 20
165.3035767161352112
 30
0.0
 40
0.1407333309216293
 50
24.2210281647373584
 51
88.2712752873845545
  0
ARC
  5
1936A
  8
0
 10
3346.9993032269571813
 20
165.2773582794557967
 30
0.0
 40
0.2083782328300134
 50
339.3426806624208893
 51
23.7595335277543818
  0
ARC
  5
1936B
  8
0
 10
3347.080898110445105
 20
165.3249576209018983
 30
0.0
 40
0.120224878267756
 50
97.1561244656214029
 51
142.4042769076222044
  0
ARC
  5
1936C
  8
0
 10
3347.1400346429568344
 20
165.2794233919042028
 30
0.0
 40
0.1948606303442013
 50
142.4042769076222044
 51
180.5712336291796021
  0
ARC
  5
1936D
  8
0
 10
3347.1582483315910395
 20
165.2796049867141903
 30
0.0
 40
0.2130752242269836
 50
180.5712336291796021
 51
208.8963646143641029
  0
ARC
  5
1936E
  8
0
 10
3347.0877323179379346
 20
165.2406838932797939
 30
0.0
 40
0.1325310767325561
 50
208.8963646143641029
 51
254.005416659342103
  0
ARC
  5
1936F
  8
0
 10
3347.0790639354158884
 20
165.210442861052087
 30
0.0
 40
0.1010722006283543
 50
254.005416659342103
 51
317.3734159247366051
  0
ARC
  5
19370
  8
0
 10
3346.9825327086391553
 20
165.2992905698602897
 30
0.0
 40
0.2322674486497914
 50
317.3734159247366051
 51
335.737307919580303
  0
ARC
  5
19371
  8
0
 10
3346.9648076766438862
 20
165.3124151775664927
 30
0.0
 40
0.1357042256305546
 50
29.5735097669258593
 51
62.4590745672146994
  0
ARC
  5
19372
  8
0
 10
3346.9020513183040748
 20
165.2768029725147017
 30
0.0
 40
0.2078609277498704
 50
352.8092286339614816
 51
29.5735097669244382
  0
ARC
  5
19373
  8
0
 10
3346.9131393152110832
 20
165.2754040471666883
 30
0.0
 40
0.1966850310285224
 50
325.9719633705325919
 51
352.8092286339631869
  0
ARC
  5
19374
  8
0
 10
3346.9676173723551074
 20
165.2386193347113021
 30
0.0
 40
0.1309509167449521
 50
297.437535327812725
 51
325.9719633705325919
  0
CIRCLE
  5
19375
  8
0
 10
3390.9288582256558584
 20
165.9541149091791965
 30
0.0
 40
1.2642934510489621
  0
CIRCLE
  5
19376
  8
0
 10
3390.9305618943571972
 20
165.9537175366791928
 30
0.0
 40
1.6695923915457971
  0
ARC
  5
19377
  8
0
 10
3357.5123098265198678
 20
171.5970087766507959
 30
0.0
 40
1.3419587691003261
 50
357.0800947793538853
 51
43.0157610079148469
  0
ARC
  5
19378
  8
0
 10
3355.5043806410221805
 20
171.6994254615858893
 30
0.0
 40
3.3524981970469918
 50
339.3802978300223003
 51
357.0800947793538853
  0
ARC
  5
19379
  8
0
 10
3357.0302173515819959
 20
171.1253022549626905
 30
0.0
 40
1.7222236423555299
 50
308.8279554894593275
 51
339.3802978300223003
  0
ARC
  5
1937A
  8
0
 10
3357.1555828249588558
 20
170.969534746949904
 30
0.0
 40
1.522273602426587
 50
282.0174191002037105
 51
308.8279554894593275
  0
ARC
  5
1937B
  8
0
 10
3357.3023022391939776
 20
170.2803045879988986
 30
0.0
 40
0.8176000620397699
 50
236.0113283286472097
 51
282.0174191002037105
  0
ARC
  5
1937C
  8
0
 10
3357.656317036089149
 20
170.8053770156554094
 30
0.0
 40
1.45086740740506
 50
194.3151589159433001
 51
236.0113283286472097
  0
ARC
  5
1937D
  8
0
 10
3358.1128128565910629
 20
170.9218649735065867
 30
0.0
 40
1.9219914658646431
 50
162.5730698515438064
 51
194.3151589159433001
  0
ARC
  5
1937E
  8
0
 10
3358.2582948143331123
 20
170.8761985856754109
 30
0.0
 40
2.074472346652604
 50
134.3485387180724899
 51
162.5730698515438064
  0
ARC
  5
1937F
  8
0
 10
3357.8119329189139535
 20
171.3328280658209906
 30
0.0
 40
1.4359197459852411
 50
76.9351076921520018
 51
134.3485387180724899
  0
ARC
  5
19380
  8
0
 10
3357.8461583318548946
 20
171.8580848445216134
 30
0.0
 40
0.9204924588653772
 50
45.3107969984105807
 51
71.6119318889821983
  0
ARC
  5
19381
  8
0
 10
3357.5296467323150864
 20
171.5788227600814082
 30
0.0
 40
0.6285976947445868
 50
47.2797625245050881
 51
98.3904384962994527
  0
ARC
  5
19382
  8
0
 10
3357.5938536933899741
 20
171.1435114074417925
 30
0.0
 40
1.068618725591264
 50
98.3904384962994527
 51
140.5181851220451961
  0
ARC
  5
19383
  8
0
 10
3357.6216021974018986
 20
171.0763699323458127
 30
0.0
 40
1.1332420558895351
 50
138.7899044705499136
 51
170.9444794252773931
  0
ARC
  5
19384
  8
0
 10
3357.1943174664229446
 20
171.1229610891624873
 30
0.0
 40
0.70427020292638
 50
169.2161987737869993
 51
206.9348088296931962
  0
ARC
  5
19385
  8
0
 10
3357.0906195724928693
 20
171.070272906092697
 30
0.0
 40
0.5879546930376816
 50
206.9348088296931962
 51
240.925308035941697
  0
ARC
  5
19386
  8
0
 10
3357.1149524566858418
 20
171.1140359486120985
 30
0.0
 40
0.6380275713622384
 50
240.925308035941697
 51
287.8586732520831788
  0
ARC
  5
19387
  8
0
 10
3356.909062505304064
 20
171.7530590476006012
 30
0.0
 40
1.309400190047985
 50
287.8586732520831788
 51
315.582375329597312
  0
ARC
  5
19388
  8
0
 10
3357.1021710725540288
 20
171.5638367652518923
 30
0.0
 40
1.0390374875856061
 50
315.582375329597312
 51
345.6886732341134234
  0
ARC
  5
19389
  8
0
 10
3357.1920425377547872
 20
171.5409098940972115
 30
0.0
 40
0.946287707649054
 50
345.6886732341134234
 51
19.5389290322789897
  0
ARC
  5
1938A
  8
0
 10
3357.5457379646832123
 20
171.6184331894293962
 30
0.0
 40
0.58877270025685
 50
23.94510901306408
 51
45.8149652452942604
  0
ARC
  5
1938B
  8
0
 10
3357.4241446228547829
 20
171.651356819813401
 30
0.0
 40
0.6434515577381427
 50
6.5074453598122126
 51
43.1243556127822032
  0
ARC
  5
1938C
  8
0
 10
3357.1514972096288147
 20
171.6202566810304972
 30
0.0
 40
0.9178669920183521
 50
342.1144228535908951
 51
6.5074453598122126
  0
ARC
  5
1938D
  8
0
 10
3356.8916187738968802
 20
171.7041228916640989
 30
0.0
 40
1.190942700649966
 50
324.3098359285975221
 51
342.1144228535908951
  0
ARC
  5
1938E
  8
0
 10
3356.8840201995408279
 20
171.70958104349819
 30
0.0
 40
1.2002984343834631
 50
301.2742893954562078
 51
324.3098359285975221
  0
ARC
  5
1938F
  8
0
 10
3356.9912898936008787
 20
171.532974913233204
 30
0.0
 40
0.9936670899288719
 50
281.6673218145064084
 51
301.2742893954562078
  0
ARC
  5
19390
  8
0
 10
3357.0418479303989443
 20
171.2881362478678966
 30
0.0
 40
0.7436629156782825
 50
258.2891298916869118
 51
281.6673218145064084
  0
ARC
  5
19391
  8
0
 10
3357.0620744404509423
 20
171.3857131411477894
 30
0.0
 40
0.8433141164288273
 50
245.8581043013527108
 51
258.2891298916869118
  0
ARC
  5
19392
  8
0
 10
3357.5440227972840148
 20
171.6580656216137015
 30
0.0
 40
0.8765658824346823
 50
357.55116754565978
 51
44.1396681604283287
  0
ARC
  5
19393
  8
0
 10
3356.9428047694800625
 20
171.6837774518913875
 30
0.0
 40
1.4783334581430521
 50
327.2192595736381122
 51
357.55116754565978
  0
ARC
  5
19394
  8
0
 10
3356.8354214813070939
 20
171.752930182062812
 30
0.0
 40
1.606056872867593
 50
299.0730726603666199
 51
327.2192595736394196
  0
ARC
  5
19395
  8
0
 10
3357.0271600663691061
 20
171.4080626279950934
 30
0.0
 40
1.211471882212259
 50
266.0009425545737258
 51
299.0730726603666199
  0
ARC
  5
19396
  8
0
 10
3356.9938106629620052
 20
170.9310311670066085
 30
0.0
 40
0.7332761090393141
 50
234.7209466603270869
 51
266.0009425545737258
  0
ARC
  5
19397
  8
0
 10
3357.0062366799711526
 20
170.9485946717026934
 30
0.0
 40
0.7547908155432036
 50
202.0466192731614115
 51
234.7209466603270869
  0
ARC
  5
19398
  8
0
 10
3357.6395977582751584
 20
171.7246148032564861
 30
0.0
 40
0.7618635614822625
 50
45.5537140921370209
 51
71.7522703272310309
  0
ARC
  5
19399
  8
0
 10
3357.5849314891411268
 20
171.5588120357570006
 30
0.0
 40
0.936445801963805
 50
71.7522703272310309
 51
106.5138348249056008
  0
ARC
  5
1939A
  8
0
 10
3357.7677564469440767
 20
170.942152147827386
 30
0.0
 40
1.579636584373548
 50
106.5138348249056008
 51
126.6059528778343974
  0
ARC
  5
1939B
  8
0
 10
3357.5812295412620188
 20
171.1932563308087936
 30
0.0
 40
1.2668337754766461
 50
126.6059528778343974
 51
147.4126515017779866
  0
ARC
  5
1939C
  8
0
 10
3357.590449253143106
 20
171.1873629471105005
 30
0.0
 40
1.277776127078708
 50
147.4126515017794077
 51
167.8794573123882117
  0
ARC
  5
1939D
  8
0
 10
3359.9380216524082243
 20
170.6832065883980079
 30
0.0
 40
3.678873751878871
 50
167.8794573123882117
 51
174.0025019848206114
  0
ARC
  5
1939E
  8
0
 10
3357.4471045357217918
 20
170.9449025529048924
 30
0.0
 40
1.1742474603853661
 50
174.0025019848206114
 51
193.7763624438744046
  0
ARC
  5
1939F
  8
0
 10
3349.2468709915169711
 20
168.0121838768384066
 30
0.0
 40
1.5001991385849229
 50
9.4754199749409995
 51
52.1834068239525521
  0
ARC
  5
193A0
  8
0
 10
3349.5873404087988092
 20
168.4406641586637932
 30
0.0
 40
0.9529758293854143
 50
52.5589706264697014
 51
114.8791161381098931
  0
ARC
  5
193A1
  8
0
 10
3349.801428447869057
 20
167.9790104213718109
 30
0.0
 40
1.461854853936619
 50
114.8791161381098931
 51
160.2745187571111103
  0
ARC
  5
193A2
  8
0
 10
3350.3983548873611653
 20
167.7649802593475101
 30
0.0
 40
2.095992129627835
 50
160.2745187571111103
 51
194.540384612209408
  0
ARC
  5
193A3
  8
0
 10
3349.7704562470698875
 20
167.6021223722474076
 30
0.0
 40
1.447317023067916
 50
194.540384612209408
 51
230.5116809205019877
  0
ARC
  5
193A4
  8
0
 10
3349.5132177268687883
 20
167.2899374427717873
 30
0.0
 40
1.042803628398258
 50
230.5116809205019877
 51
292.9033977108338149
  0
ARC
  5
193A5
  8
0
 10
3349.4588614234930901
 20
167.4185955497536895
 30
0.0
 40
1.182472938587702
 50
292.9033977108338149
 51
335.5845486113287279
  0
ARC
  5
193A6
  8
0
 10
3348.7557209608039557
 20
167.8639616252750102
 30
0.0
 40
2.010111475129869
 50
332.3078245920548852
 51
11.3383175538528302
  0
ARC
  5
193A7
  8
0
 10
3349.0392562623869708
 20
167.8955299020207974
 30
0.0
 40
1.331621327993723
 50
12.0832039706387899
 51
44.3401092744884622
  0
ARC
  5
193A8
  8
0
 10
3349.3758036437880037
 20
168.2244130047373005
 30
0.0
 40
0.8610597112203915
 50
44.3401092744884622
 51
82.5217093230121748
  0
ARC
  5
193A9
  8
0
 10
3349.388228993499979
 20
168.3190700391853056
 30
0.0
 40
0.7655906403861116
 50
82.5217093230121748
 51
119.2854112908467954
  0
ARC
  5
193AA
  8
0
 10
3349.5477783566511789
 20
168.0345867148772925
 30
0.0
 40
1.09176047512142
 50
119.2854112908467954
 51
156.1180473697579885
  0
ARC
  5
193AB
  8
0
 10
3350.0499365133141509
 20
167.8122500568074997
 30
0.0
 40
1.6409384096968589
 50
156.1180473697579885
 51
188.7804181164958948
  0
ARC
  5
193AC
  8
0
 10
3349.8047384401738782
 20
167.7743771943212892
 30
0.0
 40
1.3928326887142011
 50
188.7804181164958948
 51
215.7975611322480063
  0
ARC
  5
193AD
  8
0
 10
3349.4987959356149076
 20
167.5537442971709083
 30
0.0
 40
1.015632885690394
 50
215.7975611322480063
 51
245.3902071276604033
  0
ARC
  5
193AE
  8
0
 10
3349.3929053509750702
 20
167.3225636030581995
 30
0.0
 40
0.7613548307076013
 50
245.3902071276604033
 51
292.2990898488096718
  0
ARC
  5
193AF
  8
0
 10
3349.3054271813489322
 20
167.5358670714130085
 30
0.0
 40
0.9918994029127706
 50
292.2990898488096718
 51
325.3767942153583022
  0
ARC
  5
193B0
  8
0
 10
3348.9341277355420061
 20
167.7922314136503985
 30
0.0
 40
1.4431044055743669
 50
325.3767942153583022
 51
351.710784632569414
  0
ARC
  5
193B1
  8
0
 10
3348.7291875516921209
 20
167.8220895579243006
 30
0.0
 40
1.6502082146554471
 50
351.710784632569414
 51
12.3229821948583798
  0
ARC
  5
193B2
  8
0
 10
3349.2502982420610351
 20
167.9506017731916074
 30
0.0
 40
0.8623747343785527
 50
19.3009779224074194
 51
59.3186279367137104
  0
ARC
  5
193B3
  8
0
 10
3349.4030970164772043
 20
168.2081349320388881
 30
0.0
 40
0.5629239147621594
 50
59.3186279367137104
 51
105.2922723965203033
  0
ARC
  5
193B4
  8
0
 10
3349.4389818924360043
 20
168.0768923741997014
 30
0.0
 40
0.6989839504476955
 50
105.2922723965203033
 51
136.9294152649598004
  0
ARC
  5
193B5
  8
0
 10
3349.641898213982131
 20
167.887201946809995
 30
0.0
 40
0.9767563245116269
 50
136.9294152649598004
 51
172.3371306307267048
  0
ARC
  5
193B6
  8
0
 10
3350.007109606944141
 20
167.8380644105160115
 30
0.0
 40
1.3452585077099239
 50
172.3371306307267048
 51
197.1729751512727944
  0
ARC
  5
193B7
  8
0
 10
3349.5457360869518197
 20
167.6954838837083059
 30
0.0
 40
0.8623561039324668
 50
197.1729751512727944
 51
229.7048310069276909
  0
ARC
  5
193B8
  8
0
 10
3349.4208181490371317
 20
167.5481605272146908
 30
0.0
 40
0.6692015995022701
 50
229.7048310069276909
 51
268.0516755230970034
  0
ARC
  5
193B9
  8
0
 10
3349.3848248440458519
 20
167.5287115397586888
 30
0.0
 40
0.6495007411479508
 50
271.1681994928335939
 51
317.3524077001047203
  0
ARC
  5
193BA
  8
0
 10
3348.919286212445968
 20
167.867113426585604
 30
0.0
 40
1.222992210402239
 50
320.4689316698625134
 51
353.2107424074220035
  0
ARC
  5
193BB
  8
0
 10
3348.9594339961140577
 20
167.8247442903183071
 30
0.0
 40
1.1787083117521751
 50
355.0254162689266764
 51
20.4017563980704608
  0
ARC
  5
193BC
  8
0
 10
3349.3109568073177797
 20
168.0857526619001021
 30
0.0
 40
0.6677546500747049
 50
54.9396684436062728
 51
94.838812264472665
  0
ARC
  5
193BD
  8
0
 10
3349.2492638809230812
 20
167.9978431935857941
 30
0.0
 40
0.7751515391660377
 50
23.0401717360380509
 51
54.9396684436062728
  0
ARC
  5
193BE
  8
0
 10
3348.95148450782699
 20
167.8325036233088952
 30
0.0
 40
1.1144562224153329
 50
2.9765258491953062
 51
24.8710753246463199
  0
ARC
  5
193BF
  8
0
 10
3348.9197622169849637
 20
167.8227195967700993
 30
0.0
 40
1.146672545903662
 50
338.5560457953397986
 51
3.3824405827094659
  0
ARC
  5
193C0
  8
0
 10
3348.9923818445149664
 20
167.8230385603189916
 30
0.0
 40
1.0795304334070981
 50
319.2768466222123038
 51
337.1310569402338047
  0
ARC
  5
193C1
  8
0
 10
3349.3349278794889869
 20
167.5281615705594902
 30
0.0
 40
0.6275456713125349
 50
292.9261334515858266
 51
319.2768466222123038
  0
ARC
  5
193C2
  8
0
 10
3349.3243247484811036
 20
167.5532307918028891
 30
0.0
 40
0.6547650071039578
 50
272.6466707838573029
 51
292.9261334515858266
  0
ARC
  5
193C3
  8
0
 10
3349.3199506568789729
 20
167.6478548410919132
 30
0.0
 40
0.7494901008287647
 50
264.4158399399302084
 51
272.6466707838573029
  0
ARC
  5
193C4
  8
0
 10
3352.3402515577017766
 20
168.0121838768384066
 30
0.0
 40
1.5001991385849229
 50
9.4754199749409995
 51
52.1834068239525521
  0
ARC
  5
193C5
  8
0
 10
3352.680720974984979
 20
168.4406641586637932
 30
0.0
 40
0.9529758293854143
 50
52.5589706264697014
 51
114.8791161381098931
  0
ARC
  5
193C6
  8
0
 10
3352.8948090140552267
 20
167.9790104213718109
 30
0.0
 40
1.461854853936619
 50
114.8791161381098931
 51
160.2745187571111103
  0
ARC
  5
193C7
  8
0
 10
3353.4917354535468803
 20
167.7649802593475101
 30
0.0
 40
2.095992129627835
 50
160.2745187571111103
 51
194.540384612209408
  0
ARC
  5
193C8
  8
0
 10
3352.8638368132560572
 20
167.6021223722474076
 30
0.0
 40
1.447317023067916
 50
194.540384612209408
 51
230.5116809205019877
  0
ARC
  5
193C9
  8
0
 10
3352.6065982930531391
 20
167.2899374427717873
 30
0.0
 40
1.042803628398258
 50
230.5116809205019877
 51
292.9033977108338149
  0
ARC
  5
193CA
  8
0
 10
3352.5522419896778956
 20
167.4185955497536895
 30
0.0
 40
1.182472938587702
 50
292.9033977108338149
 51
335.5845486113287279
  0
ARC
  5
193CB
  8
0
 10
3351.8491015269892159
 20
167.8639616252750102
 30
0.0
 40
2.010111475129869
 50
332.3078245920548852
 51
11.3383175538528302
  0
ARC
  5
193CC
  8
0
 10
3352.1326368285717763
 20
167.8955299020207974
 30
0.0
 40
1.331621327993723
 50
12.0832039706387899
 51
44.3401092744884622
  0
ARC
  5
193CD
  8
0
 10
3352.4691842099728092
 20
168.2244130047373005
 30
0.0
 40
0.8610597112203915
 50
44.3401092744884622
 51
82.5217093230121748
  0
ARC
  5
193CE
  8
0
 10
3352.4816095596847845
 20
168.3190700391853056
 30
0.0
 40
0.7655906403861116
 50
82.5217093230121748
 51
119.2854112908467954
  0
ARC
  5
193CF
  8
0
 10
3352.6411589228359844
 20
168.0345867148772925
 30
0.0
 40
1.09176047512142
 50
119.2854112908467954
 51
156.1180473697579885
  0
ARC
  5
193D0
  8
0
 10
3353.1433170794989564
 20
167.8122500568074997
 30
0.0
 40
1.6409384096968589
 50
156.1180473697579885
 51
188.7804181164958948
  0
ARC
  5
193D1
  8
0
 10
3352.8981190063591384
 20
167.7743771943212892
 30
0.0
 40
1.3928326887142011
 50
188.7804181164958948
 51
215.7975611322480063
  0
ARC
  5
193D2
  8
0
 10
3352.5921765017988037
 20
167.5537442971709083
 30
0.0
 40
1.015632885690394
 50
215.7975611322480063
 51
245.3902071276604033
  0
ARC
  5
193D3
  8
0
 10
3352.4862859171589662
 20
167.3225636030581995
 30
0.0
 40
0.7613548307076013
 50
245.3902071276604033
 51
292.2990898488096718
  0
ARC
  5
193D4
  8
0
 10
3352.3988077475328282
 20
167.5358670714130085
 30
0.0
 40
0.9918994029127706
 50
292.2990898488096718
 51
325.3767942153583022
  0
ARC
  5
193D5
  8
0
 10
3352.0275083017268116
 20
167.7922314136503985
 30
0.0
 40
1.4431044055743669
 50
325.3767942153583022
 51
351.710784632569414
  0
ARC
  5
193D6
  8
0
 10
3351.8225681178778359
 20
167.8220895579243006
 30
0.0
 40
1.6502082146554471
 50
351.710784632569414
 51
12.3229821948583798
  0
ARC
  5
193D7
  8
0
 10
3352.3436788082458406
 20
167.9506017731916074
 30
0.0
 40
0.8623747343785527
 50
19.3009779224074194
 51
59.3186279367137104
  0
ARC
  5
193D8
  8
0
 10
3352.4964775826629193
 20
168.2081349320388881
 30
0.0
 40
0.5629239147621594
 50
59.3186279367137104
 51
105.2922723965203033
  0
ARC
  5
193D9
  8
0
 10
3352.5323624586208098
 20
168.0768923741997014
 30
0.0
 40
0.6989839504476955
 50
105.2922723965203033
 51
136.9294152649598004
  0
ARC
  5
193DA
  8
0
 10
3352.7352787801669365
 20
167.887201946809995
 30
0.0
 40
0.9767563245116269
 50
136.9294152649598004
 51
172.3371306307267048
  0
ARC
  5
193DB
  8
0
 10
3353.1004901731289465
 20
167.8380644105160115
 30
0.0
 40
1.3452585077099239
 50
172.3371306307267048
 51
197.1729751512727944
  0
ARC
  5
193DC
  8
0
 10
3352.63911665313708
 20
167.6954838837083059
 30
0.0
 40
0.8623561039324668
 50
197.1729751512727944
 51
229.7048310069276909
  0
ARC
  5
193DD
  8
0
 10
3352.5141987152219372
 20
167.5481605272146908
 30
0.0
 40
0.6692015995022701
 50
229.7048310069276909
 51
268.0516755230970034
  0
ARC
  5
193DE
  8
0
 10
3352.4782054102311122
 20
167.5287115397586888
 30
0.0
 40
0.6495007411479508
 50
271.1681994928335939
 51
317.3524077001047203
  0
ARC
  5
193DF
  8
0
 10
3352.012666778629864
 20
167.867113426585604
 30
0.0
 40
1.222992210402239
 50
320.4689316698625134
 51
353.2107424074220035
  0
ARC
  5
193E0
  8
0
 10
3352.0528145622997727
 20
167.8247442903183071
 30
0.0
 40
1.1787083117521751
 50
355.0254162689266764
 51
20.4017563980704608
  0
ARC
  5
193E1
  8
0
 10
3352.40433737350304
 20
168.0857526619001021
 30
0.0
 40
0.6677546500747049
 50
54.9396684436062728
 51
94.838812264472665
  0
ARC
  5
193E2
  8
0
 10
3352.3426444471078867
 20
167.9978431935857941
 30
0.0
 40
0.7751515391660377
 50
23.0401717360380509
 51
54.9396684436062728
  0
ARC
  5
193E3
  8
0
 10
3352.0448650740117955
 20
167.8325036233088952
 30
0.0
 40
1.1144562224153329
 50
2.9765258491953062
 51
24.8710753246463199
  0
ARC
  5
193E4
  8
0
 10
3352.013142783170224
 20
167.8227195967700993
 30
0.0
 40
1.146672545903662
 50
338.5560457953397986
 51
3.3824405827094659
  0
ARC
  5
193E5
  8
0
 10
3352.0857624107002266
 20
167.8230385603189916
 30
0.0
 40
1.0795304334070981
 50
319.2768466222123038
 51
337.1310569402338047
  0
ARC
  5
193E6
  8
0
 10
3352.4283084456737924
 20
167.5281615705594902
 30
0.0
 40
0.6275456713125349
 50
292.9261334515858266
 51
319.2768466222123038
  0
ARC
  5
193E7
  8
0
 10
3352.4177053146659091
 20
167.5532307918028891
 30
0.0
 40
0.6547650071039578
 50
272.6466707838573029
 51
292.9261334515858266
  0
ARC
  5
193E8
  8
0
 10
3352.4133312230651427
 20
167.6478548410919132
 30
0.0
 40
0.7494901008287647
 50
264.4158399399302084
 51
272.6466707838573029
  0
ARC
  5
193E9
  8
0
 10
3355.4148289194340578
 20
168.0121838768384066
 30
0.0
 40
1.5001991385849229
 50
9.4754199749409995
 51
52.1834068239525521
  0
ARC
  5
193EA
  8
0
 10
3355.7552983367158959
 20
168.4406641586637932
 30
0.0
 40
0.9529758293854143
 50
52.5589706264697014
 51
114.8791161381098931
  0
ARC
  5
193EB
  8
0
 10
3355.9693863757847794
 20
167.9790104213718109
 30
0.0
 40
1.461854853936619
 50
114.8791161381098931
 51
160.2745187571111103
  0
ARC
  5
193EC
  8
0
 10
3356.5663128152768877
 20
167.7649802593475101
 30
0.0
 40
2.095992129627835
 50
160.2745187571111103
 51
194.540384612209408
  0
ARC
  5
193ED
  8
0
 10
3355.9384141749860646
 20
167.6021223722474076
 30
0.0
 40
1.447317023067916
 50
194.540384612209408
 51
230.5116809205019877
  0
ARC
  5
193EE
  8
0
 10
3355.6811756547849654
 20
167.2899374427717873
 30
0.0
 40
1.042803628398258
 50
230.5116809205019877
 51
292.9033977108338149
  0
ARC
  5
193EF
  8
0
 10
3355.6268193514088125
 20
167.4185955497536895
 30
0.0
 40
1.182472938587702
 50
292.9033977108338149
 51
335.5845486113287279
  0
ARC
  5
193F0
  8
0
 10
3354.9236788887201328
 20
167.8639616252750102
 30
0.0
 40
2.010111475129869
 50
332.3078245920548852
 51
11.3383175538528302
  0
ARC
  5
193F1
  8
0
 10
3355.2072141903031479
 20
167.8955299020207974
 30
0.0
 40
1.331621327993723
 50
12.0832039706387899
 51
44.3401092744884622
  0
ARC
  5
193F2
  8
0
 10
3355.5437615717028166
 20
168.2244130047373005
 30
0.0
 40
0.8610597112203915
 50
44.3401092744884622
 51
82.5217093230121748
  0
ARC
  5
193F3
  8
0
 10
3355.5561869214161561
 20
168.3190700391853056
 30
0.0
 40
0.7655906403861116
 50
82.5217093230121748
 51
119.2854112908467954
  0
ARC
  5
193F4
  8
0
 10
3355.7157362845669013
 20
168.0345867148772925
 30
0.0
 40
1.09176047512142
 50
119.2854112908467954
 51
156.1180473697579885
  0
ARC
  5
193F5
  8
0
 10
3356.2178944412289638
 20
167.8122500568074997
 30
0.0
 40
1.6409384096968589
 50
156.1180473697579885
 51
188.7804181164958948
  0
ARC
  5
193F6
  8
0
 10
3355.9726963680900553
 20
167.7743771943212892
 30
0.0
 40
1.3928326887142011
 50
188.7804181164958948
 51
215.7975611322480063
  0
ARC
  5
193F7
  8
0
 10
3355.6667538635301753
 20
167.5537442971709083
 30
0.0
 40
1.015632885690394
 50
215.7975611322480063
 51
245.3902071276604033
  0
ARC
  5
193F8
  8
0
 10
3355.5608632788907926
 20
167.3225636030581995
 30
0.0
 40
0.7613548307076013
 50
245.3902071276604033
 51
292.2990898488096718
  0
ARC
  5
193F9
  8
0
 10
3355.4733851092641999
 20
167.5358670714130085
 30
0.0
 40
0.9918994029127706
 50
292.2990898488096718
 51
325.3767942153583022
  0
ARC
  5
193FA
  8
0
 10
3355.1020856634581833
 20
167.7922314136503985
 30
0.0
 40
1.4431044055743669
 50
325.3767942153583022
 51
351.710784632569414
  0
ARC
  5
193FB
  8
0
 10
3354.8971454796078433
 20
167.8220895579243006
 30
0.0
 40
1.6502082146554471
 50
351.710784632569414
 51
12.3229821948583798
  0
ARC
  5
193FC
  8
0
 10
3355.4182561699781218
 20
167.9506017731916074
 30
0.0
 40
0.8623747343785527
 50
19.3009779224074194
 51
59.3186279367137104
  0
ARC
  5
193FD
  8
0
 10
3355.5710549443929267
 20
168.2081349320388881
 30
0.0
 40
0.5629239147621594
 50
59.3186279367137104
 51
105.2922723965203033
  0
ARC
  5
193FE
  8
0
 10
3355.6069398203521814
 20
168.0768923741997014
 30
0.0
 40
0.6989839504476955
 50
105.2922723965203033
 51
136.9294152649598004
  0
ARC
  5
193FF
  8
0
 10
3355.8098561418978534
 20
167.887201946809995
 30
0.0
 40
0.9767563245116269
 50
136.9294152649598004
 51
172.3371306307267048
  0
ARC
  5
19400
  8
0
 10
3356.1750675348589539
 20
167.8380644105160115
 30
0.0
 40
1.3452585077099239
 50
172.3371306307267048
 51
197.1729751512727944
  0
ARC
  5
19401
  8
0
 10
3355.7136940148679969
 20
167.6954838837083059
 30
0.0
 40
0.8623561039324668
 50
197.1729751512727944
 51
229.7048310069276909
  0
ARC
  5
19402
  8
0
 10
3355.5887760769519446
 20
167.5481605272146908
 30
0.0
 40
0.6692015995022701
 50
229.7048310069276909
 51
268.0516755230970034
  0
ARC
  5
19403
  8
0
 10
3355.5527827719620291
 20
167.5287115397586888
 30
0.0
 40
0.6495007411479508
 50
271.1681994928335939
 51
317.3524077001047203
  0
ARC
  5
19404
  8
0
 10
3355.0872441403607809
 20
167.867113426585604
 30
0.0
 40
1.222992210402239
 50
320.4689316698625134
 51
353.2107424074220035
  0
ARC
  5
19405
  8
0
 10
3355.1273919240311443
 20
167.8247442903183071
 30
0.0
 40
1.1787083117521751
 50
355.0254162689266764
 51
20.4017563980704608
  0
ARC
  5
19406
  8
0
 10
3355.4789147352339569
 20
168.0857526619001021
 30
0.0
 40
0.6677546500747049
 50
54.9396684436062728
 51
94.838812264472665
  0
ARC
  5
19407
  8
0
 10
3355.4172218088388036
 20
167.9978431935857941
 30
0.0
 40
0.7751515391660377
 50
23.0401717360380509
 51
54.9396684436062728
  0
ARC
  5
19408
  8
0
 10
3355.1194424357431672
 20
167.8325036233088952
 30
0.0
 40
1.1144562224153329
 50
2.9765258491953062
 51
24.8710753246463199
  0
ARC
  5
19409
  8
0
 10
3355.0877201449011409
 20
167.8227195967700993
 30
0.0
 40
1.146672545903662
 50
338.5560457953397986
 51
3.3824405827094659
  0
ARC
  5
1940A
  8
0
 10
3355.1603397724311435
 20
167.8230385603189916
 30
0.0
 40
1.0795304334070981
 50
319.2768466222123038
 51
337.1310569402338047
  0
ARC
  5
1940B
  8
0
 10
3355.5028858074051641
 20
167.5281615705594902
 30
0.0
 40
0.6275456713125349
 50
292.9261334515858266
 51
319.2768466222123038
  0
ARC
  5
1940C
  8
0
 10
3355.4922826763959165
 20
167.5532307918028891
 30
0.0
 40
0.6547650071039578
 50
272.6466707838573029
 51
292.9261334515858266
  0
ARC
  5
1940D
  8
0
 10
3355.4879085847960596
 20
167.6478548410919132
 30
0.0
 40
0.7494901008287647
 50
264.4158399399302084
 51
272.6466707838573029
  0
ARC
  5
1940E
  8
0
 10
3358.4953318532461708
 20
168.0121838768384066
 30
0.0
 40
1.5001991385849229
 50
9.4754199749409995
 51
52.1834068239525521
  0
ARC
  5
1940F
  8
0
 10
3358.8358012705280089
 20
168.4406641586637932
 30
0.0
 40
0.9529758293854143
 50
52.5589706264697014
 51
114.8791161381098931
  0
ARC
  5
19410
  8
0
 10
3359.0498893095959829
 20
167.9790104213718109
 30
0.0
 40
1.461854853936619
 50
114.8791161381098931
 51
160.2745187571111103
  0
ARC
  5
19411
  8
0
 10
3359.6468157490890007
 20
167.7649802593475101
 30
0.0
 40
2.095992129627835
 50
160.2745187571111103
 51
194.540384612209408
  0
ARC
  5
19412
  8
0
 10
3359.0189171087981777
 20
167.6021223722474076
 30
0.0
 40
1.447317023067916
 50
194.540384612209408
 51
230.5116809205019877
  0
ARC
  5
19413
  8
0
 10
3358.761678588596169
 20
167.2899374427717873
 30
0.0
 40
1.042803628398258
 50
230.5116809205019877
 51
292.9033977108338149
  0
ARC
  5
19414
  8
0
 10
3358.7073222852209256
 20
167.4185955497536895
 30
0.0
 40
1.182472938587702
 50
292.9033977108338149
 51
335.5845486113287279
  0
ARC
  5
19415
  8
0
 10
3358.0041818225308816
 20
167.8639616252750102
 30
0.0
 40
2.010111475129869
 50
332.3078245920548852
 51
11.3383175538528302
  0
ARC
  5
19416
  8
0
 10
3358.2877171241138967
 20
167.8955299020207974
 30
0.0
 40
1.331621327993723
 50
12.0832039706387899
 51
44.3401092744884622
  0
ARC
  5
19417
  8
0
 10
3358.6242645055149296
 20
168.2244130047373005
 30
0.0
 40
0.8610597112203915
 50
44.3401092744884622
 51
82.5217093230121748
  0
ARC
  5
19418
  8
0
 10
3358.6366898552269049
 20
168.3190700391853056
 30
0.0
 40
0.7655906403861116
 50
82.5217093230121748
 51
119.2854112908467954
  0
ARC
  5
19419
  8
0
 10
3358.7962392183781049
 20
168.0345867148772925
 30
0.0
 40
1.09176047512142
 50
119.2854112908467954
 51
156.1180473697579885
  0
ARC
  5
1941A
  8
0
 10
3359.2983973750419864
 20
167.8122500568074997
 30
0.0
 40
1.6409384096968589
 50
156.1180473697579885
 51
188.7804181164958948
  0
ARC
  5
1941B
  8
0
 10
3359.0531993019021684
 20
167.7743771943212892
 30
0.0
 40
1.3928326887142011
 50
188.7804181164958948
 51
215.7975611322480063
  0
ARC
  5
1941C
  8
0
 10
3358.7472567973418336
 20
167.5537442971709083
 30
0.0
 40
1.015632885690394
 50
215.7975611322480063
 51
245.3902071276604033
  0
ARC
  5
1941D
  8
0
 10
3358.6413662127019961
 20
167.3225636030581995
 30
0.0
 40
0.7613548307076013
 50
245.3902071276604033
 51
292.2990898488096718
  0
ARC
  5
1941E
  8
0
 10
3358.5538880430758581
 20
167.5358670714130085
 30
0.0
 40
0.9918994029127706
 50
292.2990898488096718
 51
325.3767942153583022
  0
ARC
  5
1941F
  8
0
 10
3358.1825885972698416
 20
167.7922314136503985
 30
0.0
 40
1.4431044055743669
 50
325.3767942153583022
 51
351.710784632569414
  0
ARC
  5
19420
  8
0
 10
3357.9776484134199563
 20
167.8220895579243006
 30
0.0
 40
1.6502082146554471
 50
351.710784632569414
 51
12.3229821948583798
  0
ARC
  5
19421
  8
0
 10
3358.4987591037888706
 20
167.9506017731916074
 30
0.0
 40
0.8623747343785527
 50
19.3009779224074194
 51
59.3186279367137104
  0
ARC
  5
19422
  8
0
 10
3358.6515578782050397
 20
168.2081349320388881
 30
0.0
 40
0.5629239147621594
 50
59.3186279367137104
 51
105.2922723965203033
  0
ARC
  5
19423
  8
0
 10
3358.6874427541638397
 20
168.0768923741997014
 30
0.0
 40
0.6989839504476955
 50
105.2922723965203033
 51
136.9294152649598004
  0
ARC
  5
19424
  8
0
 10
3358.8903590757099664
 20
167.887201946809995
 30
0.0
 40
0.9767563245116269
 50
136.9294152649598004
 51
172.3371306307267048
  0
ARC
  5
19425
  8
0
 10
3359.2555704686710669
 20
167.8380644105160115
 30
0.0
 40
1.3452585077099239
 50
172.3371306307267048
 51
197.1729751512727944
  0
ARC
  5
19426
  8
0
 10
3358.7941969486801099
 20
167.6954838837083059
 30
0.0
 40
0.8623561039324668
 50
197.1729751512727944
 51
229.7048310069276909
  0
ARC
  5
19427
  8
0
 10
3358.6692790107640576
 20
167.5481605272146908
 30
0.0
 40
0.6692015995022701
 50
229.7048310069276909
 51
268.0516755230970034
  0
ARC
  5
19428
  8
0
 10
3358.6332857057741421
 20
167.5287115397586888
 30
0.0
 40
0.6495007411479508
 50
271.1681994928335939
 51
317.3524077001047203
  0
ARC
  5
19429
  8
0
 10
3358.1677470741728939
 20
167.867113426585604
 30
0.0
 40
1.222992210402239
 50
320.4689316698625134
 51
353.2107424074220035
  0
ARC
  5
1942A
  8
0
 10
3358.2078948578428026
 20
167.8247442903183071
 30
0.0
 40
1.1787083117521751
 50
355.0254162689266764
 51
20.4017563980704608
  0
ARC
  5
1942B
  8
0
 10
3358.5594176690460699
 20
168.0857526619001021
 30
0.0
 40
0.6677546500747049
 50
54.9396684436062728
 51
94.838812264472665
  0
ARC
  5
1942C
  8
0
 10
3358.4977247426509166
 20
167.9978431935857941
 30
0.0
 40
0.7751515391660377
 50
23.0401717360380509
 51
54.9396684436062728
  0
ARC
  5
1942D
  8
0
 10
3358.1999453695548254
 20
167.8325036233088952
 30
0.0
 40
1.1144562224153329
 50
2.9765258491953062
 51
24.8710753246463199
  0
ARC
  5
1942E
  8
0
 10
3358.1682230787127992
 20
167.8227195967700993
 30
0.0
 40
1.146672545903662
 50
338.5560457953397986
 51
3.3824405827094659
  0
ARC
  5
1942F
  8
0
 10
3358.2408427062428018
 20
167.8230385603189916
 30
0.0
 40
1.0795304334070981
 50
319.2768466222123038
 51
337.1310569402338047
  0
ARC
  5
19430
  8
0
 10
3358.5833887412159129
 20
167.5281615705594902
 30
0.0
 40
0.6275456713125349
 50
292.9261334515858266
 51
319.2768466222123038
  0
ARC
  5
19431
  8
0
 10
3358.5727856102080295
 20
167.5532307918028891
 30
0.0
 40
0.6547650071039578
 50
272.6466707838573029
 51
292.9261334515858266
  0
ARC
  5
19432
  8
0
 10
3358.5684115186081726
 20
167.6478548410919132
 30
0.0
 40
0.7494901008287647
 50
264.4158399399302084
 51
272.6466707838573029
  0
ARC
  5
19433
  8
0
 10
3357.5123098265198678
 20
160.3104802061075134
 30
0.0
 40
1.3419587691003261
 50
316.9842389920863184
 51
2.9199052206461178
  0
ARC
  5
19434
  8
0
 10
3355.5043806410221805
 20
160.2080635211723916
 30
0.0
 40
3.3524981970469918
 50
2.9199052206461178
 51
20.6197021699777494
  0
ARC
  5
19435
  8
0
 10
3357.0302173515819959
 20
160.7821867277955903
 30
0.0
 40
1.7222236423555299
 50
20.6197021699777494
 51
51.1720445105407435
  0
ARC
  5
19436
  8
0
 10
3357.1555828249588558
 20
160.9379542358084052
 30
0.0
 40
1.522273602426587
 50
51.1720445105407435
 51
77.9825808997962895
  0
ARC
  5
19437
  8
0
 10
3357.3023022391939776
 20
161.6271843947594107
 30
0.0
 40
0.8176000620397699
 50
77.9825808997962895
 51
123.9886716713528045
  0
ARC
  5
19438
  8
0
 10
3357.656317036089149
 20
161.1021119671028998
 30
0.0
 40
1.45086740740506
 50
123.9886716713528045
 51
165.6848410840566999
  0
ARC
  5
19439
  8
0
 10
3358.1128128565910629
 20
160.9856240092518078
 30
0.0
 40
1.9219914658646431
 50
165.6848410840566999
 51
197.4269301484561936
  0
ARC
  5
1943A
  8
0
 10
3358.2582948143331123
 20
161.0312903970828984
 30
0.0
 40
2.074472346652604
 50
197.4269301484561936
 51
225.6514612819275101
  0
ARC
  5
1943B
  8
0
 10
3357.8119329189139535
 20
160.5746609169372903
 30
0.0
 40
1.4359197459852411
 50
225.6514612819275101
 51
283.0648923078480266
  0
ARC
  5
1943C
  8
0
 10
3357.8461583318548946
 20
160.0494041382368096
 30
0.0
 40
0.9204924588653772
 50
288.3880681110177875
 51
314.6892030015894193
  0
ARC
  5
1943D
  8
0
 10
3357.5296467323150864
 20
160.328666222676901
 30
0.0
 40
0.6285976947445868
 50
261.6095615037004904
 51
312.7202374754949119
  0
ARC
  5
1943E
  8
0
 10
3357.5938536933899741
 20
160.7639775753164884
 30
0.0
 40
1.068618725591264
 50
219.4818148779534965
 51
261.6095615037004904
  0
ARC
  5
1943F
  8
0
 10
3357.6216021974018986
 20
160.8311190504124966
 30
0.0
 40
1.1332420558895351
 50
189.0555205747226069
 51
221.2100955294500864
  0
ARC
  5
19440
  8
0
 10
3357.1943174664229446
 20
160.7845278935957936
 30
0.0
 40
0.70427020292638
 50
153.0651911703068038
 51
190.7838012262128871
  0
ARC
  5
19441
  8
0
 10
3357.0906195724928693
 20
160.8372160766656123
 30
0.0
 40
0.5879546930376816
 50
119.074691964058303
 51
153.0651911703068038
  0
ARC
  5
19442
  8
0
 10
3357.1149524566858418
 20
160.7934530341462107
 30
0.0
 40
0.6380275713622384
 50
72.1413267479166933
 51
119.074691964058303
  0
ARC
  5
19443
  8
0
 10
3356.909062505304064
 20
160.1544299351577081
 30
0.0
 40
1.309400190047985
 50
44.4176246704027236
 51
72.1413267479166933
  0
ARC
  5
19444
  8
0
 10
3357.1021710725540288
 20
160.3436522175063885
 30
0.0
 40
1.0390374875856061
 50
14.3113267658865606
 51
44.4176246704027236
  0
ARC
  5
19445
  8
0
 10
3357.1920425377547872
 20
160.3665790886610978
 30
0.0
 40
0.946287707649054
 50
340.4610709677210139
 51
14.3113267658865606
  0
ARC
  5
19446
  8
0
 10
3357.5457379646832123
 20
160.2890557933289131
 30
0.0
 40
0.58877270025685
 50
314.1850347547057254
 51
336.0548909869359022
  0
ARC
  5
19447
  8
0
 10
3357.4241446228547829
 20
160.2561321629449083
 30
0.0
 40
0.6434515577381427
 50
316.8756443872177897
 51
353.4925546401893826
  0
ARC
  5
19448
  8
0
 10
3357.1514972096288147
 20
160.287232301727812
 30
0.0
 40
0.9178669920183521
 50
353.4925546401893826
 51
17.8855771464091298
  0
ARC
  5
19449
  8
0
 10
3356.8916187738968802
 20
160.2033660910942103
 30
0.0
 40
1.190942700649966
 50
17.8855771464091298
 51
35.6901640714025206
  0
ARC
  5
1944A
  8
0
 10
3356.8840201995408279
 20
160.1979079392600909
 30
0.0
 40
1.2002984343834631
 50
35.6901640714025206
 51
58.7257106045438206
  0
ARC
  5
1944B
  8
0
 10
3356.9912898936008787
 20
160.3745140695249916
 30
0.0
 40
0.9936670899288719
 50
58.7257106045438206
 51
78.3326781854936058
  0
ARC
  5
1944C
  8
0
 10
3357.0418479303989443
 20
160.6193527348904126
 30
0.0
 40
0.7436629156782825
 50
78.3326781854936058
 51
101.7108701083131024
  0
ARC
  5
1944D
  8
0
 10
3357.0620744404509423
 20
160.5217758416104061
 30
0.0
 40
0.8433141164288273
 50
101.7108701083131024
 51
114.1418956986473034
  0
ARC
  5
1944E
  8
0
 10
3357.5440227972840148
 20
160.2494233611446077
 30
0.0
 40
0.8765658824346823
 50
315.8603318395716997
 51
2.4488324543402
  0
ARC
  5
1944F
  8
0
 10
3356.9428047694800625
 20
160.2237115308668933
 30
0.0
 40
1.4783334581430521
 50
2.4488324543402
 51
32.7807404263605733
  0
ARC
  5
19450
  8
0
 10
3356.8354214813070939
 20
160.1545588006954119
 30
0.0
 40
1.606056872867593
 50
32.7807404263605733
 51
60.926927339633437
  0
ARC
  5
19451
  8
0
 10
3357.0271600663691061
 20
160.4994263547631874
 30
0.0
 40
1.211471882212259
 50
60.926927339633437
 51
93.9990574454263452
  0
ARC
  5
19452
  8
0
 10
3356.9938106629620052
 20
160.9764578157515871
 30
0.0
 40
0.7332761090393141
 50
93.9990574454263452
 51
125.2790533396728989
  0
ARC
  5
19453
  8
0
 10
3357.0062366799711526
 20
160.9588943110555874
 30
0.0
 40
0.7547908155432036
 50
125.2790533396728989
 51
157.9533807268385033
  0
ARC
  5
19454
  8
0
 10
3357.6395977582751584
 20
160.1828741795017947
 30
0.0
 40
0.7618635614822625
 50
288.2477296727690259
 51
314.4462859078630004
  0
ARC
  5
19455
  8
0
 10
3357.5849314891411268
 20
160.3486769470013087
 30
0.0
 40
0.936445801963805
 50
253.4861651750944134
 51
288.2477296727690259
  0
ARC
  5
19456
  8
0
 10
3357.7677564469440767
 20
160.9653368349308096
 30
0.0
 40
1.579636584373548
 50
233.3940471221447126
 51
253.4861651750944134
  0
ARC
  5
19457
  8
0
 10
3357.5812295412620188
 20
160.7142326519494873
 30
0.0
 40
1.2668337754766461
 50
212.5873484982220134
 51
233.3940471221447126
  0
ARC
  5
19458
  8
0
 10
3357.590449253143106
 20
160.7201260356478087
 30
0.0
 40
1.277776127078708
 50
192.1205426876132947
 51
212.5873484982220134
  0
ARC
  5
19459
  8
0
 10
3359.9380216524082243
 20
161.2242823943603014
 30
0.0
 40
3.678873751878871
 50
185.9974980151793034
 51
192.1205426876132947
  0
ARC
  5
1945A
  8
0
 10
3357.4471045357217918
 20
160.9625864298533884
 30
0.0
 40
1.1742474603853661
 50
166.2236375561255954
 51
185.9974980151793034
  0
ARC
  5
1945B
  8
0
 10
3349.2468709915169711
 20
163.8953051059199026
 30
0.0
 40
1.5001991385849229
 50
307.8165931760473768
 51
350.5245800250589809
  0
ARC
  5
1945C
  8
0
 10
3349.5873404087988092
 20
163.4668248240944877
 30
0.0
 40
0.9529758293854143
 50
245.120883861866389
 51
307.4410293735302844
  0
ARC
  5
1945D
  8
0
 10
3349.801428447869057
 20
163.9284785613864983
 30
0.0
 40
1.461854853936619
 50
199.7254812428888897
 51
245.120883861866389
  0
ARC
  5
1945E
  8
0
 10
3350.3983548873611653
 20
164.1425087234107991
 30
0.0
 40
2.095992129627835
 50
165.459615387790592
 51
199.7254812428888897
  0
ARC
  5
1945F
  8
0
 10
3349.7704562470698875
 20
164.3053666105109016
 30
0.0
 40
1.447317023067916
 50
129.4883190794980123
 51
165.459615387790592
  0
ARC
  5
19460
  8
0
 10
3349.5132177268687883
 20
164.6175515399864935
 30
0.0
 40
1.042803628398258
 50
67.0966022891662135
 51
129.4883190794980123
  0
ARC
  5
19461
  8
0
 10
3349.4588614234930901
 20
164.4888934330045913
 30
0.0
 40
1.182472938587702
 50
24.4154513886713005
 51
67.0966022891662135
  0
ARC
  5
19462
  8
0
 10
3348.7557209608039557
 20
164.0435273574832991
 30
0.0
 40
2.010111475129869
 50
348.6616824461472106
 51
27.6921754079451503
  0
ARC
  5
19463
  8
0
 10
3349.0392562623869708
 20
164.0119590807375118
 30
0.0
 40
1.331621327993723
 50
315.6598907255115023
 51
347.9167960293611941
  0
ARC
  5
19464
  8
0
 10
3349.3758036437880037
 20
163.6830759780210087
 30
0.0
 40
0.8610597112203915
 50
277.4782906769877968
 51
315.6598907255115023
  0
ARC
  5
19465
  8
0
 10
3349.388228993499979
 20
163.5884189435730036
 30
0.0
 40
0.7655906403861116
 50
240.7145887091531904
 51
277.4782906769877968
  0
ARC
  5
19466
  8
0
 10
3349.5477783566511789
 20
163.8729022678809883
 30
0.0
 40
1.09176047512142
 50
203.8819526302420115
 51
240.7145887091531904
  0
ARC
  5
19467
  8
0
 10
3350.0499365133141509
 20
164.0952389259508095
 30
0.0
 40
1.6409384096968589
 50
171.2195818835056116
 51
203.8819526302420115
  0
ARC
  5
19468
  8
0
 10
3349.8047384401738782
 20
164.1331117884369917
 30
0.0
 40
1.3928326887142011
 50
144.2024388677533011
 51
171.2195818835056116
  0
ARC
  5
19469
  8
0
 10
3349.4987959356149076
 20
164.3537446855874009
 30
0.0
 40
1.015632885690394
 50
114.6097928723395967
 51
144.2024388677519937
  0
ARC
  5
1946A
  8
0
 10
3349.3929053509750702
 20
164.5849253797001097
 30
0.0
 40
0.7613548307076013
 50
67.7009101511903424
 51
114.6097928723395967
  0
ARC
  5
1946B
  8
0
 10
3349.3054271813489322
 20
164.3716219113453008
 30
0.0
 40
0.9918994029127706
 50
34.623205784641641
 51
67.7009101511903424
  0
ARC
  5
1946C
  8
0
 10
3348.9341277355420061
 20
164.1152575691077971
 30
0.0
 40
1.4431044055743669
 50
8.2892153674306126
 51
34.623205784641641
  0
ARC
  5
1946D
  8
0
 10
3348.7291875516921209
 20
164.0853994248340086
 30
0.0
 40
1.6502082146554471
 50
347.6770178051415883
 51
8.2892153674306126
  0
ARC
  5
1946E
  8
0
 10
3349.2502982420610351
 20
163.9568872095667018
 30
0.0
 40
0.8623747343785527
 50
300.6813720632862896
 51
340.6990220775925877
  0
ARC
  5
1946F
  8
0
 10
3349.4030970164772043
 20
163.6993540507193927
 30
0.0
 40
0.5629239147621594
 50
254.7077276034796967
 51
300.6813720632862896
  0
ARC
  5
19470
  8
0
 10
3349.4389818924360043
 20
163.8305966085586078
 30
0.0
 40
0.6989839504476955
 50
223.0705847350390059
 51
254.7077276034796967
  0
ARC
  5
19471
  8
0
 10
3349.641898213982131
 20
164.0202870359482858
 30
0.0
 40
0.9767563245116269
 50
187.6628693692732952
 51
223.0705847350401996
  0
ARC
  5
19472
  8
0
 10
3350.007109606944141
 20
164.0694245722422124
 30
0.0
 40
1.3452585077099239
 50
162.8270248487270919
 51
187.6628693692732952
  0
ARC
  5
19473
  8
0
 10
3349.5457360869518197
 20
164.2120050990500033
 30
0.0
 40
0.8623561039324668
 50
130.2951689930721955
 51
162.8270248487270919
  0
ARC
  5
19474
  8
0
 10
3349.4208181490371317
 20
164.3593284555435901
 30
0.0
 40
0.6692015995022701
 50
91.9483244769029682
 51
130.2951689930721955
  0
ARC
  5
19475
  8
0
 10
3349.3848248440458519
 20
164.378777442999592
 30
0.0
 40
0.6495007411479508
 50
42.6475922998952868
 51
88.8318005071664345
  0
ARC
  5
19476
  8
0
 10
3348.919286212445968
 20
164.0403755561727053
 30
0.0
 40
1.222992210402239
 50
6.7892575925779637
 51
39.5310683301375505
  0
ARC
  5
19477
  8
0
 10
3348.9594339961140577
 20
164.0827446924400874
 30
0.0
 40
1.1787083117521751
 50
339.5982436019294823
 51
4.9745837310732748
  0
ARC
  5
19478
  8
0
 10
3349.3109568073177797
 20
163.8217363208582071
 30
0.0
 40
0.6677546500747049
 50
265.1611877355272782
 51
305.0603315563936917
  0
ARC
  5
19479
  8
0
 10
3349.2492638809230812
 20
163.9096457891724867
 30
0.0
 40
0.7751515391660377
 50
305.0603315563936917
 51
336.9598282639619811
  0
ARC
  5
1947A
  8
0
 10
3348.95148450782699
 20
164.0749853594494141
 30
0.0
 40
1.1144562224153329
 50
335.1289246753536872
 51
357.0234741508047023
  0
ARC
  5
1947B
  8
0
 10
3348.9197622169849637
 20
164.0847693859882099
 30
0.0
 40
1.146672545903662
 50
356.6175594172905789
 51
21.4439542046601908
  0
ARC
  5
1947C
  8
0
 10
3348.9923818445149664
 20
164.0844504224392892
 30
0.0
 40
1.0795304334070981
 50
22.8689430597662202
 51
40.723153377787753
  0
ARC
  5
1947D
  8
0
 10
3349.3349278794889869
 20
164.3793274121987906
 30
0.0
 40
0.6275456713125349
 50
40.723153377787753
 51
67.0738665484141592
  0
ARC
  5
1947E
  8
0
 10
3349.3243247484811036
 20
164.3542581909553917
 30
0.0
 40
0.6547650071039578
 50
67.0738665484141592
 51
87.3533292161426829
  0
ARC
  5
1947F
  8
0
 10
3349.3199506568789729
 20
164.2596341416663961
 30
0.0
 40
0.7494901008287647
 50
87.3533292161426829
 51
95.5841600600697063
  0
ARC
  5
19480
  8
0
 10
3352.3402515577017766
 20
163.8953051059199026
 30
0.0
 40
1.5001991385849229
 50
307.8165931760473768
 51
350.5245800250589809
  0
ARC
  5
19481
  8
0
 10
3352.680720974984979
 20
163.4668248240944877
 30
0.0
 40
0.9529758293854143
 50
245.120883861866389
 51
307.4410293735302844
  0
ARC
  5
19482
  8
0
 10
3352.8948090140552267
 20
163.9284785613864983
 30
0.0
 40
1.461854853936619
 50
199.7254812428888897
 51
245.120883861866389
  0
ARC
  5
19483
  8
0
 10
3353.4917354535468803
 20
164.1425087234107991
 30
0.0
 40
2.095992129627835
 50
165.459615387790592
 51
199.7254812428888897
  0
ARC
  5
19484
  8
0
 10
3352.8638368132560572
 20
164.3053666105109016
 30
0.0
 40
1.447317023067916
 50
129.4883190794980123
 51
165.459615387790592
  0
ARC
  5
19485
  8
0
 10
3352.6065982930531391
 20
164.6175515399864935
 30
0.0
 40
1.042803628398258
 50
67.0966022891662135
 51
129.4883190794980123
  0
ARC
  5
19486
  8
0
 10
3352.5522419896778956
 20
164.4888934330045913
 30
0.0
 40
1.182472938587702
 50
24.4154513886713005
 51
67.0966022891662135
  0
ARC
  5
19487
  8
0
 10
3351.8491015269892159
 20
164.0435273574832991
 30
0.0
 40
2.010111475129869
 50
348.6616824461472106
 51
27.6921754079451503
  0
ARC
  5
19488
  8
0
 10
3352.1326368285717763
 20
164.0119590807375118
 30
0.0
 40
1.331621327993723
 50
315.6598907255115023
 51
347.9167960293611941
  0
ARC
  5
19489
  8
0
 10
3352.4691842099728092
 20
163.6830759780210087
 30
0.0
 40
0.8610597112203915
 50
277.4782906769877968
 51
315.6598907255115023
  0
ARC
  5
1948A
  8
0
 10
3352.4816095596847845
 20
163.5884189435730036
 30
0.0
 40
0.7655906403861116
 50
240.7145887091531904
 51
277.4782906769877968
  0
ARC
  5
1948B
  8
0
 10
3352.6411589228359844
 20
163.8729022678809883
 30
0.0
 40
1.09176047512142
 50
203.8819526302420115
 51
240.7145887091531904
  0
ARC
  5
1948C
  8
0
 10
3353.1433170794989564
 20
164.0952389259508095
 30
0.0
 40
1.6409384096968589
 50
171.2195818835056116
 51
203.8819526302420115
  0
ARC
  5
1948D
  8
0
 10
3352.8981190063591384
 20
164.1331117884369917
 30
0.0
 40
1.3928326887142011
 50
144.2024388677533011
 51
171.2195818835056116
  0
ARC
  5
1948E
  8
0
 10
3352.5921765017988037
 20
164.3537446855874009
 30
0.0
 40
1.015632885690394
 50
114.6097928723395967
 51
144.2024388677519937
  0
ARC
  5
1948F
  8
0
 10
3352.4862859171589662
 20
164.5849253797001097
 30
0.0
 40
0.7613548307076013
 50
67.7009101511903424
 51
114.6097928723395967
  0
ARC
  5
19490
  8
0
 10
3352.3988077475328282
 20
164.3716219113453008
 30
0.0
 40
0.9918994029127706
 50
34.623205784641641
 51
67.7009101511903424
  0
ARC
  5
19491
  8
0
 10
3352.0275083017268116
 20
164.1152575691077971
 30
0.0
 40
1.4431044055743669
 50
8.2892153674306126
 51
34.623205784641641
  0
ARC
  5
19492
  8
0
 10
3351.8225681178778359
 20
164.0853994248340086
 30
0.0
 40
1.6502082146554471
 50
347.6770178051415883
 51
8.2892153674306126
  0
ARC
  5
19493
  8
0
 10
3352.3436788082458406
 20
163.9568872095667018
 30
0.0
 40
0.8623747343785527
 50
300.6813720632862896
 51
340.6990220775925877
  0
ARC
  5
19494
  8
0
 10
3352.4964775826629193
 20
163.6993540507193927
 30
0.0
 40
0.5629239147621594
 50
254.7077276034796967
 51
300.6813720632862896
  0
ARC
  5
19495
  8
0
 10
3352.5323624586208098
 20
163.8305966085586078
 30
0.0
 40
0.6989839504476955
 50
223.0705847350390059
 51
254.7077276034796967
  0
ARC
  5
19496
  8
0
 10
3352.7352787801669365
 20
164.0202870359482858
 30
0.0
 40
0.9767563245116269
 50
187.6628693692732952
 51
223.0705847350401996
  0
ARC
  5
19497
  8
0
 10
3353.1004901731289465
 20
164.0694245722422124
 30
0.0
 40
1.3452585077099239
 50
162.8270248487270919
 51
187.6628693692732952
  0
ARC
  5
19498
  8
0
 10
3352.63911665313708
 20
164.2120050990500033
 30
0.0
 40
0.8623561039324668
 50
130.2951689930721955
 51
162.8270248487270919
  0
ARC
  5
19499
  8
0
 10
3352.5141987152219372
 20
164.3593284555435901
 30
0.0
 40
0.6692015995022701
 50
91.9483244769029682
 51
130.2951689930721955
  0
ARC
  5
1949A
  8
0
 10
3352.4782054102311122
 20
164.378777442999592
 30
0.0
 40
0.6495007411479508
 50
42.6475922998952868
 51
88.8318005071664345
  0
ARC
  5
1949B
  8
0
 10
3352.012666778629864
 20
164.0403755561727053
 30
0.0
 40
1.222992210402239
 50
6.7892575925779637
 51
39.5310683301375505
  0
ARC
  5
1949C
  8
0
 10
3352.0528145622997727
 20
164.0827446924400874
 30
0.0
 40
1.1787083117521751
 50
339.5982436019294823
 51
4.9745837310732748
  0
ARC
  5
1949D
  8
0
 10
3352.40433737350304
 20
163.8217363208582071
 30
0.0
 40
0.6677546500747049
 50
265.1611877355272782
 51
305.0603315563936917
  0
ARC
  5
1949E
  8
0
 10
3352.3426444471078867
 20
163.9096457891724867
 30
0.0
 40
0.7751515391660377
 50
305.0603315563936917
 51
336.9598282639619811
  0
ARC
  5
1949F
  8
0
 10
3352.0448650740117955
 20
164.0749853594494141
 30
0.0
 40
1.1144562224153329
 50
335.1289246753536872
 51
357.0234741508047023
  0
ARC
  5
194A0
  8
0
 10
3352.013142783170224
 20
164.0847693859882099
 30
0.0
 40
1.146672545903662
 50
356.6175594172905789
 51
21.4439542046601908
  0
ARC
  5
194A1
  8
0
 10
3352.0857624107002266
 20
164.0844504224392892
 30
0.0
 40
1.0795304334070981
 50
22.8689430597662202
 51
40.723153377787753
  0
ARC
  5
194A2
  8
0
 10
3352.4283084456737924
 20
164.3793274121987906
 30
0.0
 40
0.6275456713125349
 50
40.723153377787753
 51
67.0738665484141592
  0
ARC
  5
194A3
  8
0
 10
3352.4177053146659091
 20
164.3542581909553917
 30
0.0
 40
0.6547650071039578
 50
67.0738665484141592
 51
87.3533292161426829
  0
ARC
  5
194A4
  8
0
 10
3352.4133312230651427
 20
164.2596341416663961
 30
0.0
 40
0.7494901008287647
 50
87.3533292161426829
 51
95.5841600600697063
  0
ARC
  5
194A5
  8
0
 10
3355.4148289194340578
 20
163.8953051059199026
 30
0.0
 40
1.5001991385849229
 50
307.8165931760473768
 51
350.5245800250589809
  0
ARC
  5
194A6
  8
0
 10
3355.7552983367158959
 20
163.4668248240944877
 30
0.0
 40
0.9529758293854143
 50
245.120883861866389
 51
307.4410293735302844
  0
ARC
  5
194A7
  8
0
 10
3355.9693863757847794
 20
163.9284785613864983
 30
0.0
 40
1.461854853936619
 50
199.7254812428888897
 51
245.120883861866389
  0
ARC
  5
194A8
  8
0
 10
3356.5663128152768877
 20
164.1425087234107991
 30
0.0
 40
2.095992129627835
 50
165.459615387790592
 51
199.7254812428888897
  0
ARC
  5
194A9
  8
0
 10
3355.9384141749860646
 20
164.3053666105109016
 30
0.0
 40
1.447317023067916
 50
129.4883190794980123
 51
165.459615387790592
  0
ARC
  5
194AA
  8
0
 10
3355.6811756547849654
 20
164.6175515399864935
 30
0.0
 40
1.042803628398258
 50
67.0966022891662135
 51
129.4883190794980123
  0
ARC
  5
194AB
  8
0
 10
3355.6268193514088125
 20
164.4888934330045913
 30
0.0
 40
1.182472938587702
 50
24.4154513886713005
 51
67.0966022891662135
  0
ARC
  5
194AC
  8
0
 10
3354.9236788887201328
 20
164.0435273574832991
 30
0.0
 40
2.010111475129869
 50
348.6616824461472106
 51
27.6921754079451503
  0
ARC
  5
194AD
  8
0
 10
3355.2072141903031479
 20
164.0119590807375118
 30
0.0
 40
1.331621327993723
 50
315.6598907255115023
 51
347.9167960293611941
  0
ARC
  5
194AE
  8
0
 10
3355.5437615717028166
 20
163.6830759780210087
 30
0.0
 40
0.8610597112203915
 50
277.4782906769877968
 51
315.6598907255115023
  0
ARC
  5
194AF
  8
0
 10
3355.5561869214161561
 20
163.5884189435730036
 30
0.0
 40
0.7655906403861116
 50
240.7145887091531904
 51
277.4782906769877968
  0
ARC
  5
194B0
  8
0
 10
3355.7157362845669013
 20
163.8729022678809883
 30
0.0
 40
1.09176047512142
 50
203.8819526302420115
 51
240.7145887091531904
  0
ARC
  5
194B1
  8
0
 10
3356.2178944412289638
 20
164.0952389259508095
 30
0.0
 40
1.6409384096968589
 50
171.2195818835056116
 51
203.8819526302420115
  0
ARC
  5
194B2
  8
0
 10
3355.9726963680900553
 20
164.1331117884369917
 30
0.0
 40
1.3928326887142011
 50
144.2024388677533011
 51
171.2195818835056116
  0
ARC
  5
194B3
  8
0
 10
3355.6667538635301753
 20
164.3537446855874009
 30
0.0
 40
1.015632885690394
 50
114.6097928723395967
 51
144.2024388677519937
  0
ARC
  5
194B4
  8
0
 10
3355.5608632788907926
 20
164.5849253797001097
 30
0.0
 40
0.7613548307076013
 50
67.7009101511903424
 51
114.6097928723395967
  0
ARC
  5
194B5
  8
0
 10
3355.4733851092641999
 20
164.3716219113453008
 30
0.0
 40
0.9918994029127706
 50
34.623205784641641
 51
67.7009101511903424
  0
ARC
  5
194B6
  8
0
 10
3355.1020856634581833
 20
164.1152575691077971
 30
0.0
 40
1.4431044055743669
 50
8.2892153674306126
 51
34.623205784641641
  0
ARC
  5
194B7
  8
0
 10
3354.8971454796078433
 20
164.0853994248340086
 30
0.0
 40
1.6502082146554471
 50
347.6770178051415883
 51
8.2892153674306126
  0
ARC
  5
194B8
  8
0
 10
3355.4182561699781218
 20
163.9568872095667018
 30
0.0
 40
0.8623747343785527
 50
300.6813720632862896
 51
340.6990220775925877
  0
ARC
  5
194B9
  8
0
 10
3355.5710549443929267
 20
163.6993540507193927
 30
0.0
 40
0.5629239147621594
 50
254.7077276034796967
 51
300.6813720632862896
  0
ARC
  5
194BA
  8
0
 10
3355.6069398203521814
 20
163.8305966085586078
 30
0.0
 40
0.6989839504476955
 50
223.0705847350390059
 51
254.7077276034796967
  0
ARC
  5
194BB
  8
0
 10
3355.8098561418978534
 20
164.0202870359482858
 30
0.0
 40
0.9767563245116269
 50
187.6628693692732952
 51
223.0705847350401996
  0
ARC
  5
194BC
  8
0
 10
3356.1750675348589539
 20
164.0694245722422124
 30
0.0
 40
1.3452585077099239
 50
162.8270248487270919
 51
187.6628693692732952
  0
ARC
  5
194BD
  8
0
 10
3355.7136940148679969
 20
164.2120050990500033
 30
0.0
 40
0.8623561039324668
 50
130.2951689930721955
 51
162.8270248487270919
  0
ARC
  5
194BE
  8
0
 10
3355.5887760769519446
 20
164.3593284555435901
 30
0.0
 40
0.6692015995022701
 50
91.9483244769029682
 51
130.2951689930721955
  0
ARC
  5
194BF
  8
0
 10
3355.5527827719620291
 20
164.378777442999592
 30
0.0
 40
0.6495007411479508
 50
42.6475922998952868
 51
88.8318005071664345
  0
ARC
  5
194C0
  8
0
 10
3355.0872441403607809
 20
164.0403755561727053
 30
0.0
 40
1.222992210402239
 50
6.7892575925779637
 51
39.5310683301375505
  0
ARC
  5
194C1
  8
0
 10
3355.1273919240311443
 20
164.0827446924400874
 30
0.0
 40
1.1787083117521751
 50
339.5982436019294823
 51
4.9745837310732748
  0
ARC
  5
194C2
  8
0
 10
3355.4789147352339569
 20
163.8217363208582071
 30
0.0
 40
0.6677546500747049
 50
265.1611877355272782
 51
305.0603315563936917
  0
ARC
  5
194C3
  8
0
 10
3355.4172218088388036
 20
163.9096457891724867
 30
0.0
 40
0.7751515391660377
 50
305.0603315563936917
 51
336.9598282639619811
  0
ARC
  5
194C4
  8
0
 10
3355.1194424357431672
 20
164.0749853594494141
 30
0.0
 40
1.1144562224153329
 50
335.1289246753536872
 51
357.0234741508047023
  0
ARC
  5
194C5
  8
0
 10
3355.0877201449011409
 20
164.0847693859882099
 30
0.0
 40
1.146672545903662
 50
356.6175594172905789
 51
21.4439542046601908
  0
ARC
  5
194C6
  8
0
 10
3355.1603397724311435
 20
164.0844504224392892
 30
0.0
 40
1.0795304334070981
 50
22.8689430597662202
 51
40.723153377787753
  0
ARC
  5
194C7
  8
0
 10
3355.5028858074051641
 20
164.3793274121987906
 30
0.0
 40
0.6275456713125349
 50
40.723153377787753
 51
67.0738665484141592
  0
ARC
  5
194C8
  8
0
 10
3355.4922826763959165
 20
164.3542581909553917
 30
0.0
 40
0.6547650071039578
 50
67.0738665484141592
 51
87.3533292161426829
  0
ARC
  5
194C9
  8
0
 10
3355.4879085847960596
 20
164.2596341416663961
 30
0.0
 40
0.7494901008287647
 50
87.3533292161426829
 51
95.5841600600697063
  0
ARC
  5
194CA
  8
0
 10
3358.4953318532461708
 20
163.8953051059199026
 30
0.0
 40
1.5001991385849229
 50
307.8165931760464105
 51
350.5245800250589809
  0
ARC
  5
194CB
  8
0
 10
3358.8358012705280089
 20
163.4668248240944877
 30
0.0
 40
0.9529758293854143
 50
245.120883861866389
 51
307.4410293735302844
  0
ARC
  5
194CC
  8
0
 10
3359.0498893095959829
 20
163.9284785613864983
 30
0.0
 40
1.461854853936619
 50
199.7254812428888897
 51
245.120883861866389
  0
ARC
  5
194CD
  8
0
 10
3359.6468157490890007
 20
164.1425087234107991
 30
0.0
 40
2.095992129627835
 50
165.459615387790592
 51
199.7254812428888897
  0
ARC
  5
194CE
  8
0
 10
3359.0189171087981777
 20
164.3053666105109016
 30
0.0
 40
1.447317023067916
 50
129.4883190794980123
 51
165.459615387790592
  0
ARC
  5
194CF
  8
0
 10
3358.761678588596169
 20
164.6175515399864935
 30
0.0
 40
1.042803628398258
 50
67.0966022891662135
 51
129.4883190794980123
  0
ARC
  5
194D0
  8
0
 10
3358.7073222852209256
 20
164.4888934330045913
 30
0.0
 40
1.182472938587702
 50
24.4154513886713005
 51
67.0966022891662135
  0
ARC
  5
194D1
  8
0
 10
3358.0041818225308816
 20
164.0435273574832991
 30
0.0
 40
2.010111475129869
 50
348.6616824461472106
 51
27.6921754079451503
  0
ARC
  5
194D2
  8
0
 10
3358.2877171241138967
 20
164.0119590807375118
 30
0.0
 40
1.331621327993723
 50
315.6598907255115023
 51
347.9167960293611941
  0
ARC
  5
194D3
  8
0
 10
3358.6242645055149296
 20
163.6830759780210087
 30
0.0
 40
0.8610597112203915
 50
277.4782906769877968
 51
315.6598907255115023
  0
ARC
  5
194D4
  8
0
 10
3358.6366898552269049
 20
163.5884189435730036
 30
0.0
 40
0.7655906403861116
 50
240.7145887091531904
 51
277.4782906769877968
  0
ARC
  5
194D5
  8
0
 10
3358.7962392183781049
 20
163.8729022678809883
 30
0.0
 40
1.09176047512142
 50
203.8819526302420115
 51
240.7145887091531904
  0
ARC
  5
194D6
  8
0
 10
3359.2983973750419864
 20
164.0952389259508095
 30
0.0
 40
1.6409384096968589
 50
171.2195818835056116
 51
203.8819526302420115
  0
ARC
  5
194D7
  8
0
 10
3359.0531993019021684
 20
164.1331117884369917
 30
0.0
 40
1.3928326887142011
 50
144.2024388677533011
 51
171.2195818835056116
  0
ARC
  5
194D8
  8
0
 10
3358.7472567973418336
 20
164.3537446855874009
 30
0.0
 40
1.015632885690394
 50
114.6097928723395967
 51
144.2024388677519937
  0
ARC
  5
194D9
  8
0
 10
3358.6413662127019961
 20
164.5849253797001097
 30
0.0
 40
0.7613548307076013
 50
67.7009101511903424
 51
114.6097928723395967
  0
ARC
  5
194DA
  8
0
 10
3358.5538880430758581
 20
164.3716219113453008
 30
0.0
 40
0.9918994029127706
 50
34.623205784641641
 51
67.7009101511903424
  0
ARC
  5
194DB
  8
0
 10
3358.1825885972698416
 20
164.1152575691077971
 30
0.0
 40
1.4431044055743669
 50
8.2892153674306126
 51
34.623205784641641
  0
ARC
  5
194DC
  8
0
 10
3357.9776484134199563
 20
164.0853994248340086
 30
0.0
 40
1.6502082146554471
 50
347.6770178051415883
 51
8.2892153674306126
  0
ARC
  5
194DD
  8
0
 10
3358.4987591037888706
 20
163.9568872095667018
 30
0.0
 40
0.8623747343785527
 50
300.6813720632862896
 51
340.6990220775925877
  0
ARC
  5
194DE
  8
0
 10
3358.6515578782050397
 20
163.6993540507193927
 30
0.0
 40
0.5629239147621594
 50
254.7077276034796967
 51
300.6813720632862896
  0
ARC
  5
194DF
  8
0
 10
3358.6874427541638397
 20
163.8305966085586078
 30
0.0
 40
0.6989839504476955
 50
223.0705847350390059
 51
254.7077276034796967
  0
ARC
  5
194E0
  8
0
 10
3358.8903590757099664
 20
164.0202870359482858
 30
0.0
 40
0.9767563245116269
 50
187.6628693692732952
 51
223.0705847350401996
  0
ARC
  5
194E1
  8
0
 10
3359.2555704686710669
 20
164.0694245722422124
 30
0.0
 40
1.3452585077099239
 50
162.8270248487270919
 51
187.6628693692732952
  0
ARC
  5
194E2
  8
0
 10
3358.7941969486801099
 20
164.2120050990500033
 30
0.0
 40
0.8623561039324668
 50
130.2951689930721955
 51
162.8270248487270919
  0
ARC
  5
194E3
  8
0
 10
3358.6692790107640576
 20
164.3593284555435901
 30
0.0
 40
0.6692015995022701
 50
91.9483244769029682
 51
130.2951689930721955
  0
ARC
  5
194E4
  8
0
 10
3358.6332857057741421
 20
164.378777442999592
 30
0.0
 40
0.6495007411479508
 50
42.6475922998952868
 51
88.8318005071664345
  0
ARC
  5
194E5
  8
0
 10
3358.1677470741728939
 20
164.0403755561727053
 30
0.0
 40
1.222992210402239
 50
6.7892575925779637
 51
39.5310683301375505
  0
ARC
  5
194E6
  8
0
 10
3358.2078948578428026
 20
164.0827446924400874
 30
0.0
 40
1.1787083117521751
 50
339.5982436019294823
 51
4.9745837310732748
  0
ARC
  5
194E7
  8
0
 10
3358.5594176690460699
 20
163.8217363208582071
 30
0.0
 40
0.6677546500747049
 50
265.1611877355272782
 51
305.0603315563936917
  0
ARC
  5
194E8
  8
0
 10
3358.4977247426509166
 20
163.9096457891724867
 30
0.0
 40
0.7751515391660377
 50
305.0603315563936917
 51
336.9598282639619811
  0
ARC
  5
194E9
  8
0
 10
3358.1999453695548254
 20
164.0749853594494141
 30
0.0
 40
1.1144562224153329
 50
335.1289246753536872
 51
357.0234741508047023
  0
ARC
  5
194EA
  8
0
 10
3358.1682230787127992
 20
164.0847693859882099
 30
0.0
 40
1.146672545903662
 50
356.6175594172905789
 51
21.4439542046601908
  0
ARC
  5
194EB
  8
0
 10
3358.2408427062428018
 20
164.0844504224392892
 30
0.0
 40
1.0795304334070981
 50
22.8689430597662202
 51
40.723153377787753
  0
ARC
  5
194EC
  8
0
 10
3358.5833887412159129
 20
164.3793274121987906
 30
0.0
 40
0.6275456713125349
 50
40.723153377787753
 51
67.0738665484141592
  0
ARC
  5
194ED
  8
0
 10
3358.5727856102080295
 20
164.3542581909553917
 30
0.0
 40
0.6547650071039578
 50
67.0738665484141592
 51
87.3533292161426829
  0
ARC
  5
194EE
  8
0
 10
3358.5684115186081726
 20
164.2596341416663961
 30
0.0
 40
0.7494901008287647
 50
87.3533292161426829
 51
95.5841600600697063
  0
ARC
  5
194EF
  8
0
 10
3396.1242067945868257
 20
165.9763889463964972
 30
0.0
 40
44.3709040129992403
 50
179.1074347948785999
 51
180.9499633191381918
  0
ARC
  5
194F0
  8
0
 10
3394.3843540530228893
 20
165.957285576864308
 30
0.0
 40
43.725060971444293
 50
178.2657043892492084
 51
181.7446141739575012
  0
ARC
  5
194F1
  8
0
 10
3389.0386683311471643
 20
166.2185308598168092
 30
0.0
 40
38.3991868007272075
 50
183.8442790135663927
 51
184.7445444133458921
  0
ARC
  5
194F2
  8
0
 10
3350.6436135951839788
 20
171.0856306432660006
 30
0.0
 40
8.3428637539618755
 50
144.2180038813231135
 51
159.4085960524145946
  0
ARC
  5
194F3
  8
0
 10
3351.0932619496447842
 20
170.7615487597591937
 30
0.0
 40
8.8971314779792117
 50
119.4929408631580969
 51
144.2180038813231135
  0
ARC
  5
194F4
  8
0
 10
3354.5248129961942141
 20
164.6945588591482021
 30
0.0
 40
15.8673473311064406
 50
101.844014244193005
 51
119.4929408631580969
  0
ARC
  5
194F5
  8
0
 10
3358.7946764386510949
 20
144.3340238983327026
 30
0.0
 40
36.6707873761523686
 50
92.4596597600609016
 51
101.844014244193005
  0
ARC
  5
194F6
  8
0
 10
3362.2735863282427999
 20
63.3454274973935512
 30
0.0
 40
117.7340685891289951
 50
91.4512261266283417
 51
92.4596597600609016
  0
ARC
  5
194F7
  8
0
 10
3357.9371816561920241
 20
233.5828949214370027
 30
0.0
 40
52.5586235122807466
 50
271.476939420791382
 51
272.814263517271911
  0
ARC
  5
194F8
  8
0
 10
3361.6210643782751504
 20
187.5328819418155035
 30
0.0
 40
6.5389785076704561
 50
260.2858736893086871
 51
268.3941272079088094
  0
ARC
  5
194F9
  8
0
 10
3361.7778742164609866
 20
193.1262198547894968
 30
0.0
 40
12.1345140793618604
 50
268.3941272079088094
 51
273.4787766187716898
  0
ARC
  5
194FA
  8
0
 10
3362.3293367457031309
 20
184.0547435372228051
 30
0.0
 40
3.0462912882254338
 50
273.4787766187716898
 51
284.3175030603239861
  0
ARC
  5
194FB
  8
0
 10
3363.0355312680649149
 20
181.3608216363510053
 30
0.0
 40
0.2620271846143011
 50
280.3638146975980021
 51
317.144212581835518
  0
ARC
  5
194FC
  8
0
 10
3360.6660843874060447
 20
181.9247091159552951
 30
0.0
 40
0.8501003324725585
 50
236.9029594354493042
 51
259.9479745683577221
  0
ARC
  5
194FD
  8
0
 10
3361.9628212014449673
 20
175.2852259124694001
 30
0.0
 40
6.1833622420890437
 50
100.1371974067629935
 51
106.5461193153065977
  0
ARC
  5
194FE
  8
0
 10
3361.6618994984028177
 20
174.9063312813599111
 30
0.0
 40
6.5134960305859728
 50
81.0473358093776284
 51
96.9432009331031566
  0
ARC
  5
194FF
  8
0
 10
3361.7666583765972064
 20
177.1177979508275087
 30
0.0
 40
4.3193783973701443
 50
70.2307402015081692
 51
77.8533393357131445
  0
ARC
  5
19500
  8
0
 10
3366.3392009736858199
 20
235.6302635950272872
 30
0.0
 40
54.665244991687139
 50
266.436965358287182
 51
268.4949031180094039
  0
ARC
  5
19501
  8
0
 10
3354.216750172392949
 20
-125.3391622290371998
 30
0.0
 40
306.5093948850114884
 50
86.8418828827583695
 51
88.0019458745401124
  0
ARC
  5
19502
  8
0
 10
3106.2349694326471763
 20
-4767.5350592712666185
 30
0.0
 40
4955.3236104277293634
 50
86.8028027564580356
 51
86.9360129210550951
  0
ARC
  5
19503
  8
0
 10
3379.1817890329521106
 20
77.6236572065779882
 30
0.0
 40
102.5091272052404037
 50
81.8782096778767539
 51
88.0854204711684758
  0
ARC
  5
19504
  8
0
 10
3389.8438413327871785
 20
157.3376305877173138
 30
0.0
 40
22.0996765551383412
 50
64.0555773915245226
 51
80.0457066407303017
  0
ARC
  5
19505
  8
0
 10
3395.9699494335350209
 20
171.0427631071468966
 30
0.0
 40
7.1123076491913197
 50
18.8728147902722299
 51
60.127108861263892
  0
ARC
  5
19506
  8
0
 10
3386.8426407450388069
 20
167.97187662086111
 30
0.0
 40
16.7423224482704498
 50
2.791302856766158
 51
18.7133244685363493
  0
ARC
  5
19507
  8
0
 10
3363.4409120436162084
 20
166.3226039775611014
 30
0.0
 40
40.199808532637519
 50
359.4748241035762817
 51
3.5149267645380351
  0
ARC
  5
19508
  8
0
 10
3373.9101228489980713
 20
165.3470295855069878
 30
0.0
 40
29.7351073513866702
 50
351.8395721980185726
 51
1.1698978305296801
  0
ARC
  5
19509
  8
0
 10
3394.2141176267368792
 20
162.0189204028988001
 30
0.0
 40
9.1735635450773572
 50
317.1919478763570055
 51
354.415899309554618
  0
ARC
  5
1950A
  8
0
 10
3394.1049170181599948
 20
163.4039531306088122
 30
0.0
 40
10.2382866399887895
 50
285.4005852891452832
 51
311.9133921546928718
  0
ARC
  5
1950B
  8
0
 10
3384.4030647667709673
 20
203.0171030536480998
 30
0.0
 40
51.0188521199812612
 50
271.7971045425127841
 51
284.0905451900250114
  0
ARC
  5
1950C
  8
0
 10
3321.3591653900089113
 20
1179.0735556293470836
 30
0.0
 40
1029.0825840285260711
 50
272.6156012203221053
 51
273.601519248880777
  0
ARC
  5
1950D
  8
0
 10
3361.67996104190388
 20
256.6924514552944174
 30
0.0
 40
105.8379426050966998
 50
267.1160598031448785
 51
273.5977041561822034
  0
ARC
  5
1950E
  8
0
 10
3357.1992231890772018
 20
176.4146464573140065
 30
0.0
 40
25.4401073695524609
 50
253.590939442873605
 51
268.0981627389913911
  0
ARC
  5
1950F
  8
0
 10
3354.122945678789165
 20
165.9684513716269976
 30
0.0
 40
14.5503656330126407
 50
232.8299609979621891
 51
253.590939442873605
  0
ARC
  5
19510
  8
0
 10
3349.5468952715209525
 20
159.9331768845947011
 30
0.0
 40
6.9764118792804242
 50
203.0433216697803118
 51
232.8299609979621891
  0
ARC
  5
19511
  8
0
 10
3262.3577095067457776
 20
122.8457358850929069
 30
0.0
 40
87.772901544173962
 50
23.0433216697802692
 51
23.5344276195002884
  0
ARC
  5
19512
  8
0
 10
3373.0188758692997908
 20
166.1436053738403018
 30
0.0
 40
37.0763416261245311
 50
172.4664652825254905
 51
180.2926932245543981
  0
ARC
  5
19513
  8
0
 10
3364.3616196635139204
 20
166.4915185479032971
 30
0.0
 40
28.4591686906198404
 50
162.3376368313421096
 51
170.8755577942700086
  0
ARC
  5
19514
  8
0
 10
3344.9479860888350231
 20
172.673150867407287
 30
0.0
 40
8.0851227815359721
 50
131.6267523037309957
 51
162.3376368313421096
  0
ARC
  5
19515
  8
0
 10
3347.2292212878669488
 20
170.1061489557615118
 30
0.0
 40
11.5192941295760605
 50
104.2903049806003963
 51
131.6267523037309957
  0
ARC
  5
19516
  8
0
 10
3354.519286617176931
 20
141.4858505001876949
 30
0.0
 40
41.0534529324218767
 50
92.746610672344616
 51
104.2903049806003963
  0
ARC
  5
19517
  8
0
 10
3362.2913555181658012
 20
-20.5194872805276702
 30
0.0
 40
203.2451127810263927
 50
87.5152160198271361
 51
92.746610672344616
  0
ARC
  5
19518
  8
0
 10
3362.3408498051880997
 20
-303.8138395814848991
 30
0.0
 40
486.4272893708114793
 50
87.298923879774776
 51
88.9678760592703952
  0
ARC
  5
19519
  8
0
 10
3383.9042559553108731
 20
119.6851461307654034
 30
0.0
 40
62.4026906367562688
 50
80.3646081696680739
 51
88.7515839191987368
  0
ARC
  5
1951A
  8
0
 10
3389.0772789247271248
 20
150.1554190174655048
 30
0.0
 40
31.4964178683995506
 50
69.4428904371574731
 51
80.3646081696680739
  0
ARC
  5
1951B
  8
0
 10
3397.253364761949797
 20
171.9570827177109038
 30
0.0
 40
8.2120686244061165
 50
39.6013754069272679
 51
69.4428904371574731
  0
ARC
  5
1951C
  8
0
 10
3396.5908113272698756
 20
171.408944058172807
 30
0.0
 40
9.0719715514196846
 50
13.9973413190729605
 51
39.6013754069272679
  0
ARC
  5
1951D
  8
0
 10
3380.4106323211090057
 20
167.375569809625091
 30
0.0
 40
25.7472916533029696
 50
2.859750071035275
 51
13.9973413190729605
  0
ARC
  5
1951E
  8
0
 10
3362.4654783451978801
 20
166.4791457878359893
 30
0.0
 40
43.7148214569794078
 50
359.3118670468060145
 51
2.859750071035275
  0
ARC
  5
1951F
  8
0
 10
3138.2079818668780717
 20
169.1726494796967017
 30
0.0
 40
267.9884928695237249
 50
358.7774512503194728
 51
359.3118670468060145
  0
ARC
  5
19520
  8
0
 10
3386.3058059290638084
 20
163.8780583762284095
 30
0.0
 40
19.8341799927481297
 50
351.8127678196830175
 51
358.7774512503194728
  0
ARC
  5
19521
  8
0
 10
3381.3420552995089565
 20
164.5922167112750003
 30
0.0
 40
24.849042148374
 50
344.4598627344661281
 51
351.8127678196830175
  0
ARC
  5
19522
  8
0
 10
3397.0616918058781266
 20
160.2209144177722919
 30
0.0
 40
8.5329379677319661
 50
321.4487367693112105
 51
344.4598627344661281
  0
ARC
  5
19523
  8
0
 10
3397.188523531597184
 20
160.1198424983371069
 30
0.0
 40
8.3707596105229634
 50
293.6065432737498213
 51
321.4487367693112105
  0
ARC
  5
19524
  8
0
 10
3391.2362697983730868
 20
173.7397730253831014
 30
0.0
 40
23.2345354452908701
 50
279.9382846248979035
 51
293.6065432737498213
  0
ARC
  5
19525
  8
0
 10
3383.8374244556562189
 20
215.9666328757597
 30
0.0
 40
66.1046952913750232
 50
272.6690438553754916
 51
279.9382846248979035
  0
ARC
  5
19526
  8
0
 10
3342.0427241168072214
 20
1112.515229114055046
 30
0.0
 40
963.6269414743170501
 50
272.057111782077925
 51
272.6690438553754916
  0
ARC
  5
19527
  8
0
 10
3360.6596216726220518
 20
594.2102461291714235
 30
0.0
 40
444.9877178693479891
 50
270.4264682657700973
 51
272.057111782077925
  0
ARC
  5
19528
  8
0
 10
3362.0772928183509975
 20
403.7504162796885225
 30
0.0
 40
254.5226119371291134
 50
267.9552972524024881
 51
270.4264682657700973
  0
ARC
  5
19529
  8
0
 10
3354.4299958171341132
 20
189.5521311496156045
 30
0.0
 40
40.1878585626731493
 50
255.5122896451011059
 51
267.9552972524024881
  0
ARC
  5
1952A
  8
0
 10
3347.295191754617008
 20
161.9394588058675879
 30
0.0
 40
11.6683020623750107
 50
229.0593061475009051
 51
255.5122896451011059
  0
ARC
  5
1952B
  8
0
 10
3345.1183256431309019
 20
159.4300194858890904
 30
0.0
 40
8.3462497196219179
 50
193.487675018108007
 51
229.0593061475009051
  0
ARC
  5
1952C
  8
0
 10
3383.4823331156640052
 20
168.6316750457731075
 30
0.0
 40
47.7983413548621598
 50
187.5246060103551997
 51
193.487675018108007
  0
ARC
  5
1952D
  8
0
 10
3413.8585791853511182
 20
167.4791094320499951
 30
0.0
 40
77.9304819095090835
 50
181.121207866201587
 51
183.7572379916659884
  0
ARC
  5
1952E
  8
0
 10
3389.7885712817510466
 20
165.9207619828702036
 30
0.0
 40
27.9581987102204792
 50
173.115176196813195
 51
179.9316075345464867
  0
ARC
  5
1952F
  8
0
 10
3366.9688218219048395
 20
168.7301346168775922
 30
0.0
 40
4.9665186290143764
 50
136.8096641602944032
 51
173.7338019164322134
  0
ARC
  5
19530
  8
0
 10
3366.8261141518469231
 20
168.5177682039006868
 30
0.0
 40
5.0141833439755281
 50
114.4811679776115056
 51
133.9231275368788943
  0
ARC
  5
19531
  8
0
 10
3369.2221151253388598
 20
163.2556412190031097
 30
0.0
 40
10.7961208280857406
 50
97.1238747641213962
 51
114.4811679776115056
  0
ARC
  5
19532
  8
0
 10
3374.857572310264004
 20
124.4337771982188059
 30
0.0
 40
50.0232166032474908
 50
90.0842337547211542
 51
98.0144022121113636
  0
ARC
  5
19533
  8
0
 10
3374.6195769936011857
 20
-108.0472478629600062
 30
0.0
 40
282.504235471751997
 50
87.840676363035314
 51
89.9666465677319849
  0
ARC
  5
19534
  8
0
 10
3384.4810986543320723
 20
109.7389549760130052
 30
0.0
 40
64.5221798418666737
 50
83.7017298547987281
 51
89.3048714674811634
  0
ARC
  5
19535
  8
0
 10
3391.2174881928681316
 20
168.758111601107089
 30
0.0
 40
5.1250065450358351
 50
51.0361779300112701
 51
86.1740395942119051
  0
ARC
  5
19536
  8
0
 10
3391.3085335569471681
 20
169.6079169355425051
 30
0.0
 40
4.431310689867229
 50
4.5266468809554627
 51
45.0310696401001209
  0
ARC
  5
19537
  8
0
 10
3357.8632134998420042
 20
166.0974979310421134
 30
0.0
 40
38.0590726774250783
 50
359.7841757047611964
 51
5.8212473714422153
  0
ARC
  5
19538
  8
0
 10
3338.9450035693948848
 20
166.3562837909958887
 30
0.0
 40
56.9784317743852995
 50
356.1064206544015178
 51
359.5956087019254142
  0
ARC
  5
19539
  8
0
 10
3388.6509657323299507
 20
163.2320463479971124
 30
0.0
 40
7.1796932097587058
 50
329.4844674776321085
 51
354.0456195313274179
  0
ARC
  5
1953A
  8
0
 10
3391.2580852923629209
 20
162.9148658261873095
 30
0.0
 40
4.8868873609585721
 50
273.6270810894322949
 51
317.0702246795344195
  0
ARC
  5
1953B
  8
0
 10
3384.4847008114720666
 20
222.0549318395704006
 30
0.0
 40
64.4077614874759661
 50
270.6931588279450125
 51
276.3132446356094079
  0
ARC
  5
1953C
  8
0
 10
3377.0802907292140844
 20
337.7090094519203944
 30
0.0
 40
180.2430018161572889
 50
268.383810638194177
 51
272.6023002743593793
  0
ARC
  5
1953D
  8
0
 10
3374.4828257437329739
 20
199.1331893145014078
 30
0.0
 40
41.6697088798787831
 50
258.6499056916858876
 51
266.5795524147197852
  0
ARC
  5
1953E
  8
0
 10
3367.4510825455831764
 20
164.1021783180945022
 30
0.0
 40
5.9399293698523472
 50
221.7123847664545906
 51
258.6499056916858876
  0
ARC
  5
1953F
  8
0
 10
3366.9987856290499622
 20
163.1289195940782122
 30
0.0
 40
4.9729376124512532
 50
190.4665484832565028
 51
216.8030816073155904
  0
ARC
  5
19540
  8
0
 10
3373.4915010677668761
 20
164.5004632967653038
 30
0.0
 40
11.6080121252007302
 50
182.1775802275454907
 51
191.301960293515009
  0
ARC
  5
19541
  8
0
 10
3233.8322000017838036
 20
160.8525798161822991
 30
0.0
 40
128.0998171149468021
 50
1.4344769204305079
 51
2.282399025211951
  0
ARC
  5
19542
  8
0
 10
3371.6443700919921866
 20
160.6227179683079953
 30
0.0
 40
13.7097526277745594
 50
82.0679891220420785
 51
91.6427712487011661
  0
ARC
  5
19543
  8
0
 10
3372.6141184322100344
 20
165.4244672118859114
 30
0.0
 40
8.8251480742733062
 50
75.1700148286520431
 51
84.0020249781423445
  0
ARC
  5
19544
  8
0
 10
3373.8535685992192157
 20
169.5499611940072953
 30
0.0
 40
4.5220741773268802
 50
39.7037012135342877
 51
76.9724812826199241
  0
ARC
  5
19545
  8
0
 10
3372.6892695635419841
 20
169.0613565203082942
 30
0.0
 40
5.7417627222356113
 50
6.9157586536282762
 51
36.0303661830682316
  0
ARC
  5
19546
  8
0
 10
3321.7130767824610302
 20
164.9744697189593126
 30
0.0
 40
56.877245562750737
 50
0.9868335250150561
 51
4.8190927385259812
  0
ARC
  5
19547
  8
0
 10
2764.2569959824959369
 20
181.0115951444574875
 30
0.0
 40
614.5093983084284446
 50
358.3333801208926843
 51
358.5959199916608213
  0
ARC
  5
19548
  8
0
 10
3371.4206393682261478
 20
163.3488908592300959
 30
0.0
 40
7.0889015050137854
 50
328.6111448942551192
 51
358.3054495420262811
  0
ARC
  5
19549
  8
0
 10
3374.0144034615432247
 20
162.1443560145553988
 30
0.0
 40
4.259595586679505
 50
287.1963963421266044
 51
324.266459688255793
  0
ARC
  5
1954A
  8
0
 10
3372.7187447509368212
 20
165.8486890072190079
 30
0.0
 40
8.1826344512967211
 50
275.7551664992657265
 51
288.1946710883096898
  0
ARC
  5
1954B
  8
0
 10
3372.0000893399128472
 20
172.3265720099718976
 30
0.0
 40
14.7000764075546506
 50
269.147276244029797
 51
276.01025028725212
  0
ARC
  5
1954C
  8
0
 10
3372.3359006476412105
 20
188.5230860577995884
 30
0.0
 40
30.899939590752421
 50
265.2963559071778263
 51
268.9716187528226214
  0
ARC
  5
1954D
  8
0
 10
3370.2973104319071354
 20
160.1473956017267994
 30
0.0
 40
14.0349975801695503
 50
80.2885987165397665
 51
94.115224553186863
  0
ARC
  5
1954E
  8
0
 10
3372.1543076119778561
 20
170.9982751042446125
 30
0.0
 40
3.026363491194163
 50
49.5106865725110907
 51
80.2885987165397665
  0
ARC
  5
1954F
  8
0
 10
3371.6453778425238852
 20
170.4021698023261138
 30
0.0
 40
3.8101689780412871
 50
19.0615874922438415
 51
49.5106865725110907
  0
ARC
  5
19550
  8
0
 10
3367.038959404012985
 20
168.8105121702365921
 30
0.0
 40
8.6838190319992243
 50
2.1133199412050172
 51
19.0615874922438415
  0
ARC
  5
19551
  8
0
 10
3256.0641036745460042
 20
163.4376330364696059
 30
0.0
 40
119.7881314166263991
 50
1.2037013907159979
 51
2.7240908124192038
  0
ARC
  5
19552
  8
0
 10
3325.1981468241660878
 20
166.3154223963138065
 30
0.0
 40
50.6289443230580432
 50
355.1930948599506905
 51
359.5910081338033137
  0
ARC
  5
19553
  8
0
 10
3368.9627840559201104
 20
162.6229787018544073
 30
0.0
 40
6.708829193391324
 50
334.4261411107481194
 51
355.296178500437918
  0
ARC
  5
19554
  8
0
 10
3372.1487811858901296
 20
161.0982915439435885
 30
0.0
 40
3.1767973926182771
 50
302.1354620512609017
 51
334.4261411107466984
  0
ARC
  5
19555
  8
0
 10
3371.7695323932339306
 20
161.7020355050320859
 30
0.0
 40
3.8897745432211792
 50
275.9925406322321919
 51
302.1354620512609017
  0
ARC
  5
19556
  8
0
 10
3370.9027547678419978
 20
169.9592145837135035
 30
0.0
 40
12.1923229344860609
 50
265.9213520408152931
 51
275.9925406322321919
  0
ARC
  5
19557
  8
0
 10
3356.8107646421640311
 20
-27.6668797036027492
 30
0.0
 40
185.9355583163905123
 50
85.9213520408152931
 51
86.4166432713134469
  0
ARC
  5
19558
  8
0
 10
3361.6785847463302161
 20
177.6848528150258915
 30
0.0
 40
3.620307584344824
 50
75.2299374324206838
 51
103.5560922438584015
  0
ARC
  5
19559
  8
0
 10
3361.7491363505419031
 20
184.3146548494327988
 30
0.0
 40
3.243318739849375
 50
253.5370433163137136
 51
285.2374869583434247
  0
ARC
  5
1955A
  8
0
 10
3361.773084850180112
 20
186.553285370225808
 30
0.0
 40
5.331100713350061
 50
262.983906856086719
 51
275.7950764276224049
  0
ARC
  5
1955B
  8
0
 10
3371.4106582845729463
 20
167.0176416095127081
 30
0.0
 40
19.619601647627789
 50
164.8315452770272032
 51
174.063918187966209
  0
ARC
  5
1955C
  8
0
 10
3359.4289228487878063
 20
170.2659244072740137
 30
0.0
 40
7.2053628394141143
 50
145.2560702163509063
 51
164.8315452770272032
  0
ARC
  5
1955D
  8
0
 10
3357.4231903523641449
 20
171.6570358099118039
 30
0.0
 40
4.764429865783228
 50
111.2089552384812947
 51
145.2560702163509063
  0
ARC
  5
1955E
  8
0
 10
3365.3911236954691049
 20
152.0823998165517992
 30
0.0
 40
25.8981048682858805
 50
93.7202669638269441
 51
111.9760495293393063
  0
ARC
  5
1955F
  8
0
 10
3375.1730365171770245
 20
31.8714646950112694
 30
0.0
 40
146.5035552355037112
 50
89.668637673316951
 51
94.4873612547009571
  0
ARC
  5
19560
  8
0
 10
3371.964842591586148
 20
14.7333466184091399
 30
0.0
 40
163.689468939644911
 50
83.9146499106089578
 51
88.5803287190432656
  0
ARC
  5
19561
  8
0
 10
3380.960160909140086
 20
100.7594111439120041
 30
0.0
 40
77.1947603944788767
 50
77.1730053143075168
 51
83.7847771843213565
  0
ARC
  5
19562
  8
0
 10
3395.9306831865437744
 20
169.0646251428092057
 30
0.0
 40
7.2926418277535747
 50
43.5101310114554707
 51
72.7109015501873728
  0
ARC
  5
19563
  8
0
 10
3395.6110678981071942
 20
169.5769697686660038
 30
0.0
 40
7.1960649924433522
 50
10.4564993789573801
 51
38.7942000516368566
  0
ARC
  5
19564
  8
0
 10
3372.5097216005351584
 20
165.8832413417707983
 30
0.0
 40
30.5892687896829614
 50
0.1327895176787978
 51
9.4070494307656052
  0
ARC
  5
19565
  8
0
 10
3371.4106582845729463
 20
164.8903020744616867
 30
0.0
 40
19.619601647627789
 50
185.9375606748610039
 51
195.1684547229727116
  0
ARC
  5
19566
  8
0
 10
3359.4289228487878063
 20
161.6420192767004096
 30
0.0
 40
7.2053628394141143
 50
195.1684547229727116
 51
214.7439297836490937
  0
ARC
  5
19567
  8
0
 10
3357.4231903523641449
 20
160.250907874062591
 30
0.0
 40
4.764429865783228
 50
214.7439297836490937
 51
248.7910447615186911
  0
ARC
  5
19568
  8
0
 10
3365.3911236954691049
 20
179.8255438674225957
 30
0.0
 40
25.8981048682858805
 50
248.0239504706607079
 51
266.2797330361731269
  0
ARC
  5
19569
  8
0
 10
3375.1730365171770245
 20
300.0364789889632107
 30
0.0
 40
146.5035552355037112
 50
265.5126387452991139
 51
270.33136232668312
  0
ARC
  5
1956A
  8
0
 10
3371.964842591586148
 20
317.1745970655653082
 30
0.0
 40
163.689468939644911
 50
271.4196712809567202
 51
276.0853500893911132
  0
ARC
  5
1956B
  8
0
 10
3380.960160909140086
 20
231.1485325400624049
 30
0.0
 40
77.1947603944788767
 50
276.2152228156787146
 51
282.8269946856925117
  0
ARC
  5
1956C
  8
0
 10
3395.9306831865437744
 20
162.8433185411651891
 30
0.0
 40
7.2926418277535747
 50
287.2890984498126841
 51
316.4898689885445151
  0
ARC
  5
1956D
  8
0
 10
3395.6110678981071942
 20
162.330973915308391
 30
0.0
 40
7.1960649924433522
 50
321.2057999483632216
 51
349.5435006210425968
  0
ARC
  5
1956E
  8
0
 10
3372.5097216005351584
 20
166.0247023422035966
 30
0.0
 40
30.5892687896829614
 50
350.5929505692344037
 51
359.8672104823195923
  0
ARC
  5
1956F
  8
0
 10
3357.7832577177059648
 20
36.4010363491440714
 30
0.0
 40
144.1247852180111124
 50
79.0080053756873752
 51
85.582380455127506
  0
ARC
  5
19570
  8
0
 10
3365.0400535325397868
 20
130.3338741829047933
 30
0.0
 40
49.9120519543922825
 50
85.582380455127506
 51
96.8157447792530945
  0
ARC
  5
19571
  8
0
 10
3360.0913733888778552
 20
171.7379758326210037
 30
0.0
 40
8.2132621807754589
 50
96.8157447792530945
 51
139.7088821738933859
  0
ARC
  5
19572
  8
0
 10
3363.1993376869932035
 20
169.1030586478194095
 30
0.0
 40
12.2878456747189997
 50
139.7088821738933859
 51
160.3377820397006985
  0
ARC
  5
19573
  8
0
 10
3365.6143664578780772
 20
168.2401494187890023
 30
0.0
 40
14.8524072945179402
 50
160.3377820397006985
 51
176.8429383993039892
  0
ARC
  5
19574
  8
0
 10
3340.7667226980638588
 20
169.6106697181899108
 30
0.0
 40
10.0330046230223502
 50
352.5882119838523181
 51
356.8429383993039892
  0
ARC
  5
19575
  8
0
 10
3371.128983938768215
 20
164.4353827607071139
 30
0.0
 40
20.4055241249328496
 50
183.9143205740398912
 51
193.5455512076217985
  0
ARC
  5
19576
  8
0
 10
3361.8946145649160826
 20
162.2106406939543035
 30
0.0
 40
10.9069423888876607
 50
193.5455512076217985
 51
210.9012725305412062
  0
ARC
  5
19577
  8
0
 10
3361.2461604656150485
 20
161.8225293606340927
 30
0.0
 40
10.1512155030684301
 50
210.9012725305412062
 51
236.2999656788541074
  0
ARC
  5
19578
  8
0
 10
3361.5878007821911524
 20
163.445047421926887
 30
0.0
 40
11.7068516538491902
 50
239.3162745193430112
 51
263.6211974051823859
  0
ARC
  5
19579
  8
0
 10
3364.2473450602979028
 20
185.9973193444085098
 30
0.0
 40
34.415257894599371
 50
263.3922928818971059
 51
273.7300320527925237
  0
ARC
  5
1957A
  8
0
 10
3355.3362570505100848
 20
325.5359108596181841
 30
0.0
 40
174.2380715311226993
 50
273.6690254529551112
 51
277.3356480726465065
  0
ARC
  5
1957B
  8
0
 10
3421.2174338760219143
 20
-82.1342327834485957
 30
0.0
 40
238.8771718748164119
 50
98.6409320201174467
 51
100.5249447130206022
  0
ARC
  5
1957C
  8
0
 10
3382.8919688016130749
 20
155.5679382983466894
 30
0.0
 40
0.1436555824388608
 50
136.5543311498377079
 51
220.2064460947335078
  0
ARC
  5
1957D
  8
0
 10
3383.2599702039678959
 20
155.2084578656391045
 30
0.0
 40
0.6580848633316717
 50
108.8065117340407966
 51
135.8638749970835136
  0
ARC
  5
1957E
  8
0
 10
3384.5053778557430633
 20
151.1255448676766093
 30
0.0
 40
4.9264217696129027
 50
97.0802853149361908
 51
107.2094241661633021
  0
ARC
  5
1957F
  8
0
 10
3384.6428788389662259
 20
150.5420657325597915
 30
0.0
 40
5.5227769463608887
 50
86.126599724363885
 51
97.7497929931655563
  0
ARC
  5
19580
  8
0
 10
3384.6829224604261981
 20
151.1334929180063966
 30
0.0
 40
4.9299956989305649
 50
78.0801043789760598
 51
86.126599724363885
  0
ARC
  5
19581
  8
0
 10
3385.5030554554091395
 20
155.2991312493263081
 30
0.0
 40
0.6872328493391936
 50
53.0631755416501321
 51
73.2439166638503139
  0
ARC
  5
19582
  8
0
 10
3385.7029133394489691
 20
155.4251131151144136
 30
0.0
 40
0.4739446958794652
 50
41.9175535097182106
 51
63.276805148138493
  0
ARC
  5
19583
  8
0
 10
3385.9594952146030664
 20
155.6554727959610887
 30
0.0
 40
0.1291261331285534
 50
328.5531415926021737
 51
41.9175535097170098
  0
ARC
  5
19584
  8
0
 10
3383.1714656848671439
 20
155.8428919950370073
 30
0.0
 40
0.5354251645772431
 50
223.3713898392769863
 51
251.6059737909419027
  0
ARC
  5
19585
  8
0
 10
3384.1191727346022162
 20
159.0093712261266887
 30
0.0
 40
3.8404740136282909
 50
253.0964714978921108
 51
266.7623745658689813
  0
ARC
  5
19586
  8
0
 10
3384.3368855826929575
 20
162.2133384833747982
 30
0.0
 40
7.0517172153275096
 50
266.4665033195448132
 51
274.418413078820322
  0
ARC
  5
19587
  8
0
 10
3384.5421288123839076
 20
159.5571244633520109
 30
0.0
 40
4.3875855174754932
 50
274.418413078820322
 51
283.3486479002166902
  0
ARC
  5
19588
  8
0
 10
3385.1346997536820709
 20
156.6788413591239078
 30
0.0
 40
1.4529193410185841
 50
286.8196556114444888
 51
301.4090372683983219
  0
ARC
  5
19589
  8
0
 10
3385.6902600379949035
 20
155.8688973155516919
 30
0.0
 40
0.4749915454237629
 50
295.1172038050847277
 51
318.9888529246745179
  0
ARC
  5
1958A
  8
0
 10
3385.9304113217608574
 20
155.6600549473702131
 30
0.0
 40
0.1567341435586465
 50
318.9888529246745179
 51
332.6744169786804832
  0
ARC
  5
1958B
  8
0
 10
3383.0629921166701024
 20
155.343459440657
 30
0.0
 40
0.3477421756202695
 50
119.4581750915697
 51
150.8325521451363045
  0
ARC
  5
1958C
  8
0
 10
3383.7427974244419602
 20
154.1398584472210871
 30
0.0
 40
1.7300556740260751
 50
102.2198897855209054
 51
119.4581750915704959
  0
ARC
  5
1958D
  8
0
 10
3384.6749988014507835
 20
149.2961517614454863
 30
0.0
 40
6.6623076377955854
 50
93.2576837901494287
 51
101.2380776445827024
  0
ARC
  5
1958E
  8
0
 10
3384.6579630354549408
 20
150.1121657462936128
 30
0.0
 40
5.8467179312441901
 50
85.6752131220780484
 51
93.5454333218415144
  0
ARC
  5
1958F
  8
0
 10
3384.794834539869953
 20
151.9220261018357974
 30
0.0
 40
4.0316894699566284
 50
75.9051894501433964
 51
85.6752131220780484
  0
ARC
  5
19590
  8
0
 10
3385.5792928439600473
 20
155.2749708580134893
 30
0.0
 40
0.5912799009490634
 50
45.2478002881976877
 51
70.500583644261539
  0
ARC
  5
19591
  8
0
 10
3385.8717424074338851
 20
155.5053474849389943
 30
0.0
 40
0.2263966320648427
 50
25.1038629424330288
 51
56.8393562549723725
  0
ARC
  5
19592
  8
0
 10
3398.6234634088700659
 20
171.8607191209293035
 30
0.0
 40
0.3485175988824871
 50
72.7842526454457612
 51
167.6625894969699004
  0
ARC
  5
19593
  8
0
 10
3398.5421856632860909
 20
171.598408386374814
 30
0.0
 40
0.6231318617854769
 50
35.8985833921168265
 51
72.7842526454457612
  0
ARC
  5
19594
  8
0
 10
3397.2751893723971079
 20
170.4720259455457949
 30
0.0
 40
2.3161394280778409
 50
10.8559556828256003
 51
40.096026284125827
  0
ARC
  5
19595
  8
0
 10
3396.8298557218668066
 20
170.2915195250689919
 30
0.0
 40
2.7890643482945632
 50
345.7305886031534783
 51
12.7750658189855493
  0
ARC
  5
19596
  8
0
 10
3398.3750850833571349
 20
169.909399975513395
 30
0.0
 40
1.1973701778136081
 50
325.356913145577721
 51
345.2262055076232059
  0
ARC
  5
19597
  8
0
 10
3399.010014982030043
 20
169.4549993824892056
 30
0.0
 40
0.4168976294131591
 50
305.4328704338549869
 51
327.1308628058886256
  0
ARC
  5
19598
  8
0
 10
3399.0541166674611304
 20
169.3930176195777051
 30
0.0
 40
0.340827283078771
 50
220.9710737593813974
 51
305.4328704338549869
  0
ARC
  5
19599
  8
0
 10
3401.7399683600901881
 20
171.1578165418945048
 30
0.0
 40
3.5432997053537041
 50
167.3267062555134999
 51
189.3212086021821108
  0
ARC
  5
1959A
  8
0
 10
3402.5794303402840342
 20
171.2928567500381973
 30
0.0
 40
4.3935504636992766
 50
189.2858705319212049
 51
204.2290640516108908
  0
ARC
  5
1959B
  8
0
 10
3399.6490374000009069
 20
170.0037001821619072
 30
0.0
 40
1.1925439730375611
 50
205.5260938612383086
 51
224.3849516328263007
  0
ARC
  5
1959C
  8
0
 10
3399.2322481468418118
 20
171.2054706375078865
 30
0.0
 40
0.5249878931953939
 50
139.1557678870478867
 51
165.9946815310104
  0
ARC
  5
1959D
  8
0
 10
3398.9656284036368561
 20
171.4359700534546107
 30
0.0
 40
0.1725448932384179
 50
73.9361679023949705
 51
139.1557678870478867
  0
ARC
  5
1959E
  8
0
 10
3398.9410903956681977
 20
171.3507542729331874
 30
0.0
 40
0.261223205609234
 50
39.3004478736920078
 51
73.9361679023949705
  0
ARC
  5
1959F
  8
0
 10
3398.1443296933439342
 20
170.6986027938274049
 30
0.0
 40
1.290848947550419
 50
19.2404590832547484
 51
39.3004478736920078
  0
ARC
  5
195A0
  8
0
 10
3397.3679007976711546
 20
170.4276067353135886
 30
0.0
 40
2.113211819868591
 50
5.2770598026684663
 51
19.2404590832547484
  0
ARC
  5
195A1
  8
0
 10
3397.3581258048839118
 20
170.4267038839147119
 30
0.0
 40
2.1230284193119311
 50
351.1442917199984208
 51
5.2770598026684663
  0
ARC
  5
195A2
  8
0
 10
3398.7664370699508254
 20
170.2072834629242948
 30
0.0
 40
0.6977263669507517
 50
331.4452089710267728
 51
351.1442917199984208
  0
ARC
  5
195A3
  8
0
 10
3399.0762406591911713
 20
170.0386900410524049
 30
0.0
 40
0.3450196817229894
 50
307.6019744923167991
 51
331.4452089710267728
  0
ARC
  5
195A4
  8
0
 10
3399.1939770791000228
 20
169.8858170820801092
 30
0.0
 40
0.1520637122431306
 50
246.3110890870138121
 51
307.6019744923177086
  0
ARC
  5
195A5
  8
0
 10
3400.1412224162950224
 20
170.9548323028261905
 30
0.0
 40
1.4677822436497361
 50
165.0888212587236978
 51
182.437214782551905
  0
ARC
  5
195A6
  8
0
 10
3401.1718014118810061
 20
170.9986969369034
 30
0.0
 40
2.4992943241733041
 50
182.4372147825534967
 51
200.0554163878520058
  0
ARC
  5
195A7
  8
0
 10
3399.7083092316979673
 20
170.4644257771552134
 30
0.0
 40
0.9413292945287661
 50
200.0554163878520058
 51
223.1828129606138873
  0
ARC
  5
195A8
  8
0
 10
3399.2340631059391853
 20
170.019346656520014
 30
0.0
 40
0.2909410939728092
 50
223.1828129606138873
 51
249.6489869488914053
  0
ARC
  5
195A9
  8
0
 10
3399.1299590055168665
 20
171.4062892605664103
 30
0.0
 40
0.2261512515839564
 50
120.465765707266101
 51
150.1258890607892909
  0
ARC
  5
195AA
  8
0
 10
3399.6772299039330392
 20
171.0919235005937082
 30
0.0
 40
0.8572861557809064
 50
150.1258890607892909
 51
177.6959363936645104
  0
ARC
  5
195AB
  8
0
 10
3401.5247994670621665
 20
171.0175861939283948
 30
0.0
 40
2.7063506018626748
 50
177.6959363936645104
 51
196.3458975280896937
  0
ARC
  5
195AC
  8
0
 10
3399.9786751989217919
 20
170.564123052206611
 30
0.0
 40
1.0950998226749129
 50
196.3458975280896937
 51
217.2622377889099994
  0
ARC
  5
195AD
  8
0
 10
3399.4592972748741886
 20
170.1690037933576036
 30
0.0
 40
0.4425106282336052
 50
217.2622377889099994
 51
246.5938208028024121
  0
ARC
  5
195AE
  8
0
 10
3398.6234634088700659
 20
160.0474855053467138
 30
0.0
 40
0.3485175988824871
 50
192.3374105030300996
 51
287.2157473545541961
  0
ARC
  5
195AF
  8
0
 10
3398.5421856632860909
 20
160.3097962399012033
 30
0.0
 40
0.6231318617854769
 50
287.2157473545541961
 51
324.1014166078830954
  0
ARC
  5
195B0
  8
0
 10
3397.2751893723971079
 20
161.4361786807303076
 30
0.0
 40
2.3161394280778409
 50
319.9039737158742014
 51
349.1440443171728134
  0
ARC
  5
195B1
  8
0
 10
3396.8298557218668066
 20
161.6166851012069969
 30
0.0
 40
2.7890643482945632
 50
347.2249341810144756
 51
14.2694113968465199
  0
ARC
  5
195B2
  8
0
 10
3398.3750850833571349
 20
161.9988046507625938
 30
0.0
 40
1.1973701778136081
 50
14.7737944923767799
 51
34.6430868544223287
  0
ARC
  5
195B3
  8
0
 10
3399.010014982030043
 20
162.453205243786698
 30
0.0
 40
0.4168976294131591
 50
32.869137194111417
 51
54.5671295661449633
  0
ARC
  5
195B4
  8
0
 10
3399.0541166674611304
 20
162.5151870066981985
 30
0.0
 40
0.340827283078771
 50
54.5671295661449633
 51
139.0289262406184889
  0
ARC
  5
195B5
  8
0
 10
3401.7399683600901881
 20
160.7503880843815978
 30
0.0
 40
3.5432997053537041
 50
170.678791397817804
 51
192.6732937444863865
  0
ARC
  5
195B6
  8
0
 10
3402.5794303402840342
 20
160.6153478762377915
 30
0.0
 40
4.3935504636992766
 50
155.7709359483889955
 51
170.7141294680787951
  0
ARC
  5
195B7
  8
0
 10
3399.6490374000009069
 20
161.9045044441141101
 30
0.0
 40
1.1925439730375611
 50
135.6150483671736993
 51
154.4739061387616061
  0
ARC
  5
195B8
  8
0
 10
3399.2322481468418118
 20
160.7027339887681023
 30
0.0
 40
0.5249878931953939
 50
194.0053184689896
 51
220.8442321129521133
  0
ARC
  5
195B9
  8
0
 10
3398.9656284036368561
 20
160.4722345728214066
 30
0.0
 40
0.1725448932384179
 50
220.8442321129521133
 51
286.0638320976049727
  0
ARC
  5
195BA
  8
0
 10
3398.9410903956681977
 20
160.5574503533428015
 30
0.0
 40
0.261223205609234
 50
286.0638320976049727
 51
320.6995521263079922
  0
ARC
  5
195BB
  8
0
 10
3398.1443296933439342
 20
161.2096018324486124
 30
0.0
 40
1.290848947550419
 50
320.6995521263079922
 51
340.759540916745209
  0
ARC
  5
195BC
  8
0
 10
3397.3679007976711546
 20
161.4805978909624002
 30
0.0
 40
2.113211819868591
 50
340.759540916745209
 51
354.7229401973315248
  0
ARC
  5
195BD
  8
0
 10
3397.3581258048839118
 20
161.4815007423611917
 30
0.0
 40
2.1230284193119311
 50
354.7229401973298764
 51
8.8557082800032418
  0
ARC
  5
195BE
  8
0
 10
3398.7664370699508254
 20
161.7009211633516941
 30
0.0
 40
0.6977263669507517
 50
8.8557082800016325
 51
28.5547910289732201
  0
ARC
  5
195BF
  8
0
 10
3399.0762406591911713
 20
161.8695145852236124
 30
0.0
 40
0.3450196817229894
 50
28.5547910289746483
 51
52.3980255076832435
  0
ARC
  5
195C0
  8
0
 10
3399.1939770791000228
 20
162.022387544195908
 30
0.0
 40
0.1520637122431306
 50
52.3980255076822417
 51
113.6889109129862021
  0
ARC
  5
195C1
  8
0
 10
3400.1412224162950224
 20
160.9533723234497984
 30
0.0
 40
1.4677822436497361
 50
177.562785217448095
 51
194.9111787412761885
  0
ARC
  5
195C2
  8
0
 10
3401.1718014118810061
 20
160.9095076893725036
 30
0.0
 40
2.4992943241733041
 50
159.9445836121464879
 51
177.562785217448095
  0
ARC
  5
195C3
  8
0
 10
3399.7083092316979673
 20
161.4437788491208039
 30
0.0
 40
0.9413292945287661
 50
136.8171870393861127
 51
159.9445836121464879
  0
ARC
  5
195C4
  8
0
 10
3399.2340631059391853
 20
161.8888579697560033
 30
0.0
 40
0.2909410939728092
 50
110.3510130511085947
 51
136.8171870393861127
  0
ARC
  5
195C5
  8
0
 10
3399.1299590055168665
 20
160.5019153657096069
 30
0.0
 40
0.2261512515839564
 50
209.8741109392105955
 51
239.5342342927339132
  0
ARC
  5
195C6
  8
0
 10
3399.6772299039330392
 20
160.816281125682309
 30
0.0
 40
0.8572861557809064
 50
182.3040636063354896
 51
209.8741109392105955
  0
ARC
  5
195C7
  8
0
 10
3401.5247994670621665
 20
160.8906184323475941
 30
0.0
 40
2.7063506018626748
 50
163.6541024719101927
 51
182.3040636063354896
  0
ARC
  5
195C8
  8
0
 10
3399.9786751989217919
 20
161.3440815740694063
 30
0.0
 40
1.0950998226749129
 50
142.7377622110900006
 51
163.6541024719101927
  0
ARC
  5
195C9
  8
0
 10
3399.4592972748741886
 20
161.7392008329183
 30
0.0
 40
0.4425106282336052
 50
113.4061791972215048
 51
142.7377622110900006
  0
ARC
  5
196EE
  8
0
 10
3382.6175506767699517
 20
155.599284490739393
 30
0.0
 40
0.1769830582506522
 50
139.1588840641580873
 51
213.7848336600245887
  0
ARC
  5
196EF
  8
0
 10
3385.8864384128410165
 20
155.3821484720631076
 30
0.0
 40
0.6363386040088387
 50
40.7925254121840908
 51
71.7336160516138364
  0
ARC
  5
196F0
  8
0
 10
3386.2407578098709564
 20
155.70857905323399
 30
0.0
 40
0.1556150474941198
 50
327.2178095033249861
 51
35.0207704372682684
  0
ARC
  5
196F1
  8
0
 10
3383.0167391138470521
 20
155.1247847485929015
 30
0.0
 40
0.7953355136212675
 50
109.3136714314564983
 51
132.0870508229673135
  0
ARC
  5
196F2
  8
0
 10
3384.0898140567069277
 20
152.7600924483454037
 30
0.0
 40
3.3897081802690998
 50
99.2493486320130813
 51
113.2142670902027959
  0
ARC
  5
196F3
  8
0
 10
3384.6624965454120684
 20
149.2434381059786119
 30
0.0
 40
6.9526876913744537
 50
89.7160401927078368
 51
99.2493486320130813
  0
ARC
  5
196F4
  8
0
 10
3384.6625111835169264
 20
149.2463916746054053
 30
0.0
 40
6.9497340864740798
 50
82.9383883151346737
 51
89.7160401927078368
  0
ARC
  5
196F5
  8
0
 10
3385.1702297152960455
 20
153.7772716565912106
 30
0.0
 40
2.3913963586172242
 50
67.4867228020420811
 51
81.6650075342615764
  0
ARC
  5
196F6
  8
0
 10
3382.7915034604739049
 20
155.7363380007467981
 30
0.0
 40
0.3981436205673064
 50
216.2577292182897963
 51
238.9294786352469089
  0
ARC
  5
196F7
  8
0
 10
3383.4360897825349639
 20
156.9321368881431908
 30
0.0
 40
1.7562553138024879
 50
241.0516159456184084
 51
265.7361741955377283
  0
ARC
  5
196F8
  8
0
 10
3384.2453623740561852
 20
161.1469180575402049
 30
0.0
 40
6.0397489472841759
 50
261.0477922275392757
 51
271.4391685803598762
  0
ARC
  5
196F9
  8
0
 10
3384.3296553079458135
 20
161.9451490032656125
 30
0.0
 40
6.8364069224441
 50
270.5648780378583069
 51
279.443661065447202
  0
ARC
  5
196FA
  8
0
 10
3384.913329698968937
 20
157.732109736680286
 30
0.0
 40
2.587276678358895
 50
282.0023216043697971
 51
291.7721316822808717
  0
ARC
  5
196FB
  8
0
 10
3385.5838966086607797
 20
156.4543115112236933
 30
0.0
 40
1.161472423438449
 50
284.4127039826869918
 51
304.581151205845913
  0
ARC
  5
196FC
  8
0
 10
3385.9465247729690418
 20
155.9282819169025061
 30
0.0
 40
0.5225621639727032
 50
304.581151205845913
 51
324.4317216801958921
  0
ATTDEF
  5
19701
  8
DEFPOINTS
 10
3371.1087304484849483
 20
165.9497208075862886
 30
0.0
 40
0.001
  1
K-76445H-NW
  3

  2
MODELNUMBER
 70
     0
1001
ACDBATTR
1070
     0
1070
     1
  0
ATTDEF
  5
19702
  8
DEFPOINTS
 10
3371.1087304484849483
 20
165.9480541409197087
 30
0.0
 40
0.001
  1

  3

  2
TRADENAME
 70
     0
1001
ACDBATTR
1070
     0
1070
     1
  0
ATTDEF
  5
19703
  8
DEFPOINTS
 10
3371.1087304484849483
 20
165.9463874742529867
 30
0.0
 40
0.001
  1
BATH
  3

  2
PRODUCT
 70
     0
1001
ACDBATTR
1070
     0
1070
     1
  0
ENDSEC
  0
EOF
