  0
SECTION
  2
HEADER
  9
$ACADVER
  1
AC1009
  9
$INSBASE
 10
3248.2916385461521713
 20
134.0112391641469003
 30
0.0
  9
$EXTMIN
 10
3216.574824023644851
 20
134.0053196740828128
 30
-0.0015258207003583
  9
$EXTMAX
 10
3248.4502035678920038
 20
166.1979008852775053
 30
0.0000000349246037
  9
$LIMMIN
 10
0.0
 20
0.0
  9
$LIMMAX
 10
11.6929133858000007
 20
8.2677165353999982
  9
$ORTHOMODE
 70
     1
  9
$REGENMODE
 70
     1
  9
$FILLMODE
 70
     1
  9
$QTEXTMODE
 70
     0
  9
$MIRRTEXT
 70
     0
  9
$DRAGMODE
 70
     2
  9
$LTSCALE
 40
0.6431102362
  9
$OSMODE
 70
  4095
  9
$ATTMODE
 70
     1
  9
$TEXTSIZE
 40
0.2
  9
$TRACEWID
 40
0.05
  9
$TEXTSTYLE
  7
STANDARD
  9
$CLAYER
  8
0
  9
$CELTYPE
  6
BYLAYER
  9
$CECOLOR
 62
   256
  9
$DIMSCALE
 40
1.0
  9
$DIMASZ
 40
0.1875
  9
$DIMEXO
 40
0.0625
  9
$DIMDLI
 40
0.4443307087
  9
$DIMRND
 40
0.0
  9
$DIMDLE
 40
0.0
  9
$DIMEXE
 40
0.125
  9
$DIMTP
 40
0.01
  9
$DIMTM
 40
0.01
  9
$DIMTXT
 40
2.0
  9
$DIMCEN
 40
0.1052362205
  9
$DIMTSZ
 40
0.0
  9
$DIMTOL
 70
     1
  9
$DIMLIM
 70
     0
  9
$DIMTIH
 70
     1
  9
$DIMTOH
 70
     1
  9
$DIMSE1
 70
     0
  9
$DIMSE2
 70
     0
  9
$DIMTAD
 70
     0
  9
$DIMZIN
 70
     0
  9
$DIMBLK
  1

  9
$DIMASO
 70
     1
  9
$DIMSHO
 70
     1
  9
$DIMPOST
  1
\X
  9
$DIMAPOST
  1

  9
$DIMALT
 70
     1
  9
$DIMALTD
 70
     2
  9
$DIMALTF
 40
25.3999999999999986
  9
$DIMLFAC
 40
1.0
  9
$DIMTOFL
 70
     0
  9
$DIMTVP
 40
0.0
  9
$DIMTIX
 70
     0
  9
$DIMSOXD
 70
     0
  9
$DIMSAH
 70
     0
  9
$DIMBLK1
  1

  9
$DIMBLK2
  1

  9
$DIMSTYLE
  2
STANDARD
  9
$DIMCLRD
 70
     0
  9
$DIMCLRE
 70
     0
  9
$DIMCLRT
 70
     0
  9
$DIMTFAC
 40
1.0
  9
$DIMGAP
 40
0.09
  9
$LUNITS
 70
     2
  9
$LUPREC
 70
     4
  9
$SKETCHINC
 40
0.1
  9
$FILLETRAD
 40
0.0
  9
$AUNITS
 70
     0
  9
$AUPREC
 70
     0
  9
$MENU
  1
.
  9
$ELEVATION
 40
0.0
  9
$PELEVATION
 40
0.0
  9
$THICKNESS
 40
0.0
  9
$LIMCHECK
 70
     0
  9
$BLIPMODE
 70
     0
  9
$CHAMFERA
 40
0.0
  9
$CHAMFERB
 40
0.0
  9
$SKPOLY
 70
     0
  9
$TDCREATE
 40
2458060.468368056230247
  9
$TDUPDATE
 40
2459545.4269097219221294
  9
$TDINDWG
 40
0.3988149306
  9
$TDUSRTIMER
 40
0.3988149306
  9
$USRTIMER
 70
     1
  9
$ANGBASE
 50
0.0
  9
$ANGDIR
 70
     0
  9
$PDMODE
 70
     0
  9
$PDSIZE
 40
0.3125
  9
$PLINEWID
 40
0.0
  9
$COORDS
 70
     1
  9
$SPLFRAME
 70
     0
  9
$SPLINETYPE
 70
     6
  9
$SPLINESEGS
 70
     8
  9
$ATTDIA
 70
     1
  9
$ATTREQ
 70
     1
  9
$HANDLING
 70
     1
  9
$HANDSEED
  5
2428E
  9
$SURFTAB1
 70
     6
  9
$SURFTAB2
 70
     6
  9
$SURFTYPE
 70
     6
  9
$SURFU
 70
     6
  9
$SURFV
 70
     6
  9
$UCSNAME
  2

  9
$UCSORG
 10
0.0
 20
0.0
 30
0.0
  9
$UCSXDIR
 10
1.0
 20
0.0
 30
0.0
  9
$UCSYDIR
 10
0.0
 20
1.0
 30
0.0
  9
$PUCSNAME
  2

  9
$PUCSORG
 10
0.0
 20
0.0
 30
0.0
  9
$PUCSXDIR
 10
1.0
 20
0.0
 30
0.0
  9
$PUCSYDIR
 10
0.0
 20
1.0
 30
0.0
  9
$USERI1
 70
     0
  9
$USERI2
 70
     0
  9
$USERI3
 70
     0
  9
$USERI4
 70
     0
  9
$USERI5
 70
     0
  9
$USERR1
 40
0.0
  9
$USERR2
 40
0.0
  9
$USERR3
 40
0.0
  9
$USERR4
 40
0.0
  9
$USERR5
 40
0.0
  9
$WORLDVIEW
 70
     1
  9
$SHADEDGE
 70
     3
  9
$SHADEDIF
 70
    70
  9
$TILEMODE
 70
     1
  9
$MAXACTVP
 70
    64
  9
$PLIMCHECK
 70
     0
  9
$PEXTMIN
 10
1.0000000000000000E+20
 20
1.0000000000000000E+20
 30
1.0000000000000000E+20
  9
$PEXTMAX
 10
-1.0000000000000000E+20
 20
-1.0000000000000000E+20
 30
-1.0000000000000000E+20
  9
$PLIMMIN
 10
0.0
 20
0.0
  9
$PLIMMAX
 10
12.0
 20
9.0
  9
$UNITMODE
 70
     0
  9
$VISRETAIN
 70
     1
  9
$PLINEGEN
 70
     0
  9
$PSLTSCALE
 70
     1
  0
ENDSEC
  0
SECTION
  2
TABLES
  0
TABLE
  2
VPORT
 70
     1
  0
VPORT
  2
*ACTIVE
 70
     0
 10
0.0
 20
0.0
 11
1.0
 21
1.0
 12
-571.0315535870439589
 22
24.1063480829302392
 13
0.0
 23
0.0
 14
1.0
 24
1.0
 15
0.0
 25
0.0
 16
0.0
 26
0.0
 36
17.1152628219792007
 17
3803.5440673828129547
 27
125.9952621967499056
 37
0.0
 40
32.4729229924243228
 41
2.7718023255813948
 42
50.0
 43
0.0
 44
0.0
 50
0.0
 51
0.0
 71
     0
 72
   100
 73
     1
 74
     1
 75
     0
 76
     0
 77
     0
 78
     0
  0
ENDTAB
  0
TABLE
  2
LTYPE
 70
     2
  0
LTYPE
  2
CONTINUOUS
 70
     0
  3
Solid line
 72
    65
 73
     0
 40
0.0
  0
LTYPE
  2
PHANTOM2
 70
     0
  3
___ _ _ ___ _ _ ___ _ _ ___ _ _
 72
    65
 73
     6
 40
1.25
 49
0.625
 49
-0.125
 49
0.125
 49
-0.125
 49
0.125
 49
-0.125
  0
ENDTAB
  0
TABLE
  2
LAYER
 70
     2
  0
LAYER
  2
0
 70
     0
 62
   255
  6
CONTINUOUS
  0
LAYER
  2
DEFPOINTS
 70
     0
 62
     7
  6
CONTINUOUS
  0
ENDTAB
  0
TABLE
  2
STYLE
 70
     1
  0
STYLE
  2
STANDARD
 70
     0
 40
0.0
 41
0.8
 50
0.0
 71
     0
 42
0.2
  3
txt
  4

  0
ENDTAB
  0
TABLE
  2
VIEW
 70
     0
  0
ENDTAB
  0
TABLE
  2
UCS
 70
     0
  0
ENDTAB
  0
TABLE
  2
APPID
 70
     9
  0
APPID
  2
ACAD
 70
     0
  0
APPID
  2
ACAD_MLEADERVER
 70
     0
  0
APPID
  2
ACAD_EXEMPT_FROM_CAD_STANDARDS
 70
     0
  0
APPID
  2
ACAD_NAV_VCDISPLAY
 70
     0
  0
APPID
  2
ACAECLAYERSTANDARD
 70
     0
  0
APPID
  2
ACCMTRANSPARENCY
 70
     0
  0
APPID
  2
ACAD_DSTYLE_DIMJAG
 70
     0
  0
APPID
  2
ACAD_DSTYLE_DIMTALN
 70
     0
  0
APPID
  2
ACDBATTR
 70
     0
  0
ENDTAB
  0
TABLE
  2
DIMSTYLE
 70
     1
  0
DIMSTYLE
  2
STANDARD
 70
     0
  3

  4

  5

  6

  7

 40
1.0
 41
0.1875
 42
0.0625
 43
0.38
 44
0.125
 45
0.0
 46
0.0
 47
0.01
 48
0.01
140
0.15625
141
0.09
142
0.0
143
25.3999999999999986
144
1.0
145
0.0
146
1.0
147
0.09
 71
     1
 72
     0
 73
     1
 74
     1
 75
     0
 76
     0
 77
     0
 78
     4
170
     0
171
     2
172
     0
173
     0
174
     0
175
     0
176
     0
177
     0
178
     0
  0
ENDTAB
  0
ENDSEC
  0
SECTION
  2
BLOCKS
  0
BLOCK
  8
0
  2
$MODEL_SPACE
 70
     0
 10
0.0
 20
0.0
 30
0.0
  3
$MODEL_SPACE
  1

  0
ENDBLK
  5
21
  8
0
  0
BLOCK
 67
     1
  8
0
  2
$PAPER_SPACE
 70
     0
 10
0.0
 20
0.0
 30
0.0
  3
$PAPER_SPACE
  1

  0
ENDBLK
  5
1D
 67
     1
  8
0
  0
ENDSEC
  0
SECTION
  2
ENTITIES
  0
ATTDEF
  5
1D518
  8
DEFPOINTS
 10
3248.2925505280759353
 20
134.0153888652363037
 30
0.0
 40
0.001
  1
K-76446H-NW
  3

  2
MODELNUMBER
 70
     0
1001
ACDBATTR
1070
     0
1070
     1
  0
ATTDEF
  5
1D519
  8
DEFPOINTS
 10
3248.2925505280759353
 20
134.0137221985696954
 30
0.0
 40
0.001
  1

  3

  2
TRADENAME
 70
     0
1001
ACDBATTR
1070
     0
1070
     1
  0
ATTDEF
  5
1D51A
  8
DEFPOINTS
 10
3248.2925505280759353
 20
134.0120555319030018
 30
0.0
 40
0.001
  1
BATH
  3

  2
PRODUCT
 70
     0
1001
ACDBATTR
1070
     0
1070
     1
  0
LINE
  5
239E4
  8
0
 10
3217.3861267824709103
 20
134.0112391641469003
 30
0.0
 11
3247.5762900040708701
 21
134.0112391641469003
 31
0.0
  0
LINE
  5
239E5
  8
0
 10
3216.9530253324701334
 20
134.6017903452469113
 30
0.0
 11
3248.134158278770883
 21
134.6017903452469113
 31
0.0
  0
LINE
  5
239E6
  8
0
 10
3217.037467754753834
 20
158.8935111422468935
 30
0.0
 11
3248.0497734086361561
 21
158.8935111422468935
 31
0.0
  0
LINE
  5
239E7
  8
0
 10
3216.7955753670430568
 20
156.5327630182549967
 30
0.0
 11
3248.2916383591418708
 21
156.5327630182549967
 31
0.0
  0
ARC
  5
239E8
  8
0
 10
3217.0416012673008481
 20
158.7241643475412047
 30
0.0
 40
0.1693972337526223
 50
91.3982302258512931
 51
177.9810056151499964
  0
LINE
  5
239E9
  8
0
 10
3216.8723091949418631
 20
158.730132348854994
 30
0.0
 11
3216.7955753670430568
 21
156.5327630182549967
 31
0.0
  0
ARC
  5
239EA
  8
0
 10
3216.95407363350796
 20
156.3749000601470129
 30
0.0
 40
0.1584987284489441
 50
95.1335773968534539
 51
179.8616780294946125
  0
LINE
  5
239EB
  8
0
 10
3216.7955753669430123
 20
156.3752827032550101
 30
0.0
 11
3216.7954371894711585
 21
134.7592706602468979
 31
0.0
  0
ARC
  5
239EC
  8
0
 10
3216.9532164976290005
 20
134.7595698212107038
 30
0.0
 40
0.1577795917713471
 50
180.1086365386649106
 51
269.9305806329044231
  0
ARC
  5
239ED
  8
0
 10
3217.2254479340499529
 20
134.4435006723686001
 30
0.0
 40
0.1606808868220264
 50
0.2886030040917493
 51
80.1029719360155923
  0
LINE
  5
239EE
  8
0
 10
3217.3861267824709103
 20
134.4443100302468963
 30
0.0
 11
3217.3861267824709103
 21
134.0112391641469003
 31
0.0
  0
CIRCLE
  5
239EF
  8
0
 10
3222.2574913186172125
 20
134.2376830439023081
 30
0.0
 40
0.0985979326406085
  0
CIRCLE
  5
239F0
  8
0
 10
3243.0686810248312213
 20
134.2376830439023081
 30
0.0
 40
0.0985979326406085
  0
LINE
  5
239F1
  8
0
 10
3247.5762900040708701
 20
134.0112391641469003
 30
0.0
 11
3247.5762900040708701
 21
134.4443100302468963
 31
0.0
  0
ARC
  5
239F2
  8
0
 10
3247.7342031150228649
 20
134.4443100302468963
 30
0.0
 40
0.1579131109517817
 50
94.2429642291094041
 51
179.9999999999967031
  0
ARC
  5
239F3
  8
0
 10
3248.134158278770883
 20
134.7592706602468979
 30
0.0
 40
0.1574803149999866
 50
270.0
 51
359.9999999989448156
  0
LINE
  5
239F4
  8
0
 10
3248.2916385937719497
 20
134.7592706602439989
 30
0.0
 11
3248.2916383591409613
 21
156.3752827032521111
 31
0.0
  0
ARC
  5
239F5
  8
0
 10
3248.1313191971607921
 20
156.3752827032550101
 30
0.0
 40
0.1603191619795297
 50
359.9999999989464072
 51
79.2016139326371587
  0
LINE
  5
239F6
  8
0
 10
3248.2916383591418708
 20
156.5327630182549967
 30
0.0
 11
3248.2146850167459888
 21
158.7300226347900036
 31
0.0
  0
ARC
  5
239F7
  8
0
 10
3248.0453128843350896
 20
158.7240939890390052
 30
0.0
 40
0.1694758628185628
 50
2.004743888422845
 51
88.4918281102265638
  0
LINE
  5
239F8
  8
0
 10
3245.5355950751650198
 20
158.8935111422468935
 30
0.0
 11
3245.535595061568074
 21
160.6572960984468921
 31
0.0
  0
LINE
  5
239F9
  8
0
 10
3245.535595061568074
 20
160.6572960984468921
 30
0.0
 11
3247.5040989975677803
 21
160.6572960984468921
 31
0.0
  0
LINE
  5
239FA
  8
0
 10
3247.5040989975677803
 20
160.6572960984468921
 30
0.0
 11
3247.504099011091057
 21
158.8935153533907112
 31
0.0
  0
ARC
  5
239FB
  8
0
 10
3243.5639354996669681
 20
162.0654649520450903
 30
0.0
 40
0.023030140332729
 50
93.6478751268814449
 51
137.4339254436841884
  0
ARC
  5
239FC
  8
0
 10
3243.5607049354462106
 20
162.0684320797547002
 30
0.0
 40
0.0186437532042592
 50
137.4339254436854105
 51
199.3433172531563002
  0
ARC
  5
239FD
  8
0
 10
3243.9556209935340121
 20
162.1655898795862925
 30
0.0
 40
0.4252529595153001
 50
194.0632068848885865
 51
199.1751098474283879
  0
ARC
  5
239FE
  8
0
 10
3243.6600101866229124
 20
162.0834959892972904
 30
0.0
 40
0.1206737656448096
 50
208.5014081230974057
 51
245.5774041422754976
  0
ARC
  5
239FF
  8
0
 10
3243.8563679691760626
 20
162.4299521205718975
 30
0.0
 40
0.5185354533755078
 50
241.647223691964399
 51
252.4196446584469982
  0
ARC
  5
23A00
  8
0
 10
3244.1841282581481209
 20
163.6851718041021115
 30
0.0
 40
1.815351893378792
 50
254.5246081318765903
 51
266.1023345857711888
  0
ARC
  5
23A01
  8
0
 10
3246.526655896434022
 20
222.0491615585110026
 30
0.0
 40
60.2256473866057007
 50
267.6533812646400179
 51
268.7087232710197782
  0
ARC
  5
23A02
  8
0
 10
3245.1464787013460409
 20
161.1185538324878053
 30
0.0
 40
0.7206211835592436
 50
74.4170989576887507
 51
88.1721910869253946
  0
ARC
  5
23A03
  8
0
 10
3245.2613407905928398
 20
161.60677759431141
 30
0.0
 40
0.2204439352788036
 50
25.9528758794953589
 51
69.0779196758035425
  0
ARC
  5
23A04
  8
0
 10
3244.3484159012068631
 20
161.2974972721266056
 30
0.0
 40
1.1829047427641579
 50
356.0815076882511789
 51
20.0606462772947687
  0
ARC
  5
23A05
  8
0
 10
3234.87494462134282
 20
161.4232214216204966
 30
0.0
 40
10.6556130091889205
 50
356.873962952315992
 51
358.8892431496386166
  0
ARC
  5
23A06
  8
0
 10
3371.8395576987518325
 20
160.777707897882209
 30
0.0
 40
126.3248721384470059
 50
179.9707746938289858
 51
180.0099722209583035
  0
LINE
  5
23A07
  8
0
 10
3245.5146874736688005
 20
160.7557212953468877
 30
0.0
 11
3247.1815976127868453
 21
160.7557212953468877
 31
0.0
  0
ARC
  5
23A08
  8
0
 10
3247.2063489742517959
 20
161.098388385061412
 30
0.0
 40
0.2854143122137871
 50
310.176870140612607
 51
353.1678210461781759
  0
ARC
  5
23A09
  8
0
 10
3246.9832895910280968
 20
161.2561547081353979
 30
0.0
 40
0.5541318310799103
 50
301.5843018375981046
 51
317.2930869154832862
  0
ARC
  5
23A0A
  8
0
 10
3247.1293868944439964
 20
161.0878239803224972
 30
0.0
 40
0.3361817253777978
 50
278.9344883466621923
 51
295.3868863134774756
  0
ARC
  5
23A0B
  8
0
 10
3246.5045139515668779
 20
160.5358275200921128
 30
0.0
 40
0.9251968551357137
 50
11.2910773831413902
 51
20.5254815586100392
  0
ARC
  5
23A0C
  8
0
 10
3247.1029391551619483
 20
160.6553077651998933
 30
0.0
 40
0.3149606277043721
 50
0.3617082581654081
 51
11.2910773831429907
  0
ARC
  5
23A0D
  8
0
 10
3245.9060887615341926
 20
160.6553077650991952
 30
0.0
 40
0.3149606321643193
 50
161.4088473018107948
 51
179.6382917286306906
  0
ARC
  5
23A0E
  8
0
 10
3237.4839490952899723
 20
440.8394410898633282
 30
0.0
 40
278.817339654722673
 50
271.2490469560655129
 51
271.3013349422146803
  0
ARC
  5
23A0F
  8
0
 10
3247.2782545072418543
 20
159.8386371107893069
 30
0.0
 40
2.2564169691611151
 50
85.0698572366229371
 51
88.260181923041543
  0
ARC
  5
23A10
  8
0
 10
3247.4697010548179605
 20
162.0669600885480008
 30
0.0
 40
0.0198999279595293
 50
358.0557025293621791
 51
82.863147087087043
  0
LINE
  5
23A11
  8
0
 10
3247.4895895260660836
 20
162.0662849261790086
 30
0.0
 11
3247.4897365173201251
 21
161.0644350339615869
 31
0.0
  0
ARC
  5
23A12
  8
0
 10
3245.7106460688419247
 20
161.2798133321882972
 30
0.0
 40
0.1144593899543637
 50
38.5045038168889704
 51
86.8088470694021765
  0
ARC
  5
23A13
  8
0
 10
3245.65117279215292
 20
161.2324985184210107
 30
0.0
 40
0.1904578257413656
 50
7.7628216697227819
 51
38.5045038168889704
  0
ARC
  5
23A14
  8
0
 10
3245.6897839520861453
 20
161.2377620673879903
 30
0.0
 40
0.1514895486539583
 50
329.3804013736581169
 51
7.7628216697227819
  0
ARC
  5
23A15
  8
0
 10
3245.7477813659961612
 20
161.2100436517754929
 30
0.0
 40
0.0876455287771827
 50
271.8067342288020996
 51
325.6603461856298054
  0
ARC
  5
23A16
  8
0
 10
3245.7535111872439302
 20
161.2112430299102925
 30
0.0
 40
0.0888508710459741
 50
207.8066455709580964
 51
268.086679040771628
  0
ARC
  5
23A17
  8
0
 10
3245.7162840083378796
 20
161.3322272846307044
 30
0.0
 40
0.0618723040261189
 50
89.3205449027687024
 51
145.0586690459005013
  0
ARC
  5
23A18
  8
0
 10
3245.751876392675058
 20
161.3073595042505985
 30
0.0
 40
0.1052914740296589
 50
145.0586690458854946
 51
169.5093924178001998
  0
ARC
  5
23A19
  8
0
 10
3245.8577925858089657
 20
161.2877470567403009
 30
0.0
 40
0.2130081768439737
 50
169.5093924178001998
 51
190.9027634813726024
  0
ARC
  5
23A1A
  8
0
 10
3245.8324663383741608
 20
161.266410011032491
 30
0.0
 40
0.1848113476434474
 50
185.8858785339737096
 51
211.5186519230707063
  0
ARC
  5
23A1B
  8
0
 10
3245.765466347148049
 20
161.3099604999613064
 30
0.0
 40
0.0825197868978483
 50
105.4963193953470011
 51
128.5663751484462978
  0
ARC
  5
23A1C
  8
0
 10
3245.7867696615780915
 20
161.2832421546835064
 30
0.0
 40
0.116691429821885
 50
128.5663751484462978
 51
169.6394154077740097
  0
ARC
  5
23A1D
  8
0
 10
3245.8598526562441293
 20
161.2698808780255888
 30
0.0
 40
0.1909857621980997
 50
169.6394154077740097
 51
196.2237633207261922
  0
ARC
  5
23A1E
  8
0
 10
3245.7779549539541222
 20
161.2460505576341916
 30
0.0
 40
0.1056914610389539
 50
196.2237633207261922
 51
245.0509873539047021
  0
ARC
  5
23A1F
  8
0
 10
3245.7584690941562258
 20
161.2041657233766898
 30
0.0
 40
0.0594958111042858
 50
245.0509873538804015
 51
298.1654522012652819
  0
ARC
  5
23A20
  8
0
 10
3245.7420977379861142
 20
161.2347424298066016
 30
0.0
 40
0.0941794712185545
 50
298.1654522012652819
 51
336.6683221539204283
  0
ARC
  5
23A21
  8
0
 10
3245.6448160533432201
 20
161.2767023186162874
 30
0.0
 40
0.2001245439494979
 50
336.6683221539204283
 51
349.0115192742381964
  0
LINE
  5
23A22
  8
0
 10
3245.8459262656901956
 20
164.6809181456468991
 30
0.0
 11
3239.530587732722779
 21
164.6809181456468991
 31
0.0
  0
ARC
  5
23A23
  8
0
 10
3239.5305875603830827
 20
164.6489766834741886
 30
0.0
 40
0.0319414621731648
 50
89.9996908593442839
 51
193.4515966158764115
  0
ARC
  5
23A24
  8
0
 10
3240.3840440625081101
 20
164.8680111638657024
 30
0.0
 40
0.9130525548990508
 50
194.3609942296235999
 51
206.5563336119880091
  0
ARC
  5
23A25
  8
0
 10
3240.6793667912520505
 20
165.1189525339912052
 30
0.0
 40
1.2927164666834761
 50
210.6566795611647933
 51
232.3254357725774071
  0
ARC
  5
23A26
  8
0
 10
3241.1878402559700589
 20
163.0388240872121912
 30
0.0
 40
0.974110874407961
 50
106.1843020465734071
 51
111.4902642496274012
  0
ARC
  5
23A27
  8
0
 10
3240.7497626895160465
 20
164.1515031936104094
 30
0.0
 40
0.2217012964805084
 50
281.0500993676411099
 51
291.490264249627387
  0
ARC
  5
23A28
  8
0
 10
3240.6933404723217791
 20
164.673710353097988
 30
0.0
 40
0.746381560725811
 50
269.3408937167137083
 51
277.615595034122407
  0
ARC
  5
23A29
  8
0
 10
3240.1476027928270014
 20
162.6126597414030073
 30
0.0
 40
1.5097812543589819
 50
72.9469739125592724
 51
79.467617456358397
  0
ARC
  5
23A2A
  8
0
 10
3240.4387578512200889
 20
163.5618422893491015
 30
0.0
 40
0.5169475435324661
 50
61.440120080664542
 51
72.9469739125592724
  0
ARC
  5
23A2B
  8
0
 10
3240.6524487215319823
 20
163.9544329105067959
 30
0.0
 40
0.0699674725275538
 50
41.6459346625652813
 51
61.4401200806637604
  0
ARC
  5
23A2C
  8
0
 10
3240.6838113953558604
 20
163.9822641129036924
 30
0.0
 40
0.0280367164487124
 50
11.7977745956491198
 51
41.7358481767454208
  0
ARC
  5
23A2D
  8
0
 10
3240.6500974878040324
 20
163.9909645779021048
 30
0.0
 40
0.0612303398937707
 50
348.7177240210673972
 51
357.2215053102225966
  0
ARC
  5
23A2E
  8
0
 10
3240.4095385569021346
 20
164.0213351097592067
 30
0.0
 40
0.3035745021160963
 50
347.6239515025486071
 51
351.9808638328997858
  0
ARC
  5
23A2F
  8
0
 10
3240.6552319613729196
 20
163.9718622950402107
 30
0.0
 40
0.0531642487498388
 50
317.9381967030938085
 51
342.9462546317153055
  0
ARC
  5
23A30
  8
0
 10
3240.6501730181739731
 20
163.9761849359684902
 30
0.0
 40
0.0598162679418061
 50
305.3191339161392079
 51
318.1105362594635722
  0
ARC
  5
23A31
  8
0
 10
3240.6350389642830123
 20
163.9861431197172124
 30
0.0
 40
0.0769737843997341
 50
280.9719330193004794
 51
310.2315050672301027
  0
ARC
  5
23A32
  8
0
 10
3240.568385307140943
 20
164.3344503850406966
 30
0.0
 40
0.4316010957845045
 50
270.0
 51
280.8581116348439082
  0
ARC
  5
23A33
  8
0
 10
3240.5796137073339196
 20
165.3139236580275053
 30
0.0
 40
1.4111190421698441
 50
261.4172954861249991
 51
269.5440875563471081
  0
ARC
  5
23A34
  8
0
 10
3240.6011029730589144
 20
165.5490248253856009
 30
0.0
 40
1.646852546061677
 50
255.2217762925002091
 51
261.8987103453134182
  0
ARC
  5
23A35
  8
0
 10
3240.3424823573618596
 20
164.6013753742016945
 30
0.0
 40
0.6646347901240288
 50
244.7009436115712901
 51
255.9408219520960017
  0
ARC
  5
23A36
  8
0
 10
3240.0937126022317898
 20
164.0836707987118075
 30
0.0
 40
0.0903481477098028
 50
204.7476700280404884
 51
247.0307099121060048
  0
ARC
  5
23A37
  8
0
 10
3240.0591637903521587
 20
164.0669247828988091
 30
0.0
 40
0.0519673701970014
 50
171.1502369622955939
 51
203.9260949877599103
  0
ARC
  5
23A38
  8
0
 10
3743.9882619759951012
 20
83.3217333292512734
 30
0.0
 40
510.4090202481157235
 50
170.8942861642065907
 51
170.8968301868715116
  0
ARC
  5
23A39
  8
0
 10
3240.0751648662621847
 20
162.2532045495908051
 30
0.0
 40
1.876429369745902
 50
79.2993043796646759
 51
84.4640281796091017
  0
ARC
  5
23A3A
  8
0
 10
3240.1336800879471411
 20
162.8569351618685914
 30
0.0
 40
1.2698696584476099
 50
84.4640281796091017
 51
90.4958458192767949
  0
ARC
  5
23A3B
  8
0
 10
3240.1264780833439545
 20
163.6891175664563036
 30
0.0
 40
0.4376560900796997
 50
90.4958458192767949
 51
98.0580436869571201
  0
ARC
  5
23A3C
  8
0
 10
3240.0904599977770886
 20
163.9435292103850088
 30
0.0
 40
0.1807074822717665
 50
98.0580436869571201
 51
110.1085708728788006
  0
ARC
  5
23A3D
  8
0
 10
3240.0404311185511688
 20
164.0801762066161018
 30
0.0
 40
0.0351901625619072
 50
110.1085708728793975
 51
135.4717330507398003
  0
ARC
  5
23A3E
  8
0
 10
3240.0257505158879212
 20
164.0946170385026051
 30
0.0
 40
0.0145975007586917
 50
135.4717330507455983
 51
169.4206718076493132
  0
ARC
  5
23A3F
  8
0
 10
3240.5088607027341823
 20
163.748282644906709
 30
0.0
 40
0.250364968161845
 50
56.4354407623632497
 51
70.6617880514041872
  0
ARC
  5
23A40
  8
0
 10
3240.2315591190431405
 20
163.0038621350958863
 30
0.0
 40
1.0447219940895061
 50
69.8310997115421515
 51
80.7649633695823894
  0
ARC
  5
23A41
  8
0
 10
3240.1086399314817754
 20
162.4665633418289019
 30
0.0
 40
1.5951693133199909
 50
79.50421313413473
 51
85.8890344551691669
  0
ARC
  5
23A42
  8
0
 10
3240.161665426889158
 20
163.405393188724787
 30
0.0
 40
0.6551122817318499
 50
84.6282842197088456
 51
93.9240815799722242
  0
ARC
  5
23A43
  8
0
 10
3240.141874446086149
 20
163.6939106755515922
 30
0.0
 40
0.365916806099892
 50
93.9240815799722242
 51
100.0364951082570002
  0
ARC
  5
23A44
  8
0
 10
3240.0963539788340313
 20
163.9511119706193938
 30
0.0
 40
0.1047183774612042
 50
100.0364951082570002
 51
114.6708705644517039
  0
ARC
  5
23A45
  8
0
 10
3240.0634249996728613
 20
164.0228006884478873
 30
0.0
 40
0.0258286447167887
 50
114.6708705644517039
 51
137.3031357482298915
  0
ARC
  5
23A46
  8
0
 10
3240.053775408313868
 20
164.0317040973122005
 30
0.0
 40
0.0126990863541969
 50
137.3031357482250883
 51
210.5117493736375138
  0
ARC
  5
23A47
  8
0
 10
3240.6159130352411921
 20
163.9111808463732132
 30
0.0
 40
0.0554478367843099
 50
37.6282252614989972
 51
55.5469966338227223
  0
ARC
  5
23A48
  8
0
 10
3240.6467104512871629
 20
163.934922227908487
 30
0.0
 40
0.0165616691631174
 50
5.9645369776705781
 51
37.6282252614989972
  0
ARC
  5
23A49
  8
0
 10
3240.6527429405750809
 20
163.9355524932919934
 30
0.0
 40
0.0104963446484086
 50
319.1068613450827911
 51
5.9645369776738164
  0
ARC
  5
23A4A
  8
0
 10
3240.6359808654538028
 20
163.9500687451067051
 30
0.0
 40
0.032670399963511
 50
285.1537696821472991
 51
319.1068613450839848
  0
ARC
  5
23A4B
  8
0
 10
3240.5529929455628917
 20
164.2980903743172121
 30
0.0
 40
0.3904358994361329
 50
268.8313255067351975
 51
283.5577864919886792
  0
ARC
  5
23A4C
  8
0
 10
3240.579512381828863
 20
165.4796729612162096
 30
0.0
 40
1.5723154235048371
 50
261.7906169435113952
 51
268.7436660001470727
  0
ARC
  5
23A4D
  8
0
 10
3240.5703748115811322
 20
165.3191113627802054
 30
0.0
 40
1.4121626011462021
 50
256.4802869126644964
 51
261.2273392275496917
  0
ARC
  5
23A4E
  8
0
 10
3240.65004269689598
 20
165.6504497337901967
 30
0.0
 40
1.75294418523531
 50
253.270105093404311
 51
256.4802869126644964
  0
ARC
  5
23A4F
  8
0
 10
3240.2697027396179692
 20
164.3851096752090939
 30
0.0
 40
0.4316781458048376
 50
243.7448935451486136
 51
253.270105093404311
  0
ARC
  5
23A50
  8
0
 10
3240.1454754368628528
 20
164.1332582128966067
 30
0.0
 40
0.1508551022012974
 50
230.878279692714699
 51
243.7448935451479031
  0
ARC
  5
23A51
  8
0
 10
3240.0690780746349446
 20
164.0393240588759909
 30
0.0
 40
0.0297758626639266
 50
208.1931707467248032
 51
230.878279692714699
  0
ARC
  5
23A52
  8
0
 10
3240.4185517695868839
 20
164.5630975326901932
 30
0.0
 40
0.6479117212027132
 50
286.4486337212235867
 51
290.6725194347739034
  0
ARC
  5
23A53
  8
0
 10
3240.440297281956191
 20
164.4894434990484058
 30
0.0
 40
0.5711146901411492
 50
280.5628890727743965
 51
286.4486337212235867
  0
ARC
  5
23A54
  8
0
 10
3240.434256011348225
 20
164.5218407829320029
 30
0.0
 40
0.604070432487479
 50
273.9860754013952828
 51
280.5628890727743965
  0
ARC
  5
23A55
  8
0
 10
3240.4368109389051824
 20
164.485175566021212
 30
0.0
 40
0.5673163063798153
 50
269.3110119150103969
 51
273.9860754013952828
  0
ARC
  5
23A56
  8
0
 10
3240.4546258111959105
 20
165.9665767932573885
 30
0.0
 40
2.048824647811474
 50
268.2076033776659756
 51
269.3110119150103969
  0
ARC
  5
23A57
  8
0
 10
3240.5043689735148291
 20
164.6004131827469905
 30
0.0
 40
0.7050430955093282
 50
231.2648799753168021
 51
234.4572591819542993
  0
ARC
  5
23A58
  8
0
 10
3240.4068765243277994
 20
164.463949251321111
 30
0.0
 40
0.5373314911743267
 50
234.4572591819542993
 51
244.4739403049952102
  0
ARC
  5
23A59
  8
0
 10
3240.3090981427149018
 20
164.2752275807862077
 30
0.0
 40
0.3249697177682278
 50
245.6923304868556102
 51
258.1083212364596875
  0
ARC
  5
23A5A
  8
0
 10
3240.3134227025998371
 20
164.3012805317929121
 30
0.0
 40
0.3513565110993958
 50
258.2936956769493122
 51
277.8280769771084238
  0
ARC
  5
23A5B
  8
0
 10
3240.3056370040649199
 20
164.3630295792291065
 30
0.0
 40
0.413591140422752
 50
277.7315004026552856
 51
290.0427582932347264
  0
ARC
  5
23A5C
  8
0
 10
3240.286507616354811
 20
164.417962173509892
 30
0.0
 40
0.4717536835256172
 50
289.9388294118739964
 51
296.6447515160091939
  0
LINE
  5
23A5D
  8
0
 10
3240.4980690186212087
 20
163.9963067324310089
 30
0.0
 11
3240.480173428766193
 21
164.0015187802468972
 31
0.0
  0
LINE
  5
23A5E
  8
0
 10
3240.480173428766193
 20
164.0015187802468972
 30
0.0
 11
3240.4852775074350575
 21
164.0040512991683954
 31
0.0
  0
LINE
  5
23A5F
  8
0
 10
3240.4852775074350575
 20
164.0040512991683954
 30
0.0
 11
3240.503809943223132
 21
164.0021736773302905
 31
0.0
  0
LINE
  5
23A60
  8
0
 10
3240.503809943223132
 20
164.0021736773302905
 30
0.0
 11
3240.5059956849231639
 21
163.9923899032303041
 31
0.0
  0
LINE
  5
23A61
  8
0
 10
3240.5059956849231639
 20
163.9923899032303041
 30
0.0
 11
3240.4899080875238724
 21
163.9847015988302985
 31
0.0
  0
LINE
  5
23A62
  8
0
 10
3240.4899080875238724
 20
163.9847015988302985
 30
0.0
 11
3240.4909860878337895
 21
163.9928267919879943
 31
0.0
  0
LINE
  5
23A63
  8
0
 10
3240.4821508264881231
 20
163.9886953507231055
 30
0.0
 11
3240.4899080875311483
 21
163.9847015988833903
 31
0.0
  0
LINE
  5
23A64
  8
0
 10
3240.4899080875311483
 20
163.9847015988833903
 30
0.0
 11
3240.4962894831060112
 21
163.9820796409898094
 31
0.0
  0
LINE
  5
23A65
  8
0
 10
3240.4962894831060112
 20
163.9820796409898094
 30
0.0
 11
3240.4976908760809238
 21
163.981984900656613
 31
0.0
  0
LINE
  5
23A66
  8
0
 10
3240.4976908760809238
 20
163.981984900656613
 30
0.0
 11
3240.4978368735678487
 21
163.981449612365509
 31
0.0
  0
LINE
  5
23A67
  8
0
 10
3240.4978368735678487
 20
163.981449612365509
 30
0.0
 11
3240.5042080593239007
 21
163.9788806001303101
 31
0.0
  0
LINE
  5
23A68
  8
0
 10
3240.5042080593239007
 20
163.9788806001303101
 30
0.0
 11
3240.5192840045820049
 21
163.986093116159509
 31
0.0
  0
LINE
  5
23A69
  8
0
 10
3240.5192840045820049
 20
163.986093116159509
 30
0.0
 11
3240.5380870019298527
 21
163.9859037084113993
 31
0.0
  0
LINE
  5
23A6A
  8
0
 10
3240.5380870019298527
 20
163.9859037084113993
 30
0.0
 11
3240.5405491584228912
 21
163.9778446710303115
 31
0.0
  0
LINE
  5
23A6B
  8
0
 10
3240.5405491584228912
 20
163.9778446710303115
 30
0.0
 11
3240.5254732132561912
 21
163.9706321549365953
 31
0.0
  0
LINE
  5
23A6C
  8
0
 10
3240.5069382342257995
 20
163.9801867490920131
 30
0.0
 11
3240.5254732131998026
 21
163.9706321549626011
 31
0.0
  0
LINE
  5
23A6D
  8
0
 10
3240.5254732131998026
 20
163.9706321549626011
 30
0.0
 11
3240.5312496459891918
 21
163.9684892819263098
 31
0.0
  0
LINE
  5
23A6E
  8
0
 10
3240.5312496459891918
 20
163.9684892819263098
 30
0.0
 11
3240.5378708299231221
 21
163.966090751230297
 31
0.0
  0
LINE
  5
23A6F
  8
0
 10
3240.5378708299231221
 20
163.966090751230297
 30
0.0
 11
3240.5541822328541457
 21
163.9736990393608096
 31
0.0
  0
LINE
  5
23A70
  8
0
 10
3240.5541822328541457
 20
163.9736990393608096
 30
0.0
 11
3240.5732616451368813
 21
163.9752343681981017
 31
0.0
  0
LINE
  5
23A71
  8
0
 10
3240.5732616451368813
 20
163.9752343681981017
 30
0.0
 11
3240.575994363116024
 21
163.9688635448468119
 31
0.0
  0
LINE
  5
23A72
  8
0
 10
3240.575994363116024
 20
163.9688635448468119
 30
0.0
 11
3240.5708902846231467
 21
163.9663310259302875
 31
0.0
  0
LINE
  5
23A73
  8
0
 10
3240.5708902846231467
 20
163.9663310259302875
 30
0.0
 11
3240.5619117187238771
 21
163.9715430738303041
 31
0.0
  0
LINE
  5
23A74
  8
0
 10
3240.5619117187238771
 20
163.9715430738303041
 30
0.0
 11
3240.54840099735884
 21
163.9710024408165907
 31
0.0
  0
ARC
  5
23A75
  8
0
 10
3240.3458672703418415
 20
164.4028688470492057
 30
0.0
 40
0.4824076350132608
 50
292.849498328773393
 51
296.6055850725692267
  0
ARC
  5
23A76
  8
0
 10
3240.3592004842112146
 20
164.3712269324790896
 30
0.0
 40
0.4480712789203653
 50
284.6296978056802232
 51
292.849498328773393
  0
ARC
  5
23A77
  8
0
 10
3240.3744465940890223
 20
164.3128203396574918
 30
0.0
 40
0.3877075981892719
 50
273.0419083086077876
 51
284.6296978056802232
  0
ARC
  5
23A78
  8
0
 10
3240.3765785771661285
 20
164.2727011685983882
 30
0.0
 40
0.3475318189397025
 50
263.0034836937959994
 51
273.0419083086077876
  0
ARC
  5
23A79
  8
0
 10
3241.0424732818460143
 20
169.698705729571401
 30
0.0
 40
5.8142439252629341
 50
262.8261937747236061
 51
263.0034836937959994
  0
LINE
  5
23A7A
  8
0
 10
3240.5237061196089599
 20
163.9715430738303041
 30
0.0
 11
3240.4988691334228861
 21
163.9715430738303041
 31
0.0
  0
LINE
  5
23A7B
  8
0
 10
3240.4988691334228861
 20
163.9715430738303041
 30
0.0
 11
3240.5002975015618176
 21
163.9804574291729011
 31
0.0
  0
LINE
  5
23A7C
  8
0
 10
3240.5012332877040535
 20
163.9800800981481927
 30
0.0
 11
3240.4998592377228306
 21
163.9715430738303041
 31
0.0
  0
LINE
  5
23A7D
  8
0
 10
3240.4849197410640045
 20
163.9872698014706884
 30
0.0
 11
3240.4823992978231217
 21
163.9715430738303041
 31
0.0
  0
LINE
  5
23A7E
  8
0
 10
3240.4823992978231217
 20
163.9715430738303041
 30
0.0
 11
3240.4562175412238503
 21
163.9715430738303041
 31
0.0
  0
LINE
  5
23A7F
  8
0
 10
3240.4562175412238503
 20
163.9715430738303041
 30
0.0
 11
3240.4572338172160926
 21
163.9781848409203064
 31
0.0
  0
LINE
  5
23A80
  8
0
 10
3240.5250181343521945
 20
164.0065215245539036
 30
0.0
 11
3240.5089711661239562
 21
163.9978440491302933
 31
0.0
  0
LINE
  5
23A81
  8
0
 10
3240.5089711661239562
 20
163.9978440491302933
 30
0.0
 11
3240.5112173067232106
 21
163.9884371445303088
 31
0.0
  0
LINE
  5
23A82
  8
0
 10
3240.5112173067232106
 20
163.9884371445303088
 30
0.0
 11
3240.5299621098661191
 21
163.9878846243994133
 31
0.0
  0
LINE
  5
23A83
  8
0
 10
3240.5299621098661191
 20
163.9878846243994133
 30
0.0
 11
3240.5464765088358945
 21
163.9968371989826892
 31
0.0
  0
LINE
  5
23A84
  8
0
 10
3240.5464765088358945
 20
163.9968371989826892
 30
0.0
 11
3240.545616141183018
 21
164.0002617696698906
 31
0.0
  0
LINE
  5
23A85
  8
0
 10
3240.5503747357138309
 20
163.9987493887591086
 30
0.0
 11
3240.5517676588237919
 21
163.9933182724302867
 31
0.0
  0
LINE
  5
23A86
  8
0
 10
3240.5517676588237919
 20
163.9933182724302867
 30
0.0
 11
3240.5651824432288777
 21
163.9938820957503083
 31
0.0
  0
LINE
  5
23A87
  8
0
 10
3240.5701058989020567
 20
163.9922093022294973
 30
0.0
 11
3240.5599372059218695
 21
163.9916159896299064
 31
0.0
  0
LINE
  5
23A88
  8
0
 10
3240.5599372059218695
 20
163.9916159896299064
 30
0.0
 11
3240.5434228069229903
 21
163.982663415030288
 31
0.0
  0
LINE
  5
23A89
  8
0
 10
3240.5434228069229903
 20
163.982663415030288
 30
0.0
 11
3240.5459431576309726
 21
163.9749674899422018
 31
0.0
  0
LINE
  5
23A8A
  8
0
 10
3240.5459431576309726
 20
163.9749674899422018
 30
0.0
 11
3240.5649621709299026
 21
163.9761259494744081
 31
0.0
  0
LINE
  5
23A8B
  8
0
 10
3240.5649621709299026
 20
163.9761259494744081
 30
0.0
 11
3240.5814813602301001
 21
163.9851084140468913
 31
0.0
  0
LINE
  5
23A8C
  8
0
 10
3240.5814813602301001
 20
163.9851084140468913
 30
0.0
 11
3240.580038928068916
 21
163.9887508941114902
 31
0.0
  0
LINE
  5
23A8D
  8
0
 10
3240.5979064086131984
 20
163.9822772592617071
 30
0.0
 11
3240.5952966331701646
 21
163.9820996412009038
 31
0.0
  0
LINE
  5
23A8E
  8
0
 10
3240.5952966331701646
 20
163.9820996412009038
 30
0.0
 11
3240.578771310123102
 21
163.9730789031303004
 31
0.0
  0
LINE
  5
23A8F
  8
0
 10
3240.578771310123102
 20
163.9730789031303004
 30
0.0
 11
3240.5815617683110759
 21
163.9670683589741031
 31
0.0
  0
LINE
  5
23A90
  8
0
 10
3240.5815617683110759
 20
163.9670683589741031
 30
0.0
 11
3240.6008680487739184
 21
163.9700192701378967
 31
0.0
  0
LINE
  5
23A91
  8
0
 10
3240.6008680487739184
 20
163.9700192701378967
 30
0.0
 11
3240.612399129322057
 21
163.9762352967935897
 31
0.0
  0
LINE
  5
23A92
  8
0
 10
3240.6093486214231234
 20
163.9702576837302956
 30
0.0
 11
3240.6123547591241731
 21
163.965592907430306
 31
0.0
  0
LINE
  5
23A93
  8
0
 10
3240.6123547591241731
 20
163.965592907430306
 30
0.0
 11
3240.5959925976490013
 21
163.9575902446215139
 31
0.0
  0
LINE
  5
23A94
  8
0
 10
3240.5959925976490013
 20
163.9575902446215139
 30
0.0
 11
3240.5766411378349403
 21
163.9543574290113952
 31
0.0
  0
LINE
  5
23A95
  8
0
 10
3240.5766411378349403
 20
163.9543574290113952
 30
0.0
 11
3240.5736324733229594
 21
163.9590064383303059
 31
0.0
  0
LINE
  5
23A96
  8
0
 10
3240.5736324733229594
 20
163.9590064383303059
 30
0.0
 11
3240.5899777395020465
 21
163.9669036805252063
 31
0.0
  0
LINE
  5
23A97
  8
0
 10
3240.5899777395020465
 20
163.9669036805252063
 30
0.0
 11
3240.6093486214522272
 21
163.9702576837024992
 31
0.0
  0
LINE
  5
23A98
  8
0
 10
3240.6207304933618616
 20
163.9722642674286988
 30
0.0
 11
3240.6150371836370141
 21
163.9692184775119017
 31
0.0
  0
LINE
  5
23A99
  8
0
 10
3240.6150371836370141
 20
163.9692184775119017
 30
0.0
 11
3240.6181023972608273
 21
163.9649223161061116
 31
0.0
  0
LINE
  5
23A9A
  8
0
 10
3240.6181023972608273
 20
163.9649223161061116
 30
0.0
 11
3240.6295053203930365
 21
163.9676624377607936
 31
0.0
  0
LINE
  5
23A9B
  8
0
 10
3240.6307734693559723
 20
163.9669602491950116
 30
0.0
 11
3240.6267060082959688
 21
163.9659284477110077
 31
0.0
  0
LINE
  5
23A9C
  8
0
 10
3240.6267060082959688
 20
163.9659284477110077
 30
0.0
 11
3240.6103299883229738
 21
163.9578393120303019
 31
0.0
  0
LINE
  5
23A9D
  8
0
 10
3240.6103299883229738
 20
163.9578393120303019
 30
0.0
 11
3240.6136152955191392
 21
163.9549164608056913
 31
0.0
  0
LINE
  5
23A9E
  8
0
 10
3240.6136152955191392
 20
163.9549164608056913
 30
0.0
 11
3240.6332832648331532
 21
163.9601241904134099
 31
0.0
  0
LINE
  5
23A9F
  8
0
 10
3240.6332832648331532
 20
163.9601241904134099
 30
0.0
 11
3240.6383225764211602
 21
163.9625773964619952
 31
0.0
  0
LINE
  5
23AA0
  8
0
 10
3240.6401612820941409
 20
163.9614557556463978
 30
0.0
 11
3240.6222902625231654
 21
163.9563678298302989
 31
0.0
  0
LINE
  5
23AA1
  8
0
 10
3240.6222902625231654
 20
163.9563678298302989
 30
0.0
 11
3240.6060813929238975
 21
163.9493216568303069
 31
0.0
  0
LINE
  5
23AA2
  8
0
 10
3240.6060813929238975
 20
163.9493216568303069
 30
0.0
 11
3240.6095857002801495
 21
163.9477652945498107
 31
0.0
  0
LINE
  5
23AA3
  8
0
 10
3240.6095857002801495
 20
163.9477652945498107
 30
0.0
 11
3240.6293124850708409
 21
163.9533400129467111
 31
0.0
  0
LINE
  5
23AA4
  8
0
 10
3240.6293124850708409
 20
163.9533400129467111
 30
0.0
 11
3240.6432087007910923
 21
163.9594715546805901
 31
0.0
  0
LINE
  5
23AA5
  8
0
 10
3240.6418833523230205
 20
163.9556784285302911
 30
0.0
 11
3240.6381367512231009
 21
163.9557229587302913
 31
0.0
  0
LINE
  5
23AA6
  8
0
 10
3240.6381367512231009
 20
163.9557229587302913
 30
0.0
 11
3240.6262110539228161
 21
163.9519802813302931
 31
0.0
  0
LINE
  5
23AA7
  8
0
 10
3240.6262110539228161
 20
163.9519802813302931
 30
0.0
 11
3240.618335219823166
 21
163.9496818466303125
 31
0.0
  0
LINE
  5
23AA8
  8
0
 10
3240.618335219823166
 20
163.9496818466303125
 30
0.0
 11
3240.6022866346238516
 21
163.9436357949302874
 31
0.0
  0
LINE
  5
23AA9
  8
0
 10
3240.6022866346238516
 20
163.9436357949302874
 30
0.0
 11
3240.6060124937212095
 21
163.9434618408149902
 31
0.0
  0
LINE
  5
23AAA
  8
0
 10
3240.6060124937212095
 20
163.9434618408149902
 30
0.0
 11
3240.6258072091241047
 21
163.9494604238302884
 31
0.0
  0
LINE
  5
23AAB
  8
0
 10
3240.6258072091241047
 20
163.9494604238302884
 30
0.0
 11
3240.6418833520810949
 21
163.9556784285331901
 31
0.0
  0
LINE
  5
23AAC
  8
0
 10
3240.6077679103750597
 20
163.9549646645351118
 30
0.0
 11
3240.6045421356229781
 21
163.9582589778302975
 31
0.0
  0
LINE
  5
23AAD
  8
0
 10
3240.6045421356229781
 20
163.9582589778302975
 30
0.0
 11
3240.5851255444208618
 21
163.9546197635139038
 31
0.0
  0
LINE
  5
23AAE
  8
0
 10
3240.5851255444208618
 20
163.9546197635139038
 30
0.0
 11
3240.5689490257232137
 21
163.9477754499303046
 31
0.0
  0
LINE
  5
23AAF
  8
0
 10
3240.5689490257232137
 20
163.9477754499303046
 30
0.0
 11
3240.5721711364990369
 21
163.9444582747555046
 31
0.0
  0
LINE
  5
23AB0
  8
0
 10
3240.5721711364990369
 20
163.9444582747555046
 30
0.0
 11
3240.591573353466174
 21
163.9480077975638892
 31
0.0
  0
LINE
  5
23AB1
  8
0
 10
3240.591573353466174
 20
163.9480077975638892
 30
0.0
 11
3240.6077679103750597
 21
163.9549646645351118
 31
0.0
  0
LINE
  5
23AB2
  8
0
 10
3240.6036371314889948
 20
163.947182145087794
 30
0.0
 11
3240.6001936615230079
 21
163.9491181135302895
 31
0.0
  0
LINE
  5
23AB3
  8
0
 10
3240.6001936615230079
 20
163.9491181135302895
 30
0.0
 11
3240.580725303339932
 21
163.9451558905363129
 31
0.0
  0
LINE
  5
23AB4
  8
0
 10
3240.580725303339932
 20
163.9451558905363129
 30
0.0
 11
3240.5647094380237832
 21
163.9393140005302882
 31
0.0
  0
LINE
  5
23AB5
  8
0
 10
3240.5647094380237832
 20
163.9393140005302882
 30
0.0
 11
3240.5681437030298184
 21
163.9373205966678881
 31
0.0
  0
LINE
  5
23AB6
  8
0
 10
3240.5681437030298184
 20
163.9373205966678881
 30
0.0
 11
3240.5876028589232192
 21
163.9412254000303051
 31
0.0
  0
LINE
  5
23AB7
  8
0
 10
3240.5876028589232192
 20
163.9412254000303051
 30
0.0
 11
3240.6036371314889948
 21
163.947182145087794
 31
0.0
  0
LINE
  5
23AB8
  8
0
 10
3240.5999596383471726
 20
163.9422279786220997
 30
0.0
 11
3240.5962968228459431
 21
163.9427953035186079
 31
0.0
  0
LINE
  5
23AB9
  8
0
 10
3240.5962968228459431
 20
163.9427953035186079
 30
0.0
 11
3240.5767699940229249
 21
163.9384682437303127
 31
0.0
  0
LINE
  5
23ABA
  8
0
 10
3240.5767699940229249
 20
163.9384682437303127
 30
0.0
 11
3240.5609093870230026
 21
163.9335951136303038
 31
0.0
  0
LINE
  5
23ABB
  8
0
 10
3240.5609093870230026
 20
163.9335951136303038
 30
0.0
 11
3240.5645578250228027
 21
163.932938078030304
 31
0.0
  0
LINE
  5
23ABC
  8
0
 10
3240.5645578250228027
 20
163.932938078030304
 30
0.0
 11
3240.5840809910928328
 21
163.9372422831820018
 31
0.0
  0
LINE
  5
23ABD
  8
0
 10
3240.5840809910928328
 20
163.9372422831820018
 30
0.0
 11
3240.5999596383899188
 21
163.9422279785626984
 31
0.0
  0
LINE
  5
23ABE
  8
0
 10
3240.5709759744231633
 20
163.9555426357302963
 30
0.0
 11
3240.5680244203231268
 21
163.9605479950303106
 31
0.0
  0
LINE
  5
23ABF
  8
0
 10
3240.5680244203231268
 20
163.9605479950303106
 30
0.0
 11
3240.5357312760238528
 21
163.9472330791303136
 31
0.0
  0
LINE
  5
23AC0
  8
0
 10
3240.5357312760238528
 20
163.9472330791303136
 30
0.0
 11
3240.5548082626519317
 21
163.948753273700305
 31
0.0
  0
LINE
  5
23AC1
  8
0
 10
3240.5548082626519317
 20
163.948753273700305
 30
0.0
 11
3240.5709759744231633
 21
163.9555426357302963
 31
0.0
  0
LINE
  5
23AC2
  8
0
 10
3240.5632439697242262
 20
163.9487117401303067
 30
0.0
 11
3240.5664087988229767
 21
163.9450371459303142
 31
0.0
  0
LINE
  5
23AC3
  8
0
 10
3240.5664087988229767
 20
163.9450371459303142
 30
0.0
 11
3240.5504022241061648
 21
163.939253225856703
 31
0.0
  0
LINE
  5
23AC4
  8
0
 10
3240.5504022241061648
 20
163.939253225856703
 30
0.0
 11
3240.5312422019242149
 21
163.9372149176303139
 31
0.0
  0
LINE
  5
23AC5
  8
0
 10
3240.5312422019242149
 20
163.9372149176303139
 30
0.0
 11
3240.5280789532230301
 21
163.9408993729302892
 31
0.0
  0
LINE
  5
23AC6
  8
0
 10
3240.5280789532230301
 20
163.9408993729302892
 30
0.0
 11
3240.5440741725237785
 21
163.9466124391302912
 31
0.0
  0
LINE
  5
23AC7
  8
0
 10
3240.5440741725237785
 20
163.9466124391302912
 30
0.0
 11
3240.5632439697242262
 21
163.9487117401303067
 31
0.0
  0
LINE
  5
23AC8
  8
0
 10
3240.5589072280231449
 20
163.9396440817303073
 30
0.0
 11
3240.5622832654148624
 21
163.9372873574193079
 31
0.0
  0
LINE
  5
23AC9
  8
0
 10
3240.5622832654148624
 20
163.9372873574193079
 30
0.0
 11
3240.5464319491197784
 21
163.9324721975368107
 31
0.0
  0
LINE
  5
23ACA
  8
0
 10
3240.5464319491197784
 20
163.9324721975368107
 30
0.0
 11
3240.5272164253678966
 21
163.9300875782020057
 31
0.0
  0
LINE
  5
23ACB
  8
0
 10
3240.5272164253678966
 20
163.9300875782020057
 30
0.0
 11
3240.5238462585230081
 21
163.9324809331303072
 31
0.0
  0
LINE
  5
23ACC
  8
0
 10
3240.5238462585230081
 20
163.9324809331303072
 30
0.0
 11
3240.5396858347230591
 21
163.9372228382302978
 31
0.0
  0
LINE
  5
23ACD
  8
0
 10
3240.5396858347230591
 20
163.9372228382302978
 30
0.0
 11
3240.5589072280231449
 21
163.9396440817303073
 31
0.0
  0
LINE
  5
23ACE
  8
0
 10
3240.5585968448549465
 20
163.9322774859782044
 30
0.0
 11
3240.5550083877328689
 21
163.9333087816976899
 31
0.0
  0
LINE
  5
23ACF
  8
0
 10
3240.5550083877328689
 20
163.9333087816976899
 30
0.0
 11
3240.5357303207701989
 21
163.9305339136766975
 31
0.0
  0
LINE
  5
23AD0
  8
0
 10
3240.5357303207701989
 20
163.9305339136766975
 30
0.0
 11
3240.5200421570239087
 21
163.9267367720302957
 31
0.0
  0
LINE
  5
23AD1
  8
0
 10
3240.5200421570239087
 20
163.9267367720302957
 30
0.0
 11
3240.5236208379928939
 21
163.9256444760005991
 31
0.0
  0
LINE
  5
23AD2
  8
0
 10
3240.5236208379928939
 20
163.9256444760005991
 30
0.0
 11
3240.5428973247421709
 21
163.9284094847764948
 31
0.0
  0
LINE
  5
23AD3
  8
0
 10
3240.5428973247421709
 20
163.9284094847764948
 30
0.0
 11
3240.5585968448549465
 21
163.9322774859782044
 31
0.0
  0
LINE
  5
23AD4
  8
0
 10
3240.5214366985492234
 20
163.9305579467244058
 30
0.0
 11
3240.5181228074238788
 21
163.9333024441303053
 31
0.0
  0
LINE
  5
23AD5
  8
0
 10
3240.5181228074238788
 20
163.9333024441303053
 30
0.0
 11
3240.4991300548131221
 21
163.9323078418047999
 31
0.0
  0
LINE
  5
23AD6
  8
0
 10
3240.4991300548131221
 20
163.9323078418047999
 30
0.0
 11
3240.4834546679230698
 21
163.9285904238302862
 31
0.0
  0
LINE
  5
23AD7
  8
0
 10
3240.4834546679230698
 20
163.9285904238302862
 30
0.0
 11
3240.4867650425208012
 21
163.9258239851328085
 31
0.0
  0
LINE
  5
23AD8
  8
0
 10
3240.4867650425208012
 20
163.9258239851328085
 30
0.0
 11
3240.5057542791159904
 21
163.926796648186496
 31
0.0
  0
LINE
  5
23AD9
  8
0
 10
3240.5057542791159904
 20
163.926796648186496
 30
0.0
 11
3240.5214366985492234
 21
163.9305579467244058
 31
0.0
  0
LINE
  5
23ADA
  8
0
 10
3240.5177434493630244
 20
163.9255054676141015
 30
0.0
 11
3240.5142224385231202
 21
163.9269576067302978
 31
0.0
  0
LINE
  5
23ADB
  8
0
 10
3240.5142224385231202
 20
163.9269576067302978
 30
0.0
 11
3240.4951743858291593
 21
163.9256179507102047
 31
0.0
  0
LINE
  5
23ADC
  8
0
 10
3240.4951743858291593
 20
163.9256179507102047
 30
0.0
 11
3240.4796475324228595
 21
163.9228273319303071
 31
0.0
  0
LINE
  5
23ADD
  8
0
 10
3240.4796475324228595
 20
163.9228273319303071
 30
0.0
 11
3240.4831621554230878
 21
163.9213353353302978
 31
0.0
  0
LINE
  5
23ADE
  8
0
 10
3240.4831621554230878
 20
163.9213353353302978
 30
0.0
 11
3240.5022099550469648
 21
163.9226734120065885
 31
0.0
  0
LINE
  5
23ADF
  8
0
 10
3240.5022099550469648
 20
163.9226734120065885
 30
0.0
 11
3240.5177434493662076
 21
163.925505467614812
 31
0.0
  0
LINE
  5
23AE0
  8
0
 10
3240.5143728270791144
 20
163.9231067992274973
 30
0.0
 11
3240.510750404323062
 21
163.9232854350302944
 31
0.0
  0
LINE
  5
23AE1
  8
0
 10
3240.510750404323062
 20
163.9232854350302944
 30
0.0
 11
3240.4992454359207841
 21
163.9221679657892992
 31
0.0
  0
LINE
  5
23AE2
  8
0
 10
3240.4992454359207841
 20
163.9221679657892992
 30
0.0
 11
3240.4916424884740991
 21
163.9215722528570041
 31
0.0
  0
LINE
  5
23AE3
  8
0
 10
3240.4916424884740991
 20
163.9215722528570041
 30
0.0
 11
3240.4762630121231268
 21
163.9197012178302941
 31
0.0
  0
LINE
  5
23AE4
  8
0
 10
3240.4762630121231268
 20
163.9197012178302941
 30
0.0
 11
3240.4791536829670804
 21
163.9194411759526986
 31
0.0
  0
LINE
  5
23AE5
  8
0
 10
3240.4810606559622101
 20
163.9267644523860099
 30
0.0
 11
3240.4778051212229002
 21
163.92987307363029
 31
0.0
  0
LINE
  5
23AE6
  8
0
 10
3240.4778051212229002
 20
163.92987307363029
 30
0.0
 11
3240.4465990679241258
 21
163.9244944826303083
 31
0.0
  0
LINE
  5
23AE7
  8
0
 10
3240.4465990679241258
 20
163.9244944826303083
 30
0.0
 11
3240.4655370561908967
 21
163.9239941350317054
 31
0.0
  0
LINE
  5
23AE8
  8
0
 10
3240.4655370561908967
 20
163.9239941350317054
 30
0.0
 11
3240.4810606480550632
 21
163.9267644599360096
 31
0.0
  0
LINE
  5
23AE9
  8
0
 10
3240.4773622981902008
 20
163.9216800970748125
 30
0.0
 11
3240.4739493396227772
 21
163.9234920257302974
 31
0.0
  0
LINE
  5
23AEA
  8
0
 10
3240.4739493396227772
 20
163.9234920257302974
 30
0.0
 11
3240.4550721032242109
 21
163.9235326265302888
 31
0.0
  0
LINE
  5
23AEB
  8
0
 10
3240.4550721032242109
 20
163.9235326265302888
 30
0.0
 11
3240.4396987468230691
 21
163.9216997780303018
 31
0.0
  0
LINE
  5
23AEC
  8
0
 10
3240.4396987468230691
 20
163.9216997780303018
 30
0.0
 11
3240.4431535575831731
 21
163.9198345730279129
 31
0.0
  0
LINE
  5
23AED
  8
0
 10
3240.4431535575831731
 20
163.9198345730279129
 30
0.0
 11
3240.4619855719229236
 21
163.9198262219302933
 31
0.0
  0
LINE
  5
23AEE
  8
0
 10
3240.4619855719229236
 20
163.9198262219302933
 30
0.0
 11
3240.4773622981902008
 21
163.9216800970748125
 31
0.0
  0
LINE
  5
23AEF
  8
0
 10
3240.4740878739189611
 20
163.9192409457519091
 30
0.0
 11
3240.4704225828681956
 21
163.9197928240778879
 31
0.0
  0
LINE
  5
23AF0
  8
0
 10
3240.4704225828681956
 20
163.9197928240778879
 30
0.0
 11
3240.4515334106158662
 21
163.9194445290590068
 31
0.0
  0
LINE
  5
23AF1
  8
0
 10
3240.4515334106158662
 20
163.9194445290590068
 30
0.0
 11
3240.4363061110270792
 21
163.9185230267939914
 31
0.0
  0
LINE
  5
23AF2
  8
0
 10
3240.4363061110270792
 20
163.9185230267939914
 30
0.0
 11
3240.4399658489301146
 21
163.9179364988704037
 31
0.0
  0
LINE
  5
23AF3
  8
0
 10
3240.4399658489301146
 20
163.9179364988704037
 30
0.0
 11
3240.440745311128012
 21
163.9178729023578001
 31
0.0
  0
LINE
  5
23AF4
  8
0
 10
3240.4740878739189611
 20
163.9192409457519091
 30
0.0
 11
3240.4720528900079444
 21
163.9189549408521032
 31
0.0
  0
LINE
  5
23AF5
  8
0
 10
3240.4374268353558364
 20
163.9206356730101106
 30
0.0
 11
3240.434026698388152
 21
163.9228420248905138
 31
0.0
  0
LINE
  5
23AF6
  8
0
 10
3240.434026698388152
 20
163.9228420248905138
 30
0.0
 11
3240.4225633412229399
 21
163.9219841955303139
 31
0.0
  0
LINE
  5
23AF7
  8
0
 10
3240.4225633412229399
 20
163.9219841955303139
 30
0.0
 11
3240.4034905615230855
 21
163.9210668703802867
 31
0.0
  0
LINE
  5
23AF8
  8
0
 10
3240.4034905615230855
 20
163.9210668703802867
 30
0.0
 11
3240.4222005903238824
 21
163.9197207509303098
 31
0.0
  0
LINE
  5
23AF9
  8
0
 10
3240.4222005903238824
 20
163.9197207509303098
 30
0.0
 11
3240.4374268353230946
 21
163.92063567303029
 31
0.0
  0
LINE
  5
23AFA
  8
0
 10
3240.4341428336028912
 20
163.9181367616212981
 30
0.0
 11
3240.4305393154231751
 21
163.9190740823302974
 31
0.0
  0
LINE
  5
23AFB
  8
0
 10
3240.4305393154231751
 20
163.9190740823302974
 30
0.0
 11
3240.4118590602452059
 21
163.9200293602320926
 31
0.0
  0
LINE
  5
23AFC
  8
0
 10
3240.4118590602452059
 20
163.9200293602320926
 30
0.0
 11
3240.396779445222819
 21
163.920029360230302
 31
0.0
  0
LINE
  5
23AFD
  8
0
 10
3240.396779445222819
 20
163.920029360230302
 30
0.0
 11
3240.4003800854238762
 21
163.9190740823302974
 31
0.0
  0
LINE
  5
23AFE
  8
0
 10
3240.4003800854238762
 20
163.9190740823302974
 30
0.0
 11
3240.4190632185141112
 21
163.9181367616347131
 31
0.0
  0
LINE
  5
23AFF
  8
0
 10
3240.4190632185141112
 20
163.9181367616347131
 30
0.0
 11
3240.4341428335242199
 21
163.9181367616303078
 31
0.0
  0
LINE
  5
23B00
  8
0
 10
3240.3946286131899797
 20
163.9197207510542
 30
0.0
 11
3240.3910830745230669
 21
163.9210198438302939
 31
0.0
  0
LINE
  5
23B01
  8
0
 10
3240.3910830745230669
 20
163.9210198438302939
 30
0.0
 11
3240.3610388704228171
 21
163.9228908052303098
 31
0.0
  0
LINE
  5
23B02
  8
0
 10
3240.3610388704228171
 20
163.9228908052303098
 30
0.0
 11
3240.379695628123045
 21
163.92063567303029
 31
0.0
  0
LINE
  5
23B03
  8
0
 10
3240.379695628123045
 20
163.92063567303029
 30
0.0
 11
3240.3946286239802248
 21
163.9197207471005129
 31
0.0
  0
LINE
  5
23B04
  8
0
 10
3240.5073867011628863
 20
164.0115144510643859
 30
0.0
 11
3240.4958589112238769
 21
164.0052394216303071
 31
0.0
  0
LINE
  5
23B05
  8
0
 10
3240.4958589112238769
 20
164.0052394216303071
 30
0.0
 11
3240.4773842155050261
 21
164.0074773226554896
 31
0.0
  0
LINE
  5
23B06
  8
0
 10
3240.4773842155050261
 20
164.0074773226554896
 30
0.0
 11
3240.4754253420242094
 21
164.0186766790303068
 31
0.0
  0
LINE
  5
23B07
  8
0
 10
3240.4754253420242094
 20
164.0186766790303068
 30
0.0
 11
3240.4769051202629271
 21
164.0193666326831874
 31
0.0
  0
LINE
  5
23B08
  8
0
 10
3240.4773842155082093
 20
164.0074773226374134
 30
0.0
 11
3240.479232967597909
 21
164.0188013991293019
 31
0.0
  0
LINE
  5
23B09
  8
0
 10
3240.4958589104498969
 20
164.0052394217238998
 30
0.0
 11
3240.4972465500268299
 21
164.0142354492485879
 31
0.0
  0
LINE
  5
23B0A
  8
0
 10
3240.4708292825612261
 20
164.0208153463030101
 30
0.0
 11
3240.472339489722799
 21
164.0125338536302877
 31
0.0
  0
LINE
  5
23B0B
  8
0
 10
3240.472339489722799
 20
164.0125338536302877
 30
0.0
 11
3240.4559942235227936
 21
164.0046366113303122
 31
0.0
  0
LINE
  5
23B0C
  8
0
 10
3240.4559942235227936
 20
164.0046366113303122
 30
0.0
 11
3240.4377377342070758
 21
164.0082360472478058
 31
0.0
  0
LINE
  5
23B0D
  8
0
 10
3240.4377377342070758
 20
164.0082360472478058
 30
0.0
 11
3240.4358240401238618
 21
164.019717307930307
 31
0.0
  0
LINE
  5
23B0E
  8
0
 10
3240.4358240401238618
 20
164.019717307930307
 30
0.0
 11
3240.4487385790012013
 21
164.0257609202535889
 31
0.0
  0
LINE
  5
23B0F
  8
0
 10
3240.4638468676230332
 20
164.0009569587303133
 30
0.0
 11
3240.4455332678230661
 21
164.0042000445303074
 31
0.0
  0
LINE
  5
23B10
  8
0
 10
3240.4455332678230661
 20
164.0042000445303074
 30
0.0
 11
3240.4293655560231855
 21
163.9974106826302886
 31
0.0
  0
LINE
  5
23B11
  8
0
 10
3240.4293655560231855
 20
163.9974106826302886
 30
0.0
 11
3240.4319710579238745
 21
163.9873530447302983
 31
0.0
  0
LINE
  5
23B12
  8
0
 10
3240.4319710579238745
 20
163.9873530447302983
 30
0.0
 11
3240.4638468675889271
 21
164.0009569587145108
 31
0.0
  0
LINE
  5
23B13
  8
0
 10
3240.4309128809341018
 20
164.0256072506520013
 30
0.0
 11
3240.4327614435910618
 21
164.0137195911165975
 31
0.0
  0
LINE
  5
23B14
  8
0
 10
3240.4327614435910618
 20
164.0137195911165975
 30
0.0
 11
3240.4165849250239262
 21
164.0068752775302983
 31
0.0
  0
LINE
  5
23B15
  8
0
 10
3240.4165849250239262
 20
164.0068752775302983
 30
0.0
 11
3240.3985418819411279
 21
164.0118065475174944
 31
0.0
  0
LINE
  5
23B16
  8
0
 10
3240.3985418819411279
 20
164.0118065475174944
 30
0.0
 11
3240.3966789449218595
 21
164.023604515541308
 31
0.0
  0
LINE
  5
23B17
  8
0
 10
3240.3966789449218595
 20
164.023604515541308
 30
0.0
 11
3240.4128735018389307
 21
164.0305613825202897
 31
0.0
  0
LINE
  5
23B18
  8
0
 10
3240.4128735018389307
 20
164.0305613825202897
 30
0.0
 11
3240.4309128795312063
 21
164.0256072596720003
 31
0.0
  0
LINE
  5
23B19
  8
0
 10
3240.4243405660231474
 20
164.0025903583303091
 30
0.0
 11
3240.426435922723158
 21
163.9922426121302976
 31
0.0
  0
LINE
  5
23B1A
  8
0
 10
3240.426435922723158
 20
163.9922426121302976
 30
0.0
 11
3240.4104407034919859
 21
163.9865295459543972
 31
0.0
  0
LINE
  5
23B1B
  8
0
 10
3240.4104407034919859
 20
163.9865295459543972
 30
0.0
 11
3240.3923387982958957
 21
163.9910935357465007
 31
0.0
  0
LINE
  5
23B1C
  8
0
 10
3240.3923387982958957
 20
163.9910935357465007
 30
0.0
 11
3240.3902336665460098
 21
164.0013802892179058
 31
0.0
  0
LINE
  5
23B1D
  8
0
 10
3240.3902336665460098
 20
164.0013802892179058
 30
0.0
 11
3240.4062402412569099
 21
164.007164209408586
 31
0.0
  0
LINE
  5
23B1E
  8
0
 10
3240.4062402412569099
 20
164.007164209408586
 30
0.0
 11
3240.4243405660090502
 21
164.0025903583504032
 31
0.0
  0
LINE
  5
23B1F
  8
0
 10
3240.4183848013231
 20
163.9822672969303028
 30
0.0
 11
3240.3995342878229167
 21
163.9867554624302954
 31
0.0
  0
LINE
  5
23B20
  8
0
 10
3240.3995342878229167
 20
163.9867554624302954
 30
0.0
 11
3240.3842816806231895
 21
163.9822340439303048
 31
0.0
  0
LINE
  5
23B21
  8
0
 10
3240.3842816806231895
 20
163.9822340439303048
 30
0.0
 11
3240.3866120203229002
 21
163.9733525134303136
 31
0.0
  0
LINE
  5
23B22
  8
0
 10
3240.3866120203229002
 20
163.9733525134303136
 30
0.0
 11
3240.4183848013231
 21
163.9822672969303028
 31
0.0
  0
LINE
  5
23B23
  8
0
 10
3240.3936353516828603
 20
164.0177253727329116
 30
0.0
 11
3240.3919343824481984
 21
164.0292396488544
 31
0.0
  0
LINE
  5
23B24
  8
0
 10
3240.3919343824481984
 20
164.0292396488544
 30
0.0
 11
3240.3740168720150905
 21
164.0362485175398888
 31
0.0
  0
LINE
  5
23B25
  8
0
 10
3240.3740168720150905
 20
164.0362485175398888
 30
0.0
 11
3240.3579825995598185
 21
164.0302917725360885
 31
0.0
  0
LINE
  5
23B26
  8
0
 10
3240.3579825995598185
 20
164.0302917725360885
 30
0.0
 11
3240.3595292871927995
 21
164.0198835220247986
 31
0.0
  0
LINE
  5
23B27
  8
0
 10
3240.3595292871927995
 20
164.0198835220247986
 30
0.0
 11
3240.3776194864281024
 21
164.0118834827609078
 31
0.0
  0
LINE
  5
23B28
  8
0
 10
3240.3776194864281024
 20
164.0118834827609078
 30
0.0
 11
3240.3936353516241979
 21
164.0177253727302968
 31
0.0
  0
LINE
  5
23B29
  8
0
 10
3240.385277973447046
 20
164.0069923545071049
 30
0.0
 11
3240.3873217340228621
 21
163.9963226658302915
 31
0.0
  0
LINE
  5
23B2A
  8
0
 10
3240.3873217340228621
 20
163.9963226658302915
 30
0.0
 11
3240.3714821578241754
 21
163.9915807607303009
 31
0.0
  0
LINE
  5
23B2B
  8
0
 10
3240.3714821578241754
 20
163.9915807607303009
 30
0.0
 11
3240.3535871708231753
 21
163.9974358510303034
 31
0.0
  0
LINE
  5
23B2C
  8
0
 10
3240.3535871708231753
 20
163.9974358510303034
 30
0.0
 11
3240.3504568805851704
 21
164.0077406429846008
 31
0.0
  0
LINE
  5
23B2D
  8
0
 10
3240.3504568805851704
 20
164.0077406429846008
 30
0.0
 11
3240.3673888569228438
 21
164.0128840753303052
 31
0.0
  0
LINE
  5
23B2E
  8
0
 10
3240.3673888569228438
 20
164.0128840753303052
 30
0.0
 11
3240.3852779734238538
 21
164.006992354530297
 31
0.0
  0
LINE
  5
23B2F
  8
0
 10
3240.3792194038228445
 20
163.9871810624302952
 30
0.0
 11
3240.3814156742018895
 21
163.9779199605054885
 31
0.0
  0
LINE
  5
23B30
  8
0
 10
3240.3814156742018895
 20
163.9779199605054885
 30
0.0
 11
3240.365816418167924
 21
163.9742205968344138
 31
0.0
  0
LINE
  5
23B31
  8
0
 10
3240.365816418167924
 20
163.9742205968344138
 30
0.0
 11
3240.3478616388779301
 21
163.9797026033290877
 31
0.0
  0
LINE
  5
23B32
  8
0
 10
3240.3478616388779301
 20
163.9797026033290877
 30
0.0
 11
3240.345585721524003
 21
163.9889237116302922
 31
0.0
  0
LINE
  5
23B33
  8
0
 10
3240.345585721524003
 20
163.9889237116302922
 30
0.0
 11
3240.3612681409408651
 21
163.9926850102125968
 31
0.0
  0
LINE
  5
23B34
  8
0
 10
3240.3612681409408651
 20
163.9926850102125968
 30
0.0
 11
3240.3792194038169328
 21
163.9871810624372017
 31
0.0
  0
LINE
  5
23B35
  8
0
 10
3240.3737475208231444
 20
163.9698772617302893
 30
0.0
 11
3240.3556179494130447
 21
163.9754218612478951
 31
0.0
  0
LINE
  5
23B36
  8
0
 10
3240.3556179494130447
 20
163.9754218612478951
 30
0.0
 11
3240.3400943495230422
 21
163.9726515438302954
 31
0.0
  0
LINE
  5
23B37
  8
0
 10
3240.3400943495230422
 20
163.9726515438302954
 30
0.0
 11
3240.3425841495231907
 21
163.9647649925302915
 31
0.0
  0
LINE
  5
23B38
  8
0
 10
3240.3425841495231907
 20
163.9647649925302915
 30
0.0
 11
3240.3737475208231444
 21
163.9698772617302893
 31
0.0
  0
LINE
  5
23B39
  8
0
 10
3240.3428102851230506
 20
163.9847177783302925
 30
0.0
 11
3240.3405931839229197
 21
163.9943058795302875
 31
0.0
  0
LINE
  5
23B3A
  8
0
 10
3240.3405931839229197
 20
163.9943058795302875
 30
0.0
 11
3240.3228490409442202
 21
164.0011021855522984
 31
0.0
  0
LINE
  5
23B3B
  8
0
 10
3240.3228490409442202
 20
164.0011021855522984
 30
0.0
 11
3240.3073155465231139
 21
163.9982701299302903
 31
0.0
  0
LINE
  5
23B3C
  8
0
 10
3240.3073155465231139
 20
163.9982701299302903
 30
0.0
 11
3240.3095329008310728
 21
163.9886836081774106
 31
0.0
  0
LINE
  5
23B3D
  8
0
 10
3240.3095329008310728
 20
163.9886836081774106
 30
0.0
 11
3240.3272834316721855
 21
163.9819271595210068
 31
0.0
  0
LINE
  5
23B3E
  8
0
 10
3240.3272834316721855
 20
163.9819271595210068
 30
0.0
 11
3240.3428102851230506
 21
163.9847177783302925
 31
0.0
  0
LINE
  5
23B3F
  8
0
 10
3240.3350002101228711
 20
163.9773997500302869
 30
0.0
 11
3240.3374338533749324
 21
163.9691627996245984
 31
0.0
  0
LINE
  5
23B40
  8
0
 10
3240.3374338533749324
 20
163.9691627996245984
 30
0.0
 11
3240.3220604970210843
 21
163.9673299511142943
 31
0.0
  0
LINE
  5
23B41
  8
0
 10
3240.3220604970210843
 20
163.9673299511142943
 30
0.0
 11
3240.3042501538238866
 21
163.9737131912303028
 31
0.0
  0
LINE
  5
23B42
  8
0
 10
3240.3042501538238866
 20
163.9737131912303028
 30
0.0
 11
3240.3018170144241594
 21
163.9819532853302917
 31
0.0
  0
LINE
  5
23B43
  8
0
 10
3240.3018170144241594
 20
163.9819532853302917
 30
0.0
 11
3240.3171937405700191
 21
163.983807160451903
 31
0.0
  0
LINE
  5
23B44
  8
0
 10
3240.3171937405700191
 20
163.983807160451903
 30
0.0
 11
3240.3350002101228711
 21
163.9773997500302869
 31
0.0
  0
LINE
  5
23B45
  8
0
 10
3240.3299766986237955
 20
163.9628936384303017
 30
0.0
 11
3240.3119841286129486
 21
163.9692930818152092
 31
0.0
  0
LINE
  5
23B46
  8
0
 10
3240.3119841286129486
 20
163.9692930818152092
 30
0.0
 11
3240.2967578837237852
 21
163.9683781598303085
 31
0.0
  0
LINE
  5
23B47
  8
0
 10
3240.2967578837237852
 20
163.9683781598303085
 30
0.0
 11
3240.299397883823076
 21
163.9614288075302966
 31
0.0
  0
LINE
  5
23B48
  8
0
 10
3240.299397883823076
 20
163.9614288075302966
 30
0.0
 11
3240.3299766986237955
 21
163.9628936384303017
 31
0.0
  0
LINE
  5
23B49
  8
0
 10
3240.3486403691231317
 20
164.0031033958302942
 30
0.0
 11
3240.3466532821239525
 21
164.0141267090303074
 31
0.0
  0
LINE
  5
23B4A
  8
0
 10
3240.3466532821239525
 20
164.0141267090303074
 30
0.0
 11
3240.3289765853178324
 21
164.0213438585043946
 31
0.0
  0
LINE
  5
23B4B
  8
0
 10
3240.3289765853178324
 20
164.0213438585043946
 30
0.0
 11
3240.3132770653242005
 21
164.0174758573303109
 31
0.0
  0
LINE
  5
23B4C
  8
0
 10
3240.3132770653242005
 20
164.0174758573303109
 30
0.0
 11
3240.3152657324071697
 21
164.0064624032305005
 31
0.0
  0
LINE
  5
23B4D
  8
0
 10
3240.3152657324071697
 20
164.0064624032305005
 30
0.0
 11
3240.3329522053231813
 21
163.9993062542303051
 31
0.0
  0
LINE
  5
23B4E
  8
0
 10
3240.3329522053231813
 20
163.9993062542303051
 30
0.0
 11
3240.3486403691231317
 21
164.0031033958302942
 31
0.0
  0
LINE
  5
23B4F
  8
0
 10
3240.3549541914781003
 20
164.0245073804161962
 30
0.0
 11
3240.3533837159998257
 21
164.0357869588484903
 31
0.0
  0
LINE
  5
23B50
  8
0
 10
3240.3533837159998257
 20
164.0357869588484903
 30
0.0
 11
3240.3356135280018862
 21
164.0447640056594025
 31
0.0
  0
LINE
  5
23B51
  8
0
 10
3240.3356135280018862
 20
164.0447640056594025
 30
0.0
 11
3240.3197348807229901
 21
164.0397783102303038
 31
0.0
  0
LINE
  5
23B52
  8
0
 10
3240.3197348807229901
 20
164.0397783102303038
 30
0.0
 11
3240.3214768686138996
 21
164.0272256600011076
 31
0.0
  0
LINE
  5
23B53
  8
0
 10
3240.3214768686138996
 20
164.0272256600011076
 30
0.0
 11
3240.3390935845009153
 21
164.0196342504549136
 31
0.0
  0
LINE
  5
23B54
  8
0
 10
3240.3390935845009153
 20
164.0196342504549136
 30
0.0
 11
3240.3549541914781003
 21
164.0245073804159972
 31
0.0
  0
LINE
  5
23B55
  8
0
 10
3240.3115119145259087
 20
164.0487795396518891
 30
0.0
 11
3240.3150458955228714
 21
164.0470545443303081
 31
0.0
  0
LINE
  5
23B56
  8
0
 10
3240.3150458955228714
 20
164.0470545443303081
 30
0.0
 11
3240.3166480178738311
 21
164.0345752707303006
 31
0.0
  0
LINE
  5
23B57
  8
0
 10
3240.3166480178738311
 20
164.0345752707303006
 30
0.0
 11
3240.3010097562091687
 21
164.0301434106017098
 31
0.0
  0
LINE
  5
23B58
  8
0
 10
3240.3010097562091687
 20
164.0301434106017098
 30
0.0
 11
3240.2836126507231711
 21
164.0391051160302993
 31
0.0
  0
LINE
  5
23B59
  8
0
 10
3240.2836126507231711
 20
164.0391051160302993
 30
0.0
 11
3240.2817157422191485
 21
164.0523154983449956
 31
0.0
  0
LINE
  5
23B5A
  8
0
 10
3240.2910077373230706
 20
164.0325704566303102
 30
0.0
 11
3240.3084674794231432
 21
164.0239995828302995
 31
0.0
  0
LINE
  5
23B5B
  8
0
 10
3240.3084674794231432
 20
164.0239995828302995
 30
0.0
 11
3240.3105659203320101
 21
164.0126175684225984
 31
0.0
  0
LINE
  5
23B5C
  8
0
 10
3240.3105659203320101
 20
164.0126175684225984
 30
0.0
 11
3240.2948531974229809
 21
164.0097206980302929
 31
0.0
  0
LINE
  5
23B5D
  8
0
 10
3240.2948531974229809
 20
164.0097206980302929
 30
0.0
 11
3240.277379987121094
 21
164.0182075348128024
 31
0.0
  0
LINE
  5
23B5E
  8
0
 10
3240.277379987121094
 20
164.0182075348128024
 30
0.0
 11
3240.2752345165649785
 21
164.0295999813652941
 31
0.0
  0
LINE
  5
23B5F
  8
0
 10
3240.2752345165649785
 20
164.0295999813652941
 30
0.0
 11
3240.2910077372412161
 21
164.0325704566527065
 31
0.0
  0
LINE
  5
23B60
  8
0
 10
3240.30239529876917
 20
164.0041033623448925
 30
0.0
 11
3240.3045525368229391
 21
163.994141735130313
 31
0.0
  0
LINE
  5
23B61
  8
0
 10
3240.3045525368229391
 20
163.994141735130313
 30
0.0
 11
3240.2891730605110752
 21
163.9922707000409048
 31
0.0
  0
LINE
  5
23B62
  8
0
 10
3240.2891730605110752
 20
163.9922707000409048
 30
0.0
 11
3240.2716309862230446
 21
164.0003278487303078
 31
0.0
  0
LINE
  5
23B63
  8
0
 10
3240.2716309862230446
 20
164.0003278487303078
 30
0.0
 11
3240.269477302823816
 21
164.0103116561303125
 31
0.0
  0
LINE
  5
23B64
  8
0
 10
3240.269477302823816
 20
164.0103116561303125
 30
0.0
 11
3240.2848622094138591
 21
164.0122165738357864
 31
0.0
  0
LINE
  5
23B65
  8
0
 10
3240.2848622094138591
 20
164.0122165738357864
 30
0.0
 11
3240.30239529876917
 21
164.0041033623448925
 31
0.0
  0
LINE
  5
23B66
  8
0
 10
3240.2967933282070589
 20
163.9871410969880117
 30
0.0
 11
3240.2991693099229451
 21
163.9785443567303105
 31
0.0
  0
LINE
  5
23B67
  8
0
 10
3240.2991693099229451
 20
163.9785443567303105
 30
0.0
 11
3240.2839420103327939
 21
163.9776228544309049
 31
0.0
  0
LINE
  5
23B68
  8
0
 10
3240.2839420103327939
 20
163.9776228544309049
 30
0.0
 11
3240.2659802842581485
 21
163.9854473960648136
 31
0.0
  0
LINE
  5
23B69
  8
0
 10
3240.2659802842581485
 20
163.9854473960648136
 30
0.0
 11
3240.2639640146230704
 21
163.9939027389303021
 31
0.0
  0
LINE
  5
23B6A
  8
0
 10
3240.2639640146230704
 20
163.9939027389303021
 30
0.0
 11
3240.2791934653228054
 21
163.9948376637302943
 31
0.0
  0
LINE
  5
23B6B
  8
0
 10
3240.2791934653228054
 20
163.9948376637302943
 30
0.0
 11
3240.2967933282070589
 21
163.9871410969880117
 31
0.0
  0
LINE
  5
23B6C
  8
0
 10
3240.2916359117698448
 20
163.9729527005511045
 30
0.0
 11
3240.2942208104241217
 21
163.965659533330296
 31
0.0
  0
LINE
  5
23B6D
  8
0
 10
3240.2942208104241217
 20
163.965659533330296
 30
0.0
 11
3240.2791411954121941
 21
163.9656595332315021
 31
0.0
  0
LINE
  5
23B6E
  8
0
 10
3240.2791411954121941
 20
163.9656595332315021
 30
0.0
 11
3240.2614766817227974
 21
163.9729527005302998
 31
0.0
  0
LINE
  5
23B6F
  8
0
 10
3240.2614766817227974
 20
163.9729527005302998
 30
0.0
 11
3240.2588946609230334
 21
163.9802638250303062
 31
0.0
  0
LINE
  5
23B70
  8
0
 10
3240.2588946609230334
 20
163.9802638250303062
 30
0.0
 11
3240.2726918982448296
 21
163.9802386240006911
 31
0.0
  0
LINE
  5
23B71
  8
0
 10
3240.2726918982448296
 20
163.9802386240006911
 30
0.0
 11
3240.2916359117120919
 21
163.9729527005740977
 31
0.0
  0
LINE
  5
23B72
  8
0
 10
3240.2869692543731617
 20
163.9611180785803128
 30
0.0
 11
3240.2691859065230346
 21
163.9683781598303085
 31
0.0
  0
LINE
  5
23B73
  8
0
 10
3240.2691859065230346
 20
163.9683781598303085
 30
0.0
 11
3240.2542529214238129
 21
163.9692930818303012
 31
0.0
  0
LINE
  5
23B74
  8
0
 10
3240.2542529214238129
 20
163.9692930818303012
 30
0.0
 11
3240.2570383234237852
 21
163.9632509886303069
 31
0.0
  0
LINE
  5
23B75
  8
0
 10
3240.2570383234237852
 20
163.9632509886303069
 30
0.0
 11
3240.2869693087232008
 21
163.9611183942303114
 31
0.0
  0
LINE
  5
23B76
  8
0
 10
3240.2781618291160157
 20
164.0526993588150049
 30
0.0
 11
3240.2789342994237813
 21
164.0464477019303047
 31
0.0
  0
LINE
  5
23B77
  8
0
 10
3240.2789342994237813
 20
164.0464477019303047
 30
0.0
 11
3240.2633776007241977
 21
164.043470858330295
 31
0.0
  0
LINE
  5
23B78
  8
0
 10
3240.2633776007241977
 20
164.043470858330295
 30
0.0
 11
3240.2462093497410933
 21
164.0538605400421943
 31
0.0
  0
LINE
  5
23B79
  8
0
 10
3240.2462093497410933
 20
164.0538605400421943
 30
0.0
 11
3240.2459648931671836
 21
164.0558106457611984
 31
0.0
  0
LINE
  5
23B7A
  8
0
 10
3240.2707284254502156
 20
164.036660020144808
 30
0.0
 11
3240.2534938075200444
 21
164.046635593771498
 31
0.0
  0
LINE
  5
23B7B
  8
0
 10
3240.2534938075200444
 20
164.046635593771498
 30
0.0
 11
3240.2381580274081898
 21
164.0442582101773894
 31
0.0
  0
LINE
  5
23B7C
  8
0
 10
3240.2381580274081898
 20
164.0442582101773894
 30
0.0
 11
3240.2399423005631434
 21
164.0327484050856981
 31
0.0
  0
LINE
  5
23B7D
  8
0
 10
3240.2399423005631434
 20
164.0327484050856981
 30
0.0
 11
3240.2571940204361454
 21
164.0228795407444125
 31
0.0
  0
LINE
  5
23B7E
  8
0
 10
3240.2571940204361454
 20
164.0228795407444125
 30
0.0
 11
3240.2725831320231009
 21
164.0248106965885029
 31
0.0
  0
LINE
  5
23B7F
  8
0
 10
3240.2725831320231009
 20
164.0248106965885029
 30
0.0
 11
3240.2707284235070802
 21
164.0366600212695971
 31
0.0
  0
LINE
  5
23B80
  8
0
 10
3240.2646330501238481
 20
164.0166190727302933
 30
0.0
 11
3240.2665208647040345
 21
164.0072029413713892
 31
0.0
  0
LINE
  5
23B81
  8
0
 10
3240.2665208647040345
 20
164.0072029413713892
 30
0.0
 11
3240.2514936814231987
 21
164.0053034891303128
 31
0.0
  0
LINE
  5
23B82
  8
0
 10
3240.2514936814231987
 20
164.0053034891303128
 30
0.0
 11
3240.2341675171142015
 21
164.0147078438716903
 31
0.0
  0
LINE
  5
23B83
  8
0
 10
3240.2341675171142015
 20
164.0147078438716903
 30
0.0
 11
3240.2320838532241396
 21
164.0251285493303044
 31
0.0
  0
LINE
  5
23B84
  8
0
 10
3240.2320838532241396
 20
164.0251285493303044
 30
0.0
 11
3240.245689189535824
 21
164.0259912810149103
 31
0.0
  0
LINE
  5
23B85
  8
0
 10
3240.245689189535824
 20
164.0259912810149103
 30
0.0
 11
3240.2646330501211196
 21
164.0166190727456126
 31
0.0
  0
LINE
  5
23B86
  8
0
 10
3240.2590138273458251
 20
163.9995491581416047
 30
0.0
 11
3240.2613278319331584
 21
163.990565702216486
 31
0.0
  0
LINE
  5
23B87
  8
0
 10
3240.2613278319331584
 20
163.990565702216486
 30
0.0
 11
3240.2462482169130453
 21
163.990565702216486
 31
0.0
  0
LINE
  5
23B88
  8
0
 10
3240.2462482169130453
 20
163.990565702216486
 30
0.0
 11
3240.2288545972128304
 21
163.9995491582720888
 31
0.0
  0
LINE
  5
23B89
  8
0
 10
3240.2288545972128304
 20
163.9995491582720888
 30
0.0
 11
3240.2265475437320674
 21
164.0085759870956963
 31
0.0
  0
LINE
  5
23B8A
  8
0
 10
3240.2265475437320674
 20
164.0085759870956963
 30
0.0
 11
3240.2416271587649135
 21
164.008575987177295
 31
0.0
  0
LINE
  5
23B8B
  8
0
 10
3240.2416271587649135
 20
164.008575987177295
 30
0.0
 11
3240.2590138273230878
 21
163.9995491582303089
 31
0.0
  0
LINE
  5
23B8C
  8
0
 10
3240.253844238909096
 20
163.985284813471992
 30
0.0
 11
3240.2563700332239023
 21
163.9776228544303081
 31
0.0
  0
LINE
  5
23B8D
  8
0
 10
3240.2563700332239023
 20
163.9776228544303081
 30
0.0
 11
3240.2414381027210766
 21
163.9785443567182028
 31
0.0
  0
LINE
  5
23B8E
  8
0
 10
3240.2414381027210766
 20
163.9785443567182028
 30
0.0
 11
3240.2239825060228213
 21
163.9871410969302872
 31
0.0
  0
LINE
  5
23B8F
  8
0
 10
3240.2239825060228213
 20
163.9871410969302872
 30
0.0
 11
3240.2214622582241645
 21
163.9948376637302943
 31
0.0
  0
LINE
  5
23B90
  8
0
 10
3240.2214622582241645
 20
163.9948376637302943
 30
0.0
 11
3240.2363920374909867
 21
163.9939027389322916
 31
0.0
  0
LINE
  5
23B91
  8
0
 10
3240.2363920374909867
 20
163.9939027389322916
 30
0.0
 11
3240.2538442389231932
 21
163.9852848134302974
 31
0.0
  0
LINE
  5
23B92
  8
0
 10
3240.2491061996529425
 20
163.9737131912023926
 30
0.0
 11
3240.2518369277649981
 21
163.9673299510363904
 31
0.0
  0
LINE
  5
23B93
  8
0
 10
3240.2518369277649981
 20
163.9673299510363904
 30
0.0
 11
3240.2370510541040858
 21
163.9691627995835006
 31
0.0
  0
LINE
  5
23B94
  8
0
 10
3240.2370510541040858
 20
163.9691627995835006
 30
0.0
 11
3240.2195377957241362
 21
163.9773997500302869
 31
0.0
  0
LINE
  5
23B95
  8
0
 10
3240.2195377957241362
 20
163.9773997500302869
 30
0.0
 11
3240.216810941222775
 21
163.98380716053029
 31
0.0
  0
LINE
  5
23B96
  8
0
 10
3240.216810941222775
 20
163.98380716053029
 30
0.0
 11
3240.231593445037106
 21
163.9819532854087925
 31
0.0
  0
LINE
  5
23B97
  8
0
 10
3240.231593445037106
 20
163.9819532854087925
 30
0.0
 11
3240.2491061995688142
 21
163.9737131912401082
 31
0.0
  0
LINE
  5
23B98
  8
0
 10
3240.2448595653231678
 20
163.9646311541303021
 30
0.0
 11
3240.2272191880588252
 21
163.9726515438256058
 31
0.0
  0
LINE
  5
23B99
  8
0
 10
3240.2272191880588252
 20
163.9726515438256058
 30
0.0
 11
3240.2125835578672195
 21
163.9754218612849002
 31
0.0
  0
LINE
  5
23B9A
  8
0
 10
3240.2125835578672195
 20
163.9754218612849002
 30
0.0
 11
3240.2155135620241708
 21
163.9702820373302927
 31
0.0
  0
LINE
  5
23B9B
  8
0
 10
3240.2155135620241708
 20
163.9702820373302927
 30
0.0
 11
3240.2449305275190454
 21
163.9644973157392087
 31
0.0
  0
LINE
  5
23B9C
  8
0
 10
3240.2102896645228611
 20
163.9742205968302926
 30
0.0
 11
3240.2072178899229584
 21
163.9798032099803038
 31
0.0
  0
LINE
  5
23B9D
  8
0
 10
3240.2072178899229584
 20
163.9798032099803038
 30
0.0
 11
3240.1900589680071789
 21
163.988923711688102
 31
0.0
  0
LINE
  5
23B9E
  8
0
 10
3240.1900589680071789
 20
163.988923711688102
 30
0.0
 11
3240.1755821572760397
 21
163.9926850102390006
 31
0.0
  0
LINE
  5
23B9F
  8
0
 10
3240.1755821572760397
 20
163.9926850102390006
 30
0.0
 11
3240.1784538050860647
 21
163.9871810623972124
 31
0.0
  0
LINE
  5
23BA0
  8
0
 10
3240.1784538050860647
 20
163.9871810623972124
 30
0.0
 11
3240.1958058213531331
 21
163.9779380149043959
 31
0.0
  0
LINE
  5
23BA1
  8
0
 10
3240.1958058213531331
 20
163.9779380149043959
 30
0.0
 11
3240.2102896645228611
 21
163.9742205968302926
 31
0.0
  0
LINE
  5
23BA2
  8
0
 10
3240.203662385251846
 20
163.9731295831817022
 30
0.0
 11
3240.1850783857421447
 21
163.9825462359092114
 31
0.0
  0
LINE
  5
23BA3
  8
0
 10
3240.1850783857421447
 20
163.9825462359092114
 30
0.0
 11
3240.1717779366231298
 21
163.9869401061303051
 31
0.0
  0
LINE
  5
23BA4
  8
0
 10
3240.1717779366231298
 20
163.9869401061303051
 30
0.0
 11
3240.1748558494227836
 21
163.9827231828303127
 31
0.0
  0
LINE
  5
23BA5
  8
0
 10
3240.1748558494227836
 20
163.9827231828303127
 30
0.0
 11
3240.2036623853177844
 21
163.9731295831633133
 31
0.0
  0
LINE
  5
23BA6
  8
0
 10
3240.2144082702920969
 20
163.9819271595115993
 30
0.0
 11
3240.1997758936740865
 21
163.9847177783341863
 31
0.0
  0
LINE
  5
23BA7
  8
0
 10
3240.1997758936740865
 20
163.9847177783341863
 30
0.0
 11
3240.1824791774070036
 21
163.9943058794821127
 31
0.0
  0
LINE
  5
23BA8
  8
0
 10
3240.1824791774070036
 20
163.9943058794821127
 30
0.0
 11
3240.1798146493229069
 21
164.0011021855302999
 31
0.0
  0
LINE
  5
23BA9
  8
0
 10
3240.1798146493229069
 20
164.0011021855302999
 30
0.0
 11
3240.1928523087799476
 21
163.9985437659767911
 31
0.0
  0
LINE
  5
23BAA
  8
0
 10
3240.1928523087799476
 20
163.9985437659767911
 30
0.0
 11
3240.2117373544110706
 21
163.9886836081628019
 31
0.0
  0
LINE
  5
23BAB
  8
0
 10
3240.2117373544110706
 20
163.9886836081628019
 30
0.0
 11
3240.2144082702920969
 21
163.9819271595115993
 31
0.0
  0
LINE
  5
23BAC
  8
0
 10
3240.2189494911231122
 20
163.9922707000303035
 30
0.0
 11
3240.2166534159241564
 21
163.999749504430298
 31
0.0
  0
LINE
  5
23BAD
  8
0
 10
3240.2166534159241564
 20
163.999749504430298
 30
0.0
 11
3240.1992537335841007
 21
164.0103116561301988
 31
0.0
  0
LINE
  5
23BAE
  8
0
 10
3240.1992537335841007
 20
164.0103116561301988
 30
0.0
 11
3240.1844794100079525
 21
164.012216573882796
 31
0.0
  0
LINE
  5
23BAF
  8
0
 10
3240.1844794100079525
 20
164.012216573882796
 30
0.0
 11
3240.1869328844231859
 21
164.0041033623303122
 31
0.0
  0
LINE
  5
23BB0
  8
0
 10
3240.1869328844231859
 20
164.0041033623303122
 30
0.0
 11
3240.2041697375229887
 21
163.994141735130313
 31
0.0
  0
LINE
  5
23BB1
  8
0
 10
3240.2041697375229887
 20
163.994141735130313
 30
0.0
 11
3240.21894949111811
 21
163.9922707000480955
 31
0.0
  0
LINE
  5
23BB2
  8
0
 10
3240.223703144681167
 20
164.0061666769516933
 30
0.0
 11
3240.2216751550231493
 21
164.0147078439302959
 31
0.0
  0
LINE
  5
23BB3
  8
0
 10
3240.2216751550231493
 20
164.0147078439302959
 30
0.0
 11
3240.2045118760238438
 21
164.0251285493303044
 31
0.0
  0
LINE
  5
23BB4
  8
0
 10
3240.2045118760238438
 20
164.0251285493303044
 30
0.0
 11
3240.1895870826238024
 21
164.0260945843303091
 31
0.0
  0
LINE
  5
23BB5
  8
0
 10
3240.1895870826238024
 20
164.0260945843303091
 30
0.0
 11
3240.1918222278977737
 21
164.0166190728400863
 31
0.0
  0
LINE
  5
23BB6
  8
0
 10
3240.1918222278977737
 20
164.0166190728400863
 30
0.0
 11
3240.20899362332284
 21
164.0062490109303042
 31
0.0
  0
LINE
  5
23BB7
  8
0
 10
3240.2089936232878244
 20
164.0062490109324926
 30
0.0
 11
3240.223703144681167
 21
164.0061666769518069
 31
0.0
  0
LINE
  5
23BB8
  8
0
 10
3240.2293400710209426
 20
164.021120127939497
 30
0.0
 11
3240.2273206822801512
 21
164.0319418893460863
 31
0.0
  0
LINE
  5
23BB9
  8
0
 10
3240.2273206822801512
 20
164.0319418893460863
 30
0.0
 11
3240.2102354080889199
 21
164.0428493185422951
 31
0.0
  0
LINE
  5
23BBA
  8
0
 10
3240.2102354080889199
 20
164.0428493185422951
 30
0.0
 11
3240.1951557931129173
 21
164.0428493185146124
 31
0.0
  0
LINE
  5
23BBB
  8
0
 10
3240.1951557931129173
 20
164.0428493185146124
 30
0.0
 11
3240.1971614522230993
 21
164.0319418893303123
 31
0.0
  0
LINE
  5
23BBC
  8
0
 10
3240.1971614522230993
 20
164.0319418893303123
 30
0.0
 11
3240.2142604560222026
 21
164.0211201279205113
 31
0.0
  0
LINE
  5
23BBD
  8
0
 10
3240.2142604560222026
 20
164.0211201279205113
 30
0.0
 11
3240.2293400710241258
 21
164.0211201279302884
 31
0.0
  0
LINE
  5
23BBE
  8
0
 10
3240.2352277398231308
 20
164.0398650555302993
 30
0.0
 11
3240.2334514852241227
 21
164.0522038932303133
 31
0.0
  0
LINE
  5
23BBF
  8
0
 10
3240.2334514852241227
 20
164.0522038932303133
 30
0.0
 11
3240.22550877979711
 21
164.0574457417727103
 31
0.0
  0
LINE
  5
23BC0
  8
0
 10
3240.2352277398231308
 20
164.0398650555302993
 30
0.0
 11
3240.219990786858034
 21
164.0388833197260965
 31
0.0
  0
LINE
  5
23BC1
  8
0
 10
3240.219990786858034
 20
164.0388833197260965
 30
0.0
 11
3240.2029728947231888
 21
164.0502111904303035
 31
0.0
  0
LINE
  5
23BC2
  8
0
 10
3240.2029728947231888
 20
164.0502111904303035
 30
0.0
 11
3240.2015991056819075
 21
164.0592872191105016
 31
0.0
  0
LINE
  5
23BC3
  8
0
 10
3240.1981099414938399
 20
164.059490963549905
 30
0.0
 11
3240.1983477860230778
 21
164.0578859925302879
 31
0.0
  0
LINE
  5
23BC4
  8
0
 10
3240.1983477860230778
 20
164.0578859925302879
 30
0.0
 11
3240.1832681710047837
 21
164.0578859925304869
 31
0.0
  0
LINE
  5
23BC5
  8
0
 10
3240.1832681710047837
 20
164.0578859925304869
 30
0.0
 11
3240.1799536697230906
 21
164.0602501516181917
 31
0.0
  0
LINE
  5
23BC6
  8
0
 10
3240.1766297528679388
 20
164.0603345377203084
 30
0.0
 11
3240.1904805326089445
 21
164.0502111905130107
 31
0.0
  0
LINE
  5
23BC7
  8
0
 10
3240.1904805326089445
 20
164.0502111905130107
 30
0.0
 11
3240.1924188098241757
 21
164.0388833197303029
 31
0.0
  0
LINE
  5
23BC8
  8
0
 10
3240.1924188098241757
 20
164.0388833197303029
 30
0.0
 11
3240.1774965326230813
 21
164.0398650555302993
 31
0.0
  0
LINE
  5
23BC9
  8
0
 10
3240.1774965326230813
 20
164.0398650555302993
 30
0.0
 11
3240.1606406630230595
 21
164.0522038932303133
 31
0.0
  0
LINE
  5
23BCA
  8
0
 10
3240.1606406630230595
 20
164.0522038932303133
 30
0.0
 11
3240.159221942781187
 21
164.0605009135009027
 31
0.0
  0
LINE
  5
23BCB
  8
0
 10
3240.1678730730232019
 20
164.0446541867302983
 30
0.0
 11
3240.153111008122778
 21
164.0466355938303025
 31
0.0
  0
LINE
  5
23BCC
  8
0
 10
3240.153111008122778
 20
164.0466355938303025
 30
0.0
 11
3240.1552660111360638
 21
164.0366600202131906
 31
0.0
  0
LINE
  5
23BCD
  8
0
 10
3240.1552660111360638
 20
164.0366600202131906
 30
0.0
 11
3240.1724110414152165
 21
164.0261254494068055
 31
0.0
  0
LINE
  5
23BCE
  8
0
 10
3240.1724110414152165
 20
164.0261254494068055
 30
0.0
 11
3240.1869704510231713
 21
164.0228795407302869
 31
0.0
  0
LINE
  5
23BCF
  8
0
 10
3240.1869704510231713
 20
164.0228795407302869
 30
0.0
 11
3240.1847983463230776
 21
164.0327484051302918
 31
0.0
  0
LINE
  5
23BD0
  8
0
 10
3240.1847983463230776
 20
164.0327484051302918
 30
0.0
 11
3240.1678730730232019
 21
164.0446541867302983
 31
0.0
  0
LINE
  5
23BD1
  8
0
 10
3240.1795844406237848
 20
164.0182075348303101
 30
0.0
 11
3240.1819780359342076
 21
164.0097206979930036
 31
0.0
  0
LINE
  5
23BD2
  8
0
 10
3240.1819780359342076
 20
164.0097206979930036
 30
0.0
 11
3240.1673575470158539
 21
164.0125854923365125
 31
0.0
  0
LINE
  5
23BD3
  8
0
 10
3240.1673575470158539
 20
164.0125854923365125
 30
0.0
 11
3240.15035347291996
 21
164.0239995828137864
 31
0.0
  0
LINE
  5
23BD4
  8
0
 10
3240.15035347291996
 20
164.0239995828137864
 30
0.0
 11
3240.1479733458131705
 21
164.0325704566973002
 31
0.0
  0
LINE
  5
23BD5
  8
0
 10
3240.1479733458131705
 20
164.0325704566973002
 30
0.0
 11
3240.1625836679081658
 21
164.0296422248904094
 31
0.0
  0
LINE
  5
23BD6
  8
0
 10
3240.1625836679081658
 20
164.0296422248904094
 30
0.0
 11
3240.1795844406419747
 21
164.0182075348417072
 31
0.0
  0
LINE
  5
23BD7
  8
0
 10
3240.1748185938067763
 20
164.0064624033740017
 30
0.0
 11
3240.1774254517240479
 21
163.9993062542303051
 31
0.0
  0
LINE
  5
23BD8
  8
0
 10
3240.1774254517240479
 20
163.9993062542303051
 30
0.0
 11
3240.1629543855060547
 21
164.0031033958792932
 31
0.0
  0
LINE
  5
23BD9
  8
0
 10
3240.1629543855060547
 20
164.0031033958792932
 30
0.0
 11
3240.1458876834408329
 21
164.0141267089807968
 31
0.0
  0
LINE
  5
23BDA
  8
0
 10
3240.1458876834408329
 20
164.0141267089807968
 30
0.0
 11
3240.1432906016862034
 21
164.0213438584976018
 31
0.0
  0
LINE
  5
23BDB
  8
0
 10
3240.1432906016862034
 20
164.0213438584976018
 30
0.0
 11
3240.1577503116941443
 21
164.0174758573608074
 31
0.0
  0
LINE
  5
23BDC
  8
0
 10
3240.1577503116941443
 20
164.0174758573608074
 30
0.0
 11
3240.1748185938067763
 21
164.0064624033740017
 31
0.0
  0
LINE
  5
23BDD
  8
0
 10
3240.1704884400660376
 20
163.9974358509813896
 30
0.0
 11
3240.1733038120528363
 21
163.9915807607798115
 31
0.0
  0
LINE
  5
23BDE
  8
0
 10
3240.1733038120528363
 20
163.9915807607798115
 30
0.0
 11
3240.1589841582231202
 21
163.9963226658302915
 31
0.0
  0
LINE
  5
23BDF
  8
0
 10
3240.1589841582231202
 20
163.9963226658302915
 30
0.0
 11
3240.1418607825230538
 21
164.006992354530297
 31
0.0
  0
LINE
  5
23BE0
  8
0
 10
3240.1418607825230538
 20
164.006992354530297
 30
0.0
 11
3240.1390512811231019
 21
164.0128840753303052
 31
0.0
  0
LINE
  5
23BE1
  8
0
 10
3240.1390512811231019
 20
164.0128840753303052
 30
0.0
 11
3240.1533591947791137
 21
164.008068915419301
 31
0.0
  0
LINE
  5
23BE2
  8
0
 10
3240.1533591947791137
 20
164.008068915419301
 30
0.0
 11
3240.1704884392552231
 21
163.9974358526685876
 31
0.0
  0
LINE
  5
23BE3
  8
0
 10
3240.1665884753369937
 20
163.991093535864394
 30
0.0
 11
3240.1696107654879597
 21
163.9865295459827905
 31
0.0
  0
LINE
  5
23BE4
  8
0
 10
3240.1696107654879597
 20
163.9865295459827905
 30
0.0
 11
3240.1554467547930471
 21
163.9922426121686954
 31
0.0
  0
LINE
  5
23BE5
  8
0
 10
3240.1554467547930471
 20
163.9922426121686954
 30
0.0
 11
3240.1382717830201727
 21
164.0025903583120908
 31
0.0
  0
LINE
  5
23BE6
  8
0
 10
3240.1382717830201727
 20
164.0025903583120908
 30
0.0
 11
3240.1352510731799157
 21
164.0071642093963931
 31
0.0
  0
LINE
  5
23BE7
  8
0
 10
3240.1352510731799157
 20
164.0071642093963931
 30
0.0
 11
3240.1489210775280299
 21
164.0015645969251921
 31
0.0
  0
LINE
  5
23BE8
  8
0
 10
3240.1489210775280299
 20
164.0015645969251921
 30
0.0
 11
3240.1665884757289859
 21
163.9910935352727108
 31
0.0
  0
LINE
  5
23BE9
  8
0
 10
3240.1331033948818003
 20
164.0068752774809013
 30
0.0
 11
3240.1301399668109298
 21
164.0118065475514868
 31
0.0
  0
LINE
  5
23BEA
  8
0
 10
3240.1301399668109298
 20
164.0118065475514868
 30
0.0
 11
3240.1131974147879191
 21
164.0236045155201907
 31
0.0
  0
LINE
  5
23BEB
  8
0
 10
3240.1131974147879191
 20
164.0236045155201907
 30
0.0
 11
3240.0992327416870467
 21
164.0305613824914133
 31
0.0
  0
LINE
  5
23BEC
  8
0
 10
3240.0992327416870467
 20
164.0305613824914133
 30
0.0
 11
3240.1021925058230408
 21
164.0256072506302871
 31
0.0
  0
LINE
  5
23BED
  8
0
 10
3240.1021925058230408
 20
164.0256072506302871
 30
0.0
 11
3240.1191206834278091
 21
164.0137195911628112
 31
0.0
  0
LINE
  5
23BEE
  8
0
 10
3240.1191206834278091
 20
164.0137195911628112
 30
0.0
 11
3240.1331033948818003
 21
164.0068752774809013
 31
0.0
  0
LINE
  5
23BEF
  8
0
 10
3240.1298611013030495
 20
164.0046366112908061
 30
0.0
 11
3240.1266842269678818
 21
164.0082360472570997
 31
0.0
  0
LINE
  5
23BF0
  8
0
 10
3240.1266842269678818
 20
164.0082360472570997
 30
0.0
 11
3240.1096909177781527
 21
164.0197173079627078
 31
0.0
  0
LINE
  5
23BF1
  8
0
 10
3240.1096909177781527
 20
164.0197173079627078
 30
0.0
 11
3240.0958938492231027
 21
164.0277199708303044
 31
0.0
  0
LINE
  5
23BF2
  8
0
 10
3240.0958938492231027
 20
164.0277199708303044
 30
0.0
 11
3240.0990732504578773
 21
164.0241363019138987
 31
0.0
  0
LINE
  5
23BF3
  8
0
 10
3240.0990732504578773
 20
164.0241363019138987
 30
0.0
 11
3240.1160471374519148
 21
164.01253385359459
 31
0.0
  0
LINE
  5
23BF4
  8
0
 10
3240.1160471374519148
 20
164.01253385359459
 30
0.0
 11
3240.1298611013230584
 21
164.0046366113303122
 31
0.0
  0
LINE
  5
23BF5
  8
0
 10
3240.1318925076689084
 20
164.0042000445494068
 30
0.0
 11
3240.1458840258519558
 21
163.9974106825739
 31
0.0
  0
LINE
  5
23BF6
  8
0
 10
3240.1458840258519558
 20
163.9974106825739
 30
0.0
 11
3240.1632761715018205
 21
163.9872647913259982
 31
0.0
  0
LINE
  5
23BF7
  8
0
 10
3240.1632761715018205
 20
163.9872647913259982
 30
0.0
 11
3240.1359716211231898
 21
164.0004442242303071
 31
0.0
  0
LINE
  5
23BF8
  8
0
 10
3240.1359716211231898
 20
164.0004442242303071
 30
0.0
 11
3240.1351264924228417
 21
164.0009569587303133
 31
0.0
  0
LINE
  5
23BF9
  8
0
 10
3240.1351264924228417
 20
164.0009569587303133
 30
0.0
 11
3240.1318925076229789
 21
164.0042000445303074
 31
0.0
  0
LINE
  5
23BFA
  8
0
 10
3240.140586051201808
 20
164.0601662498663131
 30
0.0
 11
3240.148413803342919
 21
164.0538605398355116
 31
0.0
  0
LINE
  5
23BFB
  8
0
 10
3240.148413803342919
 20
164.0538605398355116
 30
0.0
 11
3240.1505024392690757
 21
164.0434708583134977
 31
0.0
  0
LINE
  5
23BFC
  8
0
 10
3240.1505024392690757
 20
164.0434708583134977
 30
0.0
 11
3240.1358999079620844
 21
164.046447701976092
 31
0.0
  0
LINE
  5
23BFD
  8
0
 10
3240.1358999079620844
 20
164.046447701976092
 30
0.0
 11
3240.1200485640561055
 21
164.0591822513466127
 31
0.0
  0
LINE
  5
23BFE
  8
0
 10
3240.1264162353440952
 20
164.0521090575286962
 30
0.0
 11
3240.1431655120991309
 21
164.0391051160520135
 31
0.0
  0
LINE
  5
23BFF
  8
0
 10
3240.1431655120991309
 20
164.0391051160520135
 30
0.0
 11
3240.145483002623223
 21
164.030143410630302
 31
0.0
  0
LINE
  5
23C00
  8
0
 10
3240.145483002623223
 20
164.030143410630302
 30
0.0
 11
3240.1310320995480652
 21
164.0340663641250956
 31
0.0
  0
LINE
  5
23C01
  8
0
 10
3240.1310320995480652
 20
164.0340663641250956
 30
0.0
 11
3240.1142802968488468
 21
164.0470545443207868
 31
0.0
  0
LINE
  5
23C02
  8
0
 10
3240.1142802968488468
 20
164.0470545443207868
 30
0.0
 11
3240.1119822313298755
 21
164.0561374549031086
 31
0.0
  0
LINE
  5
23C03
  8
0
 10
3240.1119822313298755
 20
164.0561374549031086
 30
0.0
 11
3240.1264162353440952
 21
164.0521090575286962
 31
0.0
  0
LINE
  5
23C04
  8
0
 10
3240.1409152387232098
 20
164.0196342504303004
 30
0.0
 11
3240.138378137889049
 21
164.0272256599126877
 31
0.0
  0
LINE
  5
23C05
  8
0
 10
3240.138378137889049
 20
164.0272256599126877
 30
0.0
 11
3240.1215565349880308
 21
164.039778310267792
 31
0.0
  0
LINE
  5
23C06
  8
0
 10
3240.1215565349880308
 20
164.039778310267792
 30
0.0
 11
3240.1072759521330227
 21
164.0447640057018077
 31
0.0
  0
LINE
  5
23C07
  8
0
 10
3240.1072759521330227
 20
164.0447640057018077
 30
0.0
 11
3240.1097986754971316
 21
164.0370828852852014
 31
0.0
  0
LINE
  5
23C08
  8
0
 10
3240.1097986754971316
 20
164.0370828852852014
 30
0.0
 11
3240.1266166157301996
 21
164.0245073804696858
 31
0.0
  0
LINE
  5
23C09
  8
0
 10
3240.1266166157301996
 20
164.0245073804696858
 30
0.0
 11
3240.1409152387168433
 21
164.0196342504478935
 31
0.0
  0
LINE
  5
23C0A
  8
0
 10
3240.1340382746238902
 20
164.0181385240302916
 30
0.0
 11
3240.136789548500019
 21
164.0118834827856062
 31
0.0
  0
LINE
  5
23C0B
  8
0
 10
3240.136789548500019
 20
164.0118834827856062
 30
0.0
 11
3240.1226461837109127
 21
164.0177253726577078
 31
0.0
  0
LINE
  5
23C0C
  8
0
 10
3240.1226461837109127
 20
164.0177253726577078
 30
0.0
 11
3240.1057697729779647
 21
164.0299360408216955
 31
0.0
  0
LINE
  5
23C0D
  8
0
 10
3240.1057697729779647
 20
164.0299360408216955
 30
0.0
 11
3240.103027704023134
 21
164.0362485175303107
 31
0.0
  0
LINE
  5
23C0E
  8
0
 10
3240.103027704023134
 20
164.0362485175303107
 30
0.0
 11
3240.1171526616099072
 21
164.0302917725470024
 31
0.0
  0
LINE
  5
23C0F
  8
0
 10
3240.1171526616099072
 20
164.0302917725470024
 30
0.0
 11
3240.1340382746129762
 21
164.0181385240526026
 31
0.0
  0
LINE
  5
23C10
  8
0
 10
3240.1084031650748329
 20
164.0582934170938927
 30
0.0
 11
3240.1095026575681004
 21
164.0537776064564923
 31
0.0
  0
LINE
  5
23C11
  8
0
 10
3240.1095026575681004
 20
164.0537776064564923
 30
0.0
 11
3240.0992580066908886
 21
164.0573373505216068
 31
0.0
  0
LINE
  5
23C12
  8
0
 10
3240.0957054670748221
 20
164.0569031470485868
 30
0.0
 11
3240.1024553634238146
 21
164.0512190773303018
 31
0.0
  0
LINE
  5
23C13
  8
0
 10
3240.1024553634238146
 20
164.0512190773303018
 30
0.0
 11
3240.1049150433232171
 21
164.0431445862303121
 31
0.0
  0
LINE
  5
23C14
  8
0
 10
3240.1049150433232171
 20
164.0431445862303121
 30
0.0
 11
3240.0908043984231881
 21
164.0491906379303089
 31
0.0
  0
LINE
  5
23C15
  8
0
 10
3240.0908043984231881
 20
164.0491906379303089
 30
0.0
 11
3240.0837239144370869
 21
164.0551773701905063
 31
0.0
  0
LINE
  5
23C16
  8
0
 10
3240.082523148303153
 20
164.0549820430649106
 30
0.0
 11
3240.0981028287801564
 21
164.0420528765376957
 31
0.0
  0
LINE
  5
23C17
  8
0
 10
3240.0981028287801564
 20
164.0420528765376957
 30
0.0
 11
3240.1007840602228498
 21
164.0353607936303035
 31
0.0
  0
LINE
  5
23C18
  8
0
 10
3240.1007840602228498
 20
164.0353607936303035
 30
0.0
 11
3240.086833699824183
 21
164.0424069665307911
 31
0.0
  0
LINE
  5
23C19
  8
0
 10
3240.086833699824183
 20
164.0424069665307911
 30
0.0
 11
3240.0736733140379329
 21
164.0533463007807882
 31
0.0
  0
LINE
  5
23C1A
  8
0
 10
3240.0713279057749787
 20
164.0527959626996051
 30
0.0
 11
3240.0775298831081273
 21
164.0491905629837106
 31
0.0
  0
LINE
  5
23C1B
  8
0
 10
3240.0775298831081273
 20
164.0491905629837106
 30
0.0
 11
3240.0942066827019516
 21
164.0357343881701979
 31
0.0
  0
LINE
  5
23C1C
  8
0
 10
3240.0942066827019516
 20
164.0357343881701979
 30
0.0
 11
3240.0971069144388821
 21
164.0304087941389923
 31
0.0
  0
LINE
  5
23C1D
  8
0
 10
3240.0971069144388821
 20
164.0304087941389923
 30
0.0
 11
3240.0833237044048474
 21
164.0384979297128893
 31
0.0
  0
LINE
  5
23C1E
  8
0
 10
3240.0833237044048474
 20
164.0384979297128893
 30
0.0
 11
3240.0671498936658281
 21
164.0516756817065982
 31
0.0
  0
LINE
  5
23C1F
  8
0
 10
3240.0654964693699185
 20
164.0511807104321917
 30
0.0
 11
3240.0740405629521774
 21
164.0454105331212986
 31
0.0
  0
LINE
  5
23C20
  8
0
 10
3240.0740405629521774
 20
164.0454105331212986
 30
0.0
 11
3240.0907680432378584
 21
164.0322705889252859
 31
0.0
  0
LINE
  5
23C21
  8
0
 10
3240.0907680432378584
 20
164.0322705889252859
 30
0.0
 11
3240.0938883684998473
 21
164.0283183051458877
 31
0.0
  0
LINE
  5
23C22
  8
0
 10
3240.0938883684998473
 20
164.0283183051458877
 30
0.0
 11
3240.0802822157361334
 21
164.037512219525297
 31
0.0
  0
LINE
  5
23C23
  8
0
 10
3240.0802822157361334
 20
164.037512219525297
 30
0.0
 11
3240.0638017777391724
 21
164.0506423317254985
 31
0.0
  0
ARC
  5
23C24
  8
0
 10
3240.3510144863321329
 20
165.0621749363058939
 30
0.0
 40
1.077086371549921
 50
248.3941348721407962
 51
251.8408671374749019
  0
ARC
  5
23C25
  8
0
 10
3240.089758100058134
 20
164.4025139242999103
 30
0.0
 40
0.3675741798789228
 50
239.489908827341992
 51
248.3941348721407962
  0
ARC
  5
23C26
  8
0
 10
3239.9671508732931215
 20
164.1896737466298077
 30
0.0
 40
0.1219815524719024
 50
230.3347177825339998
 51
238.3503899844176885
  0
LINE
  5
23C27
  8
0
 10
3240.5255582191230133
 20
163.9382826972303064
 30
0.0
 11
3240.5224505929650149
 21
163.9423142191398028
 31
0.0
  0
LINE
  5
23C28
  8
0
 10
3240.5224505929650149
 20
163.9423142191398028
 30
0.0
 11
3240.4906341100231657
 21
163.9331267501302989
 31
0.0
  0
LINE
  5
23C29
  8
0
 10
3240.4906341100231657
 20
163.9331267501302989
 30
0.0
 11
3240.509724387328788
 21
163.9335766351686914
 31
0.0
  0
LINE
  5
23C2A
  8
0
 10
3240.509724387328788
 20
163.9335766351686914
 30
0.0
 11
3240.5255582191230133
 21
163.9382826972303064
 31
0.0
  0
LINE
  5
23C2B
  8
0
 10
3240.0881064646341656
 20
164.0503485958815872
 30
0.0
 11
3240.086833699824183
 21
164.0424069665307911
 31
0.0
  0
LINE
  5
23C2C
  8
0
 10
3240.0841776992010637
 20
164.0438265736300139
 30
0.0
 11
3240.0833237044048474
 21
164.0384979297128893
 31
0.0
  0
LINE
  5
23C2D
  8
0
 10
3240.0807085816991275
 20
164.0401726017215083
 30
0.0
 11
3240.0802822157238552
 21
164.0375122195331983
 31
0.0
  0
LINE
  5
23C2E
  8
0
 10
3240.091960965547969
 20
164.0564072320138962
 30
0.0
 11
3240.0908043984231881
 21
164.0491906379303089
 31
0.0
  0
LINE
  5
23C2F
  8
0
 10
3240.115575258510944
 20
164.0551346741607119
 30
0.0
 11
3240.1142802968329306
 21
164.0470545443872936
 31
0.0
  0
LINE
  5
23C30
  8
0
 10
3240.1330929428308991
 20
164.0469253403632024
 30
0.0
 11
3240.1310320996199152
 21
164.034066364105712
 31
0.0
  0
LINE
  5
23C31
  8
0
 10
3240.1380848388689628
 20
164.0600809444867139
 30
0.0
 11
3240.1358999079338901
 21
164.0464477019984884
 31
0.0
  0
LINE
  5
23C32
  8
0
 10
3240.1746199373510535
 20
164.039908225365906
 30
0.0
 11
3240.1724110414152165
 21
164.0261254494068055
 31
0.0
  0
LINE
  5
23C33
  8
0
 10
3240.1803422124057761
 20
164.0576211513541978
 30
0.0
 11
3240.1774965326230813
 21
164.0398650555302993
 31
0.0
  0
LINE
  5
23C34
  8
0
 10
3240.1567856988231142
 20
164.0461423662030995
 30
0.0
 11
3240.1552660111278783
 21
164.0366600202561926
 31
0.0
  0
LINE
  5
23C35
  8
0
 10
3240.1516102634559502
 20
164.0318415379333885
 30
0.0
 11
3240.15035347291996
 21
164.0239995828137864
 31
0.0
  0
LINE
  5
23C36
  8
0
 10
3240.16936062825107
 20
164.0250840531996914
 30
0.0
 11
3240.1673575470240394
 21
164.0125854923350062
 31
0.0
  0
LINE
  5
23C37
  8
0
 10
3240.1645541831308037
 20
164.0130856015335894
 30
0.0
 11
3240.1629543854378426
 21
164.0031033959230058
 31
0.0
  0
LINE
  5
23C38
  8
0
 10
3240.146890027786867
 20
164.0203810048689945
 30
0.0
 11
3240.1458876834240073
 21
164.0141267090303074
 31
0.0
  0
LINE
  5
23C39
  8
0
 10
3240.1601873678300763
 20
164.0038302934165131
 30
0.0
 11
3240.1589841582231202
 21
163.9963226658302915
 31
0.0
  0
LINE
  5
23C3A
  8
0
 10
3240.1426129208621205
 20
164.0116854474032095
 30
0.0
 11
3240.1418607825230538
 21
164.006992354530297
 31
0.0
  0
LINE
  5
23C3B
  8
0
 10
3240.1387735631979012
 20
164.0057212999039109
 30
0.0
 11
3240.1382717830201727
 21
164.0025903583120908
 31
0.0
  0
LINE
  5
23C3C
  8
0
 10
3240.1562450701139824
 20
163.9972238345195876
 30
0.0
 11
3240.1554467547348395
 21
163.992242612203313
 31
0.0
  0
LINE
  5
23C3D
  8
0
 10
3240.136235778622904
 20
164.0020924792173957
 30
0.0
 11
3240.1359716211231898
 21
164.0004442242303071
 31
0.0
  0
LINE
  5
23C3E
  8
0
 10
3240.1791858402289108
 20
163.9917487178663009
 30
0.0
 11
3240.1784538051151685
 21
163.9871810623812109
 31
0.0
  0
LINE
  5
23C3F
  8
0
 10
3240.1969771154867885
 20
163.98524650071829
 30
0.0
 11
3240.1958058213222102
 21
163.9779380149211931
 31
0.0
  0
LINE
  5
23C40
  8
0
 10
3240.2012860107579399
 20
163.9941404071454087
 30
0.0
 11
3240.1997758936281571
 21
163.98471777835951
 31
0.0
  0
LINE
  5
23C41
  8
0
 10
3240.1834539342198696
 20
164.0003880375905965
 30
0.0
 11
3240.182479177415189
 21
163.9943058794779063
 31
0.0
  0
LINE
  5
23C42
  8
0
 10
3240.2060955930210184
 20
164.0061584333371059
 30
0.0
 11
3240.2041697375229887
 21
163.994141735130313
 31
0.0
  0
LINE
  5
23C43
  8
0
 10
3240.1881571522708327
 20
164.0117423865883097
 30
0.0
 11
3240.1869328844231859
 21
164.0041033623303122
 31
0.0
  0
LINE
  5
23C44
  8
0
 10
3240.21135361573306
 20
164.0209745788721989
 30
0.0
 11
3240.20899362332284
 21
164.0062490109303042
 31
0.0
  0
LINE
  5
23C45
  8
0
 10
3240.1933022809348586
 20
164.0258541112125101
 30
0.0
 11
3240.191822227936882
 21
164.0166190728162121
 31
0.0
  0
LINE
  5
23C46
  8
0
 10
3240.2170460530091987
 20
164.0385013270256138
 30
0.0
 11
3240.2142604560222026
 21
164.0211201279205113
 31
0.0
  0
LINE
  5
23C47
  8
0
 10
3240.1989095308549622
 20
164.0428493185214904
 30
0.0
 11
3240.1971614522230993
 21
164.0319418893303123
 31
0.0
  0
LINE
  5
23C48
  8
0
 10
3240.2229949685238353
 20
164.0576284139303027
 30
0.0
 11
3240.2199907869230628
 21
164.0388833197303029
 31
0.0
  0
LINE
  5
23C49
  8
0
 10
3240.2043990946599479
 20
164.0591102034298103
 30
0.0
 11
3240.2029728947231888
 21
164.0502111904303035
 31
0.0
  0
LINE
  5
23C4A
  8
0
 10
3240.1108307884301212
 20
164.0435229267295085
 30
0.0
 11
3240.1097986754971316
 21
164.0370828852852014
 31
0.0
  0
LINE
  5
23C4B
  8
0
 10
3240.1282620735159981
 20
164.0347744898186875
 30
0.0
 11
3240.1266166157301996
 21
164.0245073804696858
 31
0.0
  0
LINE
  5
23C4C
  8
0
 10
3240.4590208096060451
 20
164.0235215018751092
 30
0.0
 11
3240.4559942235227936
 21
164.0046366113303122
 31
0.0
  0
LINE
  5
23C4D
  8
0
 10
3240.4398821311301617
 20
164.0216163713849085
 30
0.0
 11
3240.437737734224811
 21
164.0082360472439973
 31
0.0
  0
LINE
  5
23C4E
  8
0
 10
3240.4343843646611276
 20
163.9995182479163986
 30
0.0
 11
3240.4324687499151878
 21
163.9875654490307113
 31
0.0
  0
LINE
  5
23C4F
  8
0
 10
3240.4200644789120815
 20
164.0285865370223917
 30
0.0
 11
3240.4165849250239262
 21
164.0068752775302983
 31
0.0
  0
LINE
  5
23C50
  8
0
 10
3240.400710222933867
 20
164.0253362742446939
 30
0.0
 11
3240.3985418819220286
 21
164.0118065475226956
 31
0.0
  0
LINE
  5
23C51
  8
0
 10
3240.413455512334167
 20
164.0053409506714956
 30
0.0
 11
3240.4104407034301403
 21
163.9865295459698871
 31
0.0
  0
LINE
  5
23C52
  8
0
 10
3240.394218150504912
 20
164.0028200686608955
 30
0.0
 11
3240.3923387982481472
 21
163.9910935359831967
 31
0.0
  0
LINE
  5
23C53
  8
0
 10
3240.3810814578728241
 20
164.0334850334731982
 30
0.0
 11
3240.3776194864281024
 21
164.0118834827609078
 31
0.0
  0
LINE
  5
23C54
  8
0
 10
3240.36197397820888
 20
164.0317745728870875
 30
0.0
 11
3240.3600325885299753
 21
164.0196609467836879
 31
0.0
  0
LINE
  5
23C55
  8
0
 10
3240.3425587093188369
 20
164.041255476779412
 30
0.0
 11
3240.3390935845291096
 21
164.0196342504634117
 31
0.0
  0
LINE
  5
23C56
  8
0
 10
3240.3236875199559108
 20
164.0410193892095094
 30
0.0
 11
3240.321476868632999
 21
164.0272256599924958
 31
0.0
  0
LINE
  5
23C57
  8
0
 10
3240.3041450653217908
 20
164.0497066962981876
 30
0.0
 11
3240.3010097563242198
 21
164.0301434106343095
 31
0.0
  0
LINE
  5
23C58
  8
0
 10
3240.2856600229338255
 20
164.0518800374389059
 30
0.0
 11
3240.2836126507231711
 21
164.0391051160302993
 31
0.0
  0
LINE
  5
23C59
  8
0
 10
3240.2650720686310706
 20
164.0540437746608973
 30
0.0
 11
3240.2633776007241977
 21
164.043470858330295
 31
0.0
  0
LINE
  5
23C5A
  8
0
 10
3240.2603639847770864
 20
164.042659064709909
 30
0.0
 11
3240.2571940203351915
 21
164.0228795408021938
 31
0.0
  0
LINE
  5
23C5B
  8
0
 10
3240.2418793743768219
 20
164.0448351008973873
 30
0.0
 11
3240.2399423006118013
 21
164.0327484050577027
 31
0.0
  0
LINE
  5
23C5C
  8
0
 10
3240.2979676550799013
 20
164.0291538782861949
 30
0.0
 11
3240.2948531974229809
 21
164.0097206980302929
 31
0.0
  0
LINE
  5
23C5D
  8
0
 10
3240.2793293872050526
 20
164.030371143595687
 30
0.0
 11
3240.277379987121094
 21
164.0182075348128024
 31
0.0
  0
LINE
  5
23C5E
  8
0
 10
3240.336022987078195
 20
164.0184669106608055
 30
0.0
 11
3240.3329522053231813
 21
163.9993062542303051
 31
0.0
  0
LINE
  5
23C5F
  8
0
 10
3240.3171851147890266
 20
164.0184387109669899
 30
0.0
 11
3240.3152657324071697
 21
164.0064624032305005
 31
0.0
  0
LINE
  5
23C60
  8
0
 10
3240.374519934789987
 20
164.0105354786404916
 30
0.0
 11
3240.3714821578241754
 21
163.9915807607303009
 31
0.0
  0
LINE
  5
23C61
  8
0
 10
3240.3554833764092109
 20
164.0092675433706972
 30
0.0
 11
3240.3535871708231753
 21
163.9974358510303034
 31
0.0
  0
LINE
  5
23C62
  8
0
 10
3240.3684239919830361
 20
163.9904909901763972
 30
0.0
 11
3240.3658164181260872
 21
163.9742205968472035
 31
0.0
  0
LINE
  5
23C63
  8
0
 10
3240.349489514167999
 20
163.9898600040064878
 30
0.0
 11
3240.3478616388451883
 21
163.9797026034638066
 31
0.0
  0
LINE
  5
23C64
  8
0
 10
3240.3299223284238906
 20
163.9983929971537862
 30
0.0
 11
3240.3272834317240267
 21
163.9819271595303007
 31
0.0
  0
LINE
  5
23C65
  8
0
 10
3240.3111822675609801
 20
163.9989751077515905
 30
0.0
 11
3240.3095329008310728
 21
163.9886836081774106
 31
0.0
  0
LINE
  5
23C66
  8
0
 10
3240.3242918731648388
 20
163.9812529961563996
 30
0.0
 11
3240.3220604970210843
 21
163.9673299511142943
 31
0.0
  0
LINE
  5
23C67
  8
0
 10
3240.3056447113999639
 20
163.9824147666710132
 30
0.0
 11
3240.3042501538238866
 21
163.9737131912303028
 31
0.0
  0
LINE
  5
23C68
  8
0
 10
3240.3449132118380476
 20
163.973511510480904
 30
0.0
 11
3240.3435364895481143
 21
163.964921221409611
 31
0.0
  0
LINE
  5
23C69
  8
0
 10
3240.3014844405652184
 20
163.9686621714693047
 30
0.0
 11
3240.3003323601092234
 21
163.9614735721735883
 31
0.0
  0
LINE
  5
23C6A
  8
0
 10
3240.2862092390441831
 20
163.9917696074026878
 30
0.0
 11
3240.2839420103241537
 21
163.9776228544303081
 31
0.0
  0
LINE
  5
23C6B
  8
0
 10
3240.2677550507441993
 20
163.9941354678551022
 30
0.0
 11
3240.2663377040230444
 21
163.9852916957817115
 31
0.0
  0
LINE
  5
23C6C
  8
0
 10
3240.2809676111892259
 20
163.9770557604057046
 30
0.0
 11
3240.2791411954071918
 21
163.9656595332315021
 31
0.0
  0
LINE
  5
23C6D
  8
0
 10
3240.2626473001828344
 20
163.9802569707325119
 30
0.0
 11
3240.2614766817227974
 21
163.9729527005302998
 31
0.0
  0
LINE
  5
23C6E
  8
0
 10
3240.2588884441188384
 20
163.9690090701830911
 30
0.0
 11
3240.2579551561780136
 21
163.9631856639381908
 31
0.0
  0
LINE
  5
23C6F
  8
0
 10
3240.2918513653598893
 20
164.0089824318552871
 30
0.0
 11
3240.2891730604310396
 21
163.9922707000773983
 31
0.0
  0
LINE
  5
23C70
  8
0
 10
3240.2733070361719001
 20
164.0107858434008108
 30
0.0
 11
3240.2716309862230446
 21
164.0003278487303078
 31
0.0
  0
LINE
  5
23C71
  8
0
 10
3240.2541392167031518
 20
164.0218107490618991
 30
0.0
 11
3240.2514936814231987
 21
164.0053034891303128
 31
0.0
  0
LINE
  5
23C72
  8
0
 10
3240.2358761303648862
 20
164.0253690224485013
 30
0.0
 11
3240.2341675171142015
 21
164.0147078438716903
 31
0.0
  0
LINE
  5
23C73
  8
0
 10
3240.2303012814991234
 20
164.0085759871159894
 30
0.0
 11
3240.2288545972292013
 21
163.9995491582637896
 31
0.0
  0
LINE
  5
23C74
  8
0
 10
3240.2485579474491715
 20
164.0049776529872929
 30
0.0
 11
3240.2462482169221403
 21
163.990565702216486
 31
0.0
  0
LINE
  5
23C75
  8
0
 10
3240.2433489494160312
 20
163.9904674044888964
 30
0.0
 11
3240.2414381027210766
 21
163.9785443567182028
 31
0.0
  0
LINE
  5
23C76
  8
0
 10
3240.2251786977099073
 20
163.9946049348081942
 30
0.0
 11
3240.2239825060228213
 21
163.9871410969302872
 31
0.0
  0
LINE
  5
23C77
  8
0
 10
3240.2204907197360626
 20
163.9833456791789104
 30
0.0
 11
3240.2195377957241362
 21
163.9773997500302869
 31
0.0
  0
LINE
  5
23C78
  8
0
 10
3240.2385744949851869
 20
163.9786685646149067
 30
0.0
 11
3240.2370510540217765
 21
163.9691627996222962
 31
0.0
  0
LINE
  5
23C79
  8
0
 10
3240.217126775090037
 20
163.9745618946261061
 30
0.0
 11
3240.2164125325289206
 21
163.9701052585903085
 31
0.0
  0
LINE
  5
23C7A
  8
0
 10
3240.4926650294960382
 20
164.0033028291394999
 30
0.0
 11
3240.4918347939101295
 21
163.9981224354928884
 31
0.0
  0
LINE
  5
23C7B
  8
0
 10
3240.513081086136026
 20
164.0000665081890077
 30
0.0
 11
3240.5112173067232106
 21
163.9884371445303088
 31
0.0
  0
LINE
  5
23C7C
  8
0
 10
3240.5325888521479101
 20
164.0042746223834058
 30
0.0
 11
3240.5299621099229626
 21
163.9878846244303077
 31
0.0
  0
LINE
  5
23C7D
  8
0
 10
3240.526779379591062
 20
163.986017613191791
 30
0.0
 11
3240.5244021184148551
 21
163.9711842934871981
 31
0.0
  0
LINE
  5
23C7E
  8
0
 10
3240.56751554630182
 20
163.9920581629594096
 30
0.0
 11
3240.5649621709299026
 21
163.9761259494744081
 31
0.0
  0
LINE
  5
23C7F
  8
0
 10
3240.5475337025491172
 20
163.9848919611470137
 30
0.0
 11
3240.5459431576268798
 21
163.974967489953201
 31
0.0
  0
LINE
  5
23C80
  8
0
 10
3240.5828849250560779
 20
163.9753244170437085
 30
0.0
 11
3240.5815617683128949
 21
163.9670683589691009
 31
0.0
  0
LINE
  5
23C81
  8
0
 10
3240.6025414072169042
 20
163.9804604709154887
 30
0.0
 11
3240.6008680487229867
 21
163.9700192701301944
 31
0.0
  0
LINE
  5
23C82
  8
0
 10
3240.5976994884681517
 20
163.9682406754351121
 30
0.0
 11
3240.5959925977458624
 21
163.957590244668495
 31
0.0
  0
LINE
  5
23C83
  8
0
 10
3240.5777012670428121
 20
163.9609722826974121
 30
0.0
 11
3240.5766411378199336
 21
163.9543574290088088
 31
0.0
  0
LINE
  5
23C84
  8
0
 10
3240.5928655141588024
 20
163.9560704511440861
 30
0.0
 11
3240.5915733534279752
 21
163.9480077975568975
 31
0.0
  0
LINE
  5
23C85
  8
0
 10
3240.5729758134070835
 20
163.9494791908992966
 30
0.0
 11
3240.5721711365281408
 21
163.944458274760791
 31
0.0
  0
LINE
  5
23C86
  8
0
 10
3240.5884859088969279
 20
163.9467353380427141
 30
0.0
 11
3240.5876028589232192
 21
163.9412254000303051
 31
0.0
  0
LINE
  5
23C87
  8
0
 10
3240.568696234710842
 20
163.9407682102946922
 30
0.0
 11
3240.5681437030298184
 21
163.9373205966678881
 31
0.0
  0
LINE
  5
23C88
  8
0
 10
3240.5648575355849061
 20
163.9348081719699053
 30
0.0
 11
3240.5645578250228027
 21
163.932938078030304
 31
0.0
  0
LINE
  5
23C89
  8
0
 10
3240.5845539075639863
 20
163.9401931248970072
 30
0.0
 11
3240.5840809911169345
 21
163.937242283189704
 31
0.0
  0
LINE
  5
23C8A
  8
0
 10
3240.6340782773881983
 20
163.9650848042140865
 30
0.0
 11
3240.6332832648199656
 21
163.9601241904099993
 31
0.0
  0
LINE
  5
23C8B
  8
0
 10
3240.6301566650890891
 20
163.958607415128597
 30
0.0
 11
3240.6293124851299581
 21
163.9533400129726886
 31
0.0
  0
LINE
  5
23C8C
  8
0
 10
3240.6144064375180278
 20
163.9598529240487892
 30
0.0
 11
3240.6136152955191392
 21
163.9549164608056913
 31
0.0
  0
LINE
  5
23C8D
  8
0
 10
3240.6262110539228161
 20
163.9519802813302931
 30
0.0
 11
3240.6258072091241047
 21
163.9494604238302884
 31
0.0
  0
LINE
  5
23C8E
  8
0
 10
3240.6101162336508423
 20
163.9510756462505014
 30
0.0
 11
3240.6095857003288074
 21
163.9477652945637942
 31
0.0
  0
LINE
  5
23C8F
  8
0
 10
3240.6062815762138598
 20
163.9451408262522136
 30
0.0
 11
3240.6060124937212095
 21
163.9434618408149902
 31
0.0
  0
LINE
  5
23C90
  8
0
 10
3240.5619117187238771
 20
163.9715430738303041
 30
0.0
 11
3240.5625488256450808
 21
163.9743723028236104
 31
0.0
  0
LINE
  5
23C91
  8
0
 10
3240.3875829836511002
 20
163.9736249456059909
 30
0.0
 11
3240.3891962007219263
 21
163.9836908835249858
 31
0.0
  0
LINE
  5
23C92
  8
0
 10
3240.5558971813861717
 20
163.9555477644844075
 30
0.0
 11
3240.5548082627237818
 21
163.9487532737302899
 31
0.0
  0
LINE
  5
23C93
  8
0
 10
3240.551715763737775
 20
163.9474492763648925
 30
0.0
 11
3240.5504022241289022
 21
163.9392532258650022
 31
0.0
  0
LINE
  5
23C94
  8
0
 10
3240.5320606105478873
 20
163.9423215148499082
 30
0.0
 11
3240.5312422019242149
 21
163.9372149176303139
 31
0.0
  0
LINE
  5
23C95
  8
0
 10
3240.5473479935239993
 20
163.9381880103123876
 30
0.0
 11
3240.5464319491247807
 21
163.9324721975382886
 31
0.0
  0
LINE
  5
23C96
  8
0
 10
3240.5277891718460523
 20
163.9336613258728903
 30
0.0
 11
3240.5272164254201925
 21
163.9300875782085996
 31
0.0
  0
LINE
  5
23C97
  8
0
 10
3240.5434150711680559
 20
163.931640049897112
 30
0.0
 11
3240.5428973248181137
 21
163.9284094847953099
 31
0.0
  0
LINE
  5
23C98
  8
0
 10
3240.5239473795249978
 20
163.9276819867311019
 30
0.0
 11
3240.5236208380360949
 21
163.9256444760067097
 31
0.0
  0
LINE
  5
23C99
  8
0
 10
3240.5067010713269156
 20
163.9327043167542115
 30
0.0
 11
3240.5057542791159904
 21
163.926796648186496
 31
0.0
  0
LINE
  5
23C9A
  8
0
 10
3240.487356709973028
 20
163.9295157930957032
 30
0.0
 11
3240.486765042523075
 21
163.9258239851303074
 31
0.0
  0
LINE
  5
23C9B
  8
0
 10
3240.4835126003508776
 20
163.9235219949673876
 30
0.0
 11
3240.4831621554230878
 21
163.9213353353302978
 31
0.0
  0
LINE
  5
23C9C
  8
0
 10
3240.5027674464790834
 20
163.926151973246391
 30
0.0
 11
3240.5022099550351413
 21
163.9226734120057074
 31
0.0
  0
LINE
  5
23C9D
  8
0
 10
3240.4992454359207841
 20
163.9221679657892992
 30
0.0
 11
3240.4991000459290262
 21
163.9212607811130056
 31
0.0
  0
LINE
  5
23C9E
  8
0
 10
3240.4800576002321577
 20
163.9199561108790988
 30
0.0
 11
3240.4800091741981305
 21
163.9196539484410948
 31
0.0
  0
LINE
  5
23C9F
  8
0
 10
3240.4655370562250027
 20
163.9239941350377023
 30
0.0
 11
3240.4661575037898729
 21
163.9278655217717926
 31
0.0
  0
LINE
  5
23CA0
  8
0
 10
3240.4619855719229236
 20
163.9198262219302933
 30
0.0
 11
3240.4625769918011429
 21
163.923516485159098
 31
0.0
  0
LINE
  5
23CA1
  8
0
 10
3240.458855490328915
 20
163.9182877206436046
 30
0.0
 11
3240.4590631372598182
 21
163.9195833687205948
 31
0.0
  0
LINE
  5
23CA2
  8
0
 10
3240.4431535575281487
 20
163.9198345730578978
 30
0.0
 11
3240.44352560494508
 21
163.9221560252535141
 31
0.0
  0
LINE
  5
23CA3
  8
0
 10
3240.4399548663341193
 20
163.9178679711446023
 30
0.0
 11
3240.4400966116509153
 21
163.9187524144730048
 31
0.0
  0
LINE
  5
23CA4
  8
0
 10
3240.4190903606918255
 20
163.9183061197252869
 30
0.0
 11
3240.4192292797870323
 21
163.9191729286339978
 31
0.0
  0
LINE
  5
23CA5
  8
0
 10
3240.4222630349690917
 20
163.9201103846899059
 30
0.0
 11
3240.4224873776088316
 21
163.9215102079151904
 31
0.0
  0
LINE
  5
23CA6
  8
0
 10
3240.4004182340731859
 20
163.9193121172139058
 30
0.0
 11
3240.4004832474261093
 21
163.919717778914702
 31
0.0
  0
LINE
  5
23CA7
  8
0
 10
3240.509724387328788
 20
163.9335766351686914
 30
0.0
 11
3240.5105751335017885
 21
163.9388850086895957
 31
0.0
  0
ARC
  5
23CA8
  8
0
 10
3240.7976934417652046
 20
163.9929757387471909
 30
0.0
 40
0.0572893031270899
 50
300.4582605056961029
 51
321.2139610593849852
  0
ARC
  5
23CA9
  8
0
 10
3240.8257110132080925
 20
163.9675809045135111
 30
0.0
 40
0.0196706575953585
 50
327.7657284151540011
 51
13.4153109089084897
  0
ARC
  5
23CAA
  8
0
 10
3240.7918006421377868
 20
163.9543221192066937
 30
0.0
 40
0.0559583748750553
 50
18.5720084352505914
 51
52.7062405707398085
  0
ARC
  5
23CAB
  8
0
 10
3240.629458342756152
 20
163.7413798335778097
 30
0.0
 40
0.3237258791817736
 50
52.6836561570943118
 51
72.6506094323026872
  0
ARC
  5
23CAC
  8
0
 10
3240.1172058764691428
 20
162.1781569836950041
 30
0.0
 40
1.9687130534952439
 50
71.9871159855511848
 51
80.6583949531126336
  0
ARC
  5
23CAD
  8
0
 10
3239.9869053522561444
 20
161.7125833998846076
 30
0.0
 40
2.4498360610555969
 50
79.4187459339187853
 51
86.8946167952460797
  0
ARC
  5
23CAE
  8
0
 10
3240.0600114541421135
 20
163.0163326272414963
 30
0.0
 40
1.144043386258716
 50
87.0133722736504467
 51
93.7094983447064038
  0
ARC
  5
23CAF
  8
0
 10
3240.0077480892168751
 20
163.7472732393642048
 30
0.0
 40
0.4112816004029382
 50
93.0319239797572237
 51
102.619888021885302
  0
ARC
  5
23CB0
  8
0
 10
3239.9411241931129553
 20
164.0448461935814919
 30
0.0
 40
0.1063415954612783
 50
102.619888021885302
 51
119.2022126186034967
  0
ARC
  5
23CB1
  8
0
 10
3239.9059636785059411
 20
164.1076436373570004
 30
0.0
 40
0.0343709628927491
 50
119.1134114344229005
 51
141.0570804950513093
  0
ARC
  5
23CB2
  8
0
 10
3239.8940560326777813
 20
164.1178880996139924
 30
0.0
 40
0.0186766646131083
 50
142.5400849624195985
 51
187.6111415330790919
  0
ARC
  5
23CB3
  8
0
 10
3239.9019617217459199
 20
164.1189445084702072
 30
0.0
 40
0.0266526234463038
 50
187.6111415330790919
 51
218.5553367037568933
  0
ARC
  5
23CB4
  8
0
 10
3245.845927552943067
 20
164.6494217308249972
 30
0.0
 40
0.0314964148481628
 50
0.000424895407108
 51
90.002341668049425
  0
LINE
  5
23CB5
  8
0
 10
3245.8774239677909463
 20
164.6494219643969075
 30
0.0
 11
3245.8774353603639611
 21
162.094013876228189
 31
0.0
  0
ARC
  5
23CB6
  8
0
 10
3234.8642123095801253
 20
-27.5508541665241182
 30
0.0
 40
186.9740595926436981
 50
92.8140644566792332
 51
94.3138215630581271
  0
ARC
  5
23CB7
  8
0
 10
3230.9322262762048013
 20
52.1610762207536922
 30
0.0
 40
107.1652127874624938
 50
89.8102475609337461
 51
92.8066908070386773
  0
ARC
  5
23CB8
  8
0
 10
3226.9015183600868113
 20
-895.7451801674988019
 30
0.0
 40
1055.0799962974679147
 50
89.5057896139946934
 51
89.761839765845707
  0
ARC
  5
23CB9
  8
0
 10
3233.211395158880805
 20
4.0490486192520052
 30
0.0
 40
155.2715990816870999
 50
87.3875113934623187
 51
88.9701637172476296
  0
ARC
  5
23CBA
  8
0
 10
3232.1818370418409359
 20
11.3487282386339494
 30
0.0
 40
148.0326928813458096
 50
85.3468396670467939
 51
86.8606490839942751
  0
LINE
  5
23CBB
  8
0
 10
3239.5044959429569644
 20
160.8932656367381071
 30
0.0
 11
3239.6805336421730317
 21
160.6659646458466
 31
0.0
  0
ARC
  5
23CBC
  8
0
 10
3239.4664974047232135
 20
160.6692560590427945
 30
0.0
 40
0.2140615435115386
 50
343.6757196790356943
 51
359.1189792415161719
  0
ARC
  5
23CBD
  8
0
 10
3239.3285262499030068
 20
160.7096651238902041
 30
0.0
 40
0.3578284801983311
 50
335.0691527508428749
 51
343.6757196790356943
  0
ARC
  5
23CBE
  8
0
 10
3238.9813649095999608
 20
160.8950679467774876
 30
0.0
 40
0.7511082363798615
 50
311.2046066654801848
 51
333.4067727347987216
  0
ARC
  5
23CBF
  8
0
 10
3238.8736412664011368
 20
160.9581689362044017
 30
0.0
 40
0.8704417310711901
 50
299.6676883432418208
 51
313.804182202855884
  0
ARC
  5
23CC0
  8
0
 10
3238.9100963835949187
 20
160.8791275031935015
 30
0.0
 40
0.783753012697424
 50
286.4504111610556834
 51
300.2120897392932193
  0
ARC
  5
23CC1
  8
0
 10
3239.0034443409840605
 20
160.5038291967346993
 30
0.0
 40
0.3977356440224821
 50
272.8088404091652137
 51
288.8643652900076972
  0
ARC
  5
23CC2
  8
0
 10
3239.0133224425048866
 20
160.3413648896043924
 30
0.0
 40
0.2349901787155795
 50
258.0655316591813744
 51
272.3443903273188766
  0
LINE
  5
23CC3
  8
0
 10
3238.7830131185091886
 20
160.3421609194550115
 30
0.0
 11
3238.9679725715382119
 21
160.1039172279295997
 31
0.0
  0
ARC
  5
23CC4
  8
0
 10
3239.0479254696219868
 20
160.1659883123853092
 30
0.0
 40
0.1012189974146393
 50
217.8238215769908095
 51
253.1011074703621944
  0
ARC
  5
23CC5
  8
0
 10
3239.0833210205041723
 20
160.2824968846321951
 30
0.0
 40
0.2229855463073539
 50
253.1011074703621944
 51
275.041391248547427
  0
ARC
  5
23CC6
  8
0
 10
3239.0624847798990231
 20
160.5186908451657075
 30
0.0
 40
0.4600967774100648
 50
275.041391248547427
 51
292.7301644192091885
  0
ARC
  5
23CC7
  8
0
 10
3238.8639568148610124
 20
160.9925862760512985
 30
0.0
 40
0.9738965753046255
 50
292.7301644192091885
 51
307.3878411368831962
  0
ARC
  5
23CC8
  8
0
 10
3238.9025459870258601
 20
160.9420915295631005
 30
0.0
 40
0.9103446781550836
 50
307.3878411368831962
 51
319.2862847577367802
  0
ARC
  5
23CC9
  8
0
 10
3239.0929260351590528
 20
160.7782595498493095
 30
0.0
 40
0.6591764470750108
 50
319.2862847577367802
 51
331.4190579642126977
  0
ARC
  5
23CCA
  8
0
 10
3239.3903525653190627
 20
160.6162256578897995
 30
0.0
 40
0.3204766936252781
 50
331.4190579642126977
 51
348.0754774741818096
  0
ARC
  5
23CCB
  8
0
 10
3239.5403190099082167
 20
160.5845557293523882
 30
0.0
 40
0.1672026942778793
 50
348.0754774741818096
 51
9.2188646452250218
  0
ARC
  5
23CCC
  8
0
 10
3239.6311215131258905
 20
160.5992932083875928
 30
0.0
 40
0.0752119997533246
 50
9.2188646452218084
 51
16.7519236621650016
  0
ARC
  5
23CCD
  8
0
 10
3239.5890289176118131
 20
160.5866232338040902
 30
0.0
 40
0.1191701031373647
 50
16.7519236621650016
 51
33.4758441416859966
  0
ARC
  5
23CCE
  8
0
 10
3239.6035586284219789
 20
160.5962314327097999
 30
0.0
 40
0.1017508614071102
 50
33.4758441416873609
 51
40.9035261612309498
  0
ARC
  5
23CCF
  8
0
 10
3238.7874312622298021
 20
160.4881145122695898
 30
0.0
 40
0.1442074531615331
 50
218.5099142674233974
 51
254.0337972343461956
  0
ARC
  5
23CD0
  8
0
 10
3238.8145472534388318
 20
160.5828901726964091
 30
0.0
 40
0.2427858625041011
 50
254.0337972343461956
 51
262.5370784654722911
  0
ARC
  5
23CD1
  8
0
 10
3238.8164588087602169
 20
160.5974828446140066
 30
0.0
 40
0.257503203209663
 50
262.5370784654722911
 51
272.112758849374984
  0
ARC
  5
23CD2
  8
0
 10
3238.8092749975598963
 20
160.7922118782263112
 30
0.0
 40
0.4523647019079919
 50
272.112758849374984
 51
290.48304068626652
  0
ARC
  5
23CD3
  8
0
 10
3238.6128116401268926
 20
161.3181515234061862
 30
0.0
 40
1.013800683285718
 50
290.48304068626652
 51
306.0689400716643718
  0
ARC
  5
23CD4
  8
0
 10
3238.626950217202193
 20
161.298740600081004
 30
0.0
 40
0.9897864519623706
 50
306.0689400716643718
 51
321.142559957494484
  0
ARC
  5
23CD5
  8
0
 10
3238.9004817450781957
 20
161.0783637512037956
 30
0.0
 40
0.638523797723571
 50
321.142559957494484
 51
335.462077486223393
  0
ARC
  5
23CD6
  8
0
 10
3239.2223157412040564
 20
160.931438218507509
 30
0.0
 40
0.2847382225221426
 50
335.462077486223393
 51
352.298291976352175
  0
ARC
  5
23CD7
  8
0
 10
3239.2909643485968445
 20
160.9221544787540097
 30
0.0
 40
0.2154647130051578
 50
352.298291976352175
 51
10.0432342619501895
  0
ARC
  5
23CD8
  8
0
 10
3239.3808013210918944
 20
160.9380650670350121
 30
0.0
 40
0.1242296953498421
 50
10.0432342619501895
 51
35.6895714636733601
  0
ARC
  5
23CD9
  8
0
 10
3157.3243522165271315
 20
98.2693281908328231
 30
0.0
 40
103.3745100944647959
 50
37.3679353354591086
 51
37.6975708009688475
  0
ARC
  5
23CDA
  8
0
 10
3239.556983497442161
 20
162.0116872304475919
 30
0.0
 40
0.6869418488872113
 50
215.0500272298573066
 51
230.4289147732011998
  0
LINE
  5
23CDB
  8
0
 10
3238.994617921110148
 20
161.6171823986549896
 30
0.0
 11
3236.9483651674800058
 21
164.6098819290550068
 31
0.0
  0
LINE
  5
23CDC
  8
0
 10
3236.4016129026799717
 20
163.7048993610549985
 30
0.0
 11
3236.5538174050798261
 21
163.4857001422550127
 31
0.0
  0
ARC
  5
23CDD
  8
0
 10
3237.0444890325197775
 20
163.8264058769975975
 30
0.0
 40
0.59736006199023
 50
214.7748021334070074
 51
220.1986460541862982
  0
LINE
  5
23CDE
  8
0
 10
3236.5882186782860117
 20
163.4408460145781987
 30
0.0
 11
3238.6745888685090904
 21
160.3983237347551096
 31
0.0
  0
LINE
  5
23CDF
  8
0
 10
3244.3349575120910231
 20
164.6801374061880097
 30
0.0
 11
3244.3349575120910231
 21
164.7977872839379927
 31
0.0
  0
ARC
  5
23CE0
  8
0
 10
3244.3822016065910248
 20
164.7977872839379927
 30
0.0
 40
0.0472440945000159
 50
132.9999999861867934
 51
180.0000000000032117
  0
ARC
  5
23CE1
  8
0
 10
3244.2955874329850303
 20
164.9108127041704961
 30
0.0
 40
0.0944881893048667
 50
313.000000146964112
 51
359.9999999196182898
  0
ARC
  5
23CE2
  8
0
 10
3244.2944150563798758
 20
164.9108127041722014
 30
0.0
 40
0.0956605659110181
 50
359.9999999196199951
 51
46.6939135243265966
  0
ARC
  5
23CE3
  8
0
 10
3243.4781312446098127
 20
164.0447777036484069
 30
0.0
 40
1.2857596724937841
 50
46.6939135243265966
 51
47.3060867601404027
  0
ARC
  5
23CE4
  8
0
 10
3241.6073902754342271
 20
120.4342652296457032
 30
0.0
 40
43.5618731816602605
 50
88.9253588003677038
 51
90.2151939618358938
  0
ARC
  5
23CE5
  8
0
 10
3241.4711223547519694
 20
157.9247703566483096
 30
0.0
 40
6.0711223802372789
 50
90.2580508998891844
 51
93.2567417560056668
  0
ARC
  5
23CE6
  8
0
 10
3241.1594259534181219
 20
161.5138124569662068
 30
0.0
 40
2.4724983599565591
 50
90.7695056713031363
 51
95.642474714961395
  0
ARC
  5
23CE7
  8
0
 10
3242.0970867423898198
 20
154.3956631453654893
 30
0.0
 40
9.5983953172743064
 50
85.1009671459663934
 51
88.0458468536624537
  0
ARC
  5
23CE8
  8
0
 10
3242.7508152969207913
 20
160.2215198672934093
 30
0.0
 40
3.741156682028802
 50
81.4478443898073436
 51
87.4572535256973964
  0
ARC
  5
23CE9
  8
0
 10
3244.3822016058998088
 20
165.0243460215033906
 30
0.0
 40
0.0472440938093167
 50
179.9999997155678102
 51
227.0000114823199908
  0
LINE
  5
23CEA
  8
0
 10
3244.3349575120910231
 20
165.0243460217380118
 30
0.0
 11
3244.3349575121778798
 21
165.0419480832260888
 31
0.0
  0
ARC
  5
23CEB
  8
0
 10
3244.3546425518070464
 20
165.0419480831284034
 30
0.0
 40
0.0196850396290671
 50
92.718900675086914
 51
179.999999715543396
  0
ARC
  5
23CEC
  8
0
 10
3244.6459811332802019
 20
158.9071379021281132
 30
0.0
 40
6.1614090749435961
 50
87.2810993249130433
 51
92.718900675086914
  0
LINE
  5
23CED
  8
0
 10
3244.9570047560901003
 20
164.6801374061880097
 30
0.0
 11
3244.9570047560901003
 21
164.7977872839379927
 31
0.0
  0
ARC
  5
23CEE
  8
0
 10
3244.9097606615910081
 20
164.7977872839379927
 30
0.0
 40
0.0472440945000159
 50
359.9999999999968168
 51
47.0000000138131995
  0
ARC
  5
23CEF
  8
0
 10
3244.996374835196093
 20
164.9108127041704961
 30
0.0
 40
0.0944881893048667
 50
180.0000000803815965
 51
226.9999998530360017
  0
ARC
  5
23CF0
  8
0
 10
3244.9975472118007929
 20
164.9108127041722014
 30
0.0
 40
0.0956605659110181
 50
133.3060864756733963
 51
180.0000000803800049
  0
ARC
  5
23CF1
  8
0
 10
3245.8138310235708559
 20
164.0447777036484069
 30
0.0
 40
1.2857596724937841
 50
132.6939132398595973
 51
133.3060864756733963
  0
ARC
  5
23CF2
  8
0
 10
3244.9097606622808598
 20
165.0243460215033906
 30
0.0
 40
0.0472440938093167
 50
312.9999885176608814
 51
0.0000002844321707
  0
LINE
  5
23CF3
  8
0
 10
3244.9570047560901003
 20
165.0243460217380118
 30
0.0
 11
3244.9570047560027888
 21
165.0419480832260888
 31
0.0
  0
ARC
  5
23CF4
  8
0
 10
3244.937319716374077
 20
165.0419480831284034
 30
0.0
 40
0.0196850396290671
 50
0.0000002844565974
 51
87.2810993249130433
  0
LINE
  5
23CF5
  8
0
 10
3244.941981056655095
 20
164.8323394272773044
 30
0.0
 11
3244.9319340450902018
 21
164.8417084171206
 31
0.0
  0
LINE
  5
23CF6
  8
0
 10
3244.3537087730360327
 20
165.0616109629380048
 30
0.0
 11
3244.9382534951460002
 21
165.0616109629380048
 31
0.0
  0
LINE
  5
23CF7
  8
0
 10
3244.3499812115901477
 20
164.9897938784380074
 30
0.0
 11
3244.9419810567610511
 21
164.9897938784380074
 31
0.0
  0
LINE
  5
23CF8
  8
0
 10
3244.3600282232901009
 20
164.8417084172378964
 30
0.0
 11
3244.9319340449901574
 21
164.8417084172378964
 31
0.0
  0
ARC
  5
23CF9
  8
0
 10
3233.3349548929168122
 20
161.310318686498988
 30
0.0
 40
4.8805170247518967
 50
82.7683476453384515
 51
88.793149070057936
  0
ARC
  5
23CFA
  8
0
 10
3232.940493705382778
 20
157.9811376745238931
 30
0.0
 40
8.2329175182944123
 50
79.3593396699145046
 51
82.9615274668637426
  0
ARC
  5
23CFB
  8
0
 10
3232.6864149388261467
 20
155.8562532538342111
 30
0.0
 40
10.3691602101373093
 50
72.4348085566903421
 51
80.1475779268027537
  0
ARC
  5
23CFC
  8
0
 10
3234.1634401318187884
 20
160.5649378198224042
 30
0.0
 40
5.4342846056673331
 50
62.2145209942064099
 51
72.2990122497034235
  0
ARC
  5
23CFD
  8
0
 10
3236.1484920924622202
 20
164.3227102961955097
 30
0.0
 40
1.18443816538697
 50
45.2974081240142965
 51
62.4293688392207002
  0
ARC
  5
23CFE
  8
0
 10
3236.8371377644461973
 20
165.0118804300211934
 30
0.0
 40
0.2102387019947372
 50
18.9658054048068507
 51
46.5746551467209287
  0
ARC
  5
23CFF
  8
0
 10
3236.8869594083289485
 20
165.0290021453056113
 30
0.0
 40
0.1575571176081768
 50
350.746421211231393
 51
18.9658054048068507
  0
LINE
  5
23D00
  8
0
 10
3237.0424661287179333
 20
165.0036662967368102
 30
0.0
 11
3236.8539587624800333
 21
164.2148344211549897
 31
0.0
  0
ARC
  5
23D01
  8
0
 10
3236.7243769448859894
 20
164.2486724631326069
 30
0.0
 40
0.133927071706684
 50
307.1309277458590827
 51
345.365014312706478
  0
ARC
  5
23D02
  8
0
 10
3236.6311429048669197
 20
164.3718117465442106
 30
0.0
 40
0.2883805253338107
 50
292.6322194278229176
 51
307.1309277458590827
  0
ARC
  5
23D03
  8
0
 10
3236.5179222235788075
 20
164.6433764326654909
 30
0.0
 40
0.582602042934854
 50
278.5376857784756908
 51
292.6322194278229176
  0
ARC
  5
23D04
  8
0
 10
3236.4430847903781796
 20
165.3160271034487891
 30
0.0
 40
1.259174487121792
 50
267.5433855726428192
 51
277.3611988491858824
  0
ARC
  5
23D05
  8
0
 10
3233.3859429915000874
 20
164.3302955722859906
 30
0.0
 40
1.8601790205048281
 50
88.404131045777433
 51
99.6189788073812394
  0
ARC
  5
23D06
  8
0
 10
3233.1539365760390865
 20
165.6992420391871974
 30
0.0
 40
0.4717117338695899
 50
99.6189788073812394
 51
118.8605702462207034
  0
ARC
  5
23D07
  8
0
 10
3233.0016655756407999
 20
165.9755296999746008
 30
0.0
 40
0.1562417209272501
 50
118.8605702462207034
 51
158.9232437940877105
  0
LINE
  5
23D08
  8
0
 10
3232.8558765036800651
 20
166.0317170816105943
 30
0.0
 11
3232.6515268465300323
 21
165.2587777536049884
 31
0.0
  0
ARC
  5
23D09
  8
0
 10
3232.8021304269100256
 20
165.2299687942773971
 30
0.0
 40
0.1533342576233802
 50
169.1707133450445895
 51
202.3068316139627996
  0
ARC
  5
23D0A
  8
0
 10
3232.8677375287670657
 20
165.2568853665777908
 30
0.0
 40
0.2242482455132314
 50
202.3068316139627996
 51
225.3082984575409
  0
ARC
  5
23D0B
  8
0
 10
3233.5651011648810709
 20
165.9617944570825898
 30
0.0
 40
1.2158191541483561
 50
225.3082984575409
 51
241.6746823608897898
  0
ARC
  5
23D0C
  8
0
 10
3236.1234870489020068
 20
170.7082070210853999
 30
0.0
 40
6.6078290353780131
 50
241.6746823608897898
 51
243.1449381819948883
  0
LINE
  5
23D0D
  8
0
 10
3233.7944880395598375
 20
165.218762528638905
 30
0.0
 11
3233.7819728723088701
 21
165.1614857606388966
 31
0.0
  0
ARC
  5
23D0E
  8
0
 10
3233.7665254481221382
 20
165.1648610749948034
 30
0.0
 40
0.0158118835383084
 50
287.6296872743625954
 51
347.6743985687691065
  0
ARC
  5
23D0F
  8
0
 10
3233.7555989448319451
 20
165.1992439556132126
 30
0.0
 40
0.0518891749245567
 50
262.1026392989128908
 51
287.6296872743620838
  0
ARC
  5
23D10
  8
0
 10
3233.7827522336278889
 20
165.3949933957817109
 30
0.0
 40
0.2495129194967908
 50
239.6288075569329976
 51
262.1026392989128908
  0
ARC
  5
23D11
  8
0
 10
3233.6811133868691286
 20
165.2215544394007054
 30
0.0
 40
0.048486735229917
 50
213.073804296617908
 51
239.6288075569329976
  0
ARC
  5
23D12
  8
0
 10
3233.657446953499857
 20
165.2042995598091863
 30
0.0
 40
0.0193005433660408
 50
167.8533739121068891
 51
208.485897197676195
  0
LINE
  5
23D13
  8
0
 10
3233.6385785043321448
 20
165.2083606680589014
 30
0.0
 11
3233.6497245574601038
 21
165.2670997460712954
 31
0.0
  0
ARC
  5
23D14
  8
0
 10
3233.6370287272789028
 20
164.9881352240983006
 30
0.0
 40
0.279253269674077
 50
55.6769433350377412
 51
87.3942353197230801
  0
ARC
  5
23D15
  8
0
 10
3233.7724507136717875
 20
165.1864849262848907
 30
0.0
 40
0.0390830826061652
 50
19.1271390679205204
 51
55.6769433350153093
  0
ARC
  5
23D16
  8
0
 10
3233.7844311837029636
 20
165.2440629747001992
 30
0.0
 40
0.0512520615956685
 50
274.9565803438051148
 51
299.124691933447707
  0
ARC
  5
23D17
  8
0
 10
3233.6494789133657832
 20
165.1983655417070054
 30
0.0
 40
0.0687346433075193
 50
89.7952357188066372
 51
113.5802434838869033
  0
ARC
  5
23D18
  8
0
 10
3233.6578731216168308
 20
165.2719450447312965
 30
0.0
 40
0.0374184514658972
 50
196.4309243778506868
 51
248.313853446293308
  0
ARC
  5
23D19
  8
0
 10
3233.6852437957390975
 20
165.1166524494888961
 30
0.0
 40
0.0668803858366316
 50
45.30974966724051
 51
94.5286584834292256
  0
ARC
  5
23D1A
  8
0
 10
3233.728225837359787
 20
165.2342285361762038
 30
0.0
 40
0.0701467363045442
 50
226.5259454979010911
 51
273.3124760164303098
  0
LINE
  5
23D1B
  8
0
 10
3234.2670546668441602
 20
165.128325794096213
 30
0.0
 11
3234.2545394995941024
 21
165.0710490260962047
 31
0.0
  0
ARC
  5
23D1C
  8
0
 10
3234.2390920754060062
 20
165.0744243404521114
 30
0.0
 40
0.0158118835383084
 50
287.6296872743625954
 51
347.6743985687691065
  0
ARC
  5
23D1D
  8
0
 10
3234.2281655721171774
 20
165.1088072210704922
 30
0.0
 40
0.0518891749245567
 50
262.1026392989128908
 51
287.6296872743620838
  0
ARC
  5
23D1E
  8
0
 10
3234.2553188609122117
 20
165.3045566612389905
 30
0.0
 40
0.2495129194967908
 50
239.6288075569329976
 51
262.1026392989128908
  0
ARC
  5
23D1F
  8
0
 10
3234.1536800141539061
 20
165.1311177048580134
 30
0.0
 40
0.048486735229917
 50
213.073804296617908
 51
239.6288075569329976
  0
ARC
  5
23D20
  8
0
 10
3234.1300135807841798
 20
165.1138628252664944
 30
0.0
 40
0.0193005433660408
 50
167.8533739121068891
 51
208.485897197676195
  0
LINE
  5
23D21
  8
0
 10
3234.1111451316160128
 20
165.1179239335162094
 30
0.0
 11
3234.1222911847448813
 21
165.1766630115286034
 31
0.0
  0
ARC
  5
23D22
  8
0
 10
3234.1095953545632256
 20
164.8976984895556086
 30
0.0
 40
0.279253269674077
 50
55.6769433350377412
 51
87.3942353197230801
  0
ARC
  5
23D23
  8
0
 10
3234.2450173409561103
 20
165.0960481917421987
 30
0.0
 40
0.0390830826061652
 50
19.1271390679205204
 51
55.6769433350153093
  0
ARC
  5
23D24
  8
0
 10
3234.2569978109868316
 20
165.1536262401575073
 30
0.0
 40
0.0512520615956685
 50
274.9565803438051148
 51
299.124691933447707
  0
ARC
  5
23D25
  8
0
 10
3234.122045540650106
 20
165.1079288071643987
 30
0.0
 40
0.0687346433075193
 50
89.7952357188066372
 51
113.5802434838869033
  0
ARC
  5
23D26
  8
0
 10
3234.1304397489011535
 20
165.1815083101886046
 30
0.0
 40
0.0374184514658972
 50
196.4309243778506868
 51
248.313853446293308
  0
ARC
  5
23D27
  8
0
 10
3234.1578104230229656
 20
165.0262157149462041
 30
0.0
 40
0.0668803858366316
 50
45.30974966724051
 51
94.5286584834292256
  0
ARC
  5
23D28
  8
0
 10
3234.2007924646450192
 20
165.1437918016335118
 30
0.0
 40
0.0701467363045442
 50
226.5259454979010911
 51
273.3124760164303098
  0
LINE
  5
23D29
  8
0
 10
3234.7455342126359028
 20
165.0590879162201077
 30
0.0
 11
3234.7330190453858449
 21
165.0018111482200993
 31
0.0
  0
ARC
  5
23D2A
  8
0
 10
3234.717571621199113
 20
165.0051864625758924
 30
0.0
 40
0.0158118835383084
 50
287.6296872743625954
 51
347.6743985687691065
  0
ARC
  5
23D2B
  8
0
 10
3234.7066451179080104
 20
165.0395693431943016
 30
0.0
 40
0.0518891749245567
 50
262.1026392989128908
 51
287.6296872743620838
  0
ARC
  5
23D2C
  8
0
 10
3234.7337984067048637
 20
165.2353187833629136
 30
0.0
 40
0.2495129194967908
 50
239.6288075569329976
 51
262.1026392989128908
  0
ARC
  5
23D2D
  8
0
 10
3234.6321595599461034
 20
165.0618798269819081
 30
0.0
 40
0.048486735229917
 50
213.073804296617908
 51
239.6288075569329976
  0
ARC
  5
23D2E
  8
0
 10
3234.6084931265759224
 20
165.044624947390389
 30
0.0
 40
0.0193005433660408
 50
167.8533739121068891
 51
208.485897197676195
  0
LINE
  5
23D2F
  8
0
 10
3234.5896246774082101
 20
165.0486860556399904
 30
0.0
 11
3234.6007707305370786
 21
165.1074251336524981
 31
0.0
  0
ARC
  5
23D30
  8
0
 10
3234.5880749003549681
 20
164.8284606116793896
 30
0.0
 40
0.279253269674077
 50
55.6769433350377412
 51
87.3942353197230801
  0
ARC
  5
23D31
  8
0
 10
3234.7234968867478528
 20
165.0268103138660933
 30
0.0
 40
0.0390830826061652
 50
19.1271390679205204
 51
55.6769433350153093
  0
ARC
  5
23D32
  8
0
 10
3234.7354773567799384
 20
165.0843883622814019
 30
0.0
 40
0.0512520615956685
 50
274.9565803438051148
 51
299.124691933447707
  0
ARC
  5
23D33
  8
0
 10
3234.6005250864418485
 20
165.0386909292882081
 30
0.0
 40
0.0687346433075193
 50
89.7952357188066372
 51
113.5802434838869033
  0
ARC
  5
23D34
  8
0
 10
3234.6089192946928961
 20
165.112270432312414
 30
0.0
 40
0.0374184514658972
 50
196.4309243778506868
 51
248.313853446293308
  0
ARC
  5
23D35
  8
0
 10
3234.6362899688151629
 20
164.9569778370700988
 30
0.0
 40
0.0668803858366316
 50
45.30974966724051
 51
94.5286584834292256
  0
ARC
  5
23D36
  8
0
 10
3234.6792720104372165
 20
165.0745539237574064
 30
0.0
 40
0.0701467363045442
 50
226.5259454979010911
 51
273.3124760164303098
  0
LINE
  5
23D37
  8
0
 10
3235.5894784194119893
 20
164.8231637900377109
 30
0.0
 11
3235.5769632521619315
 21
164.7658870220377025
 31
0.0
  0
ARC
  5
23D38
  8
0
 10
3235.5615158279738353
 20
164.7692623363934956
 30
0.0
 40
0.0158118835383084
 50
287.6296872743625954
 51
347.6743985687691065
  0
ARC
  5
23D39
  8
0
 10
3235.5505893246840969
 20
164.8036452170119048
 30
0.0
 40
0.0518891749245567
 50
262.1026392989128908
 51
287.6296872743620838
  0
ARC
  5
23D3A
  8
0
 10
3235.5777426134791313
 20
164.9993946571804884
 30
0.0
 40
0.2495129194967908
 50
239.6288075569329976
 51
262.1026392989128908
  0
ARC
  5
23D3B
  8
0
 10
3235.4761037667221899
 20
164.8259557007995113
 30
0.0
 40
0.048486735229917
 50
213.073804296617908
 51
239.6288075569329976
  0
ARC
  5
23D3C
  8
0
 10
3235.4524373333520089
 20
164.8087008212079922
 30
0.0
 40
0.0193005433660408
 50
167.8533739121068891
 51
208.485897197676195
  0
LINE
  5
23D3D
  8
0
 10
3235.4335688841838419
 20
164.8127619294575936
 30
0.0
 11
3235.4447149373118009
 21
164.8715010074701013
 31
0.0
  0
ARC
  5
23D3E
  8
0
 10
3235.4320191071301451
 20
164.5925364854969928
 30
0.0
 40
0.279253269674077
 50
55.6769433350377412
 51
87.3942353197230801
  0
ARC
  5
23D3F
  8
0
 10
3235.5674410935239393
 20
164.7908861876836966
 30
0.0
 40
0.0390830826061652
 50
19.1271390679205204
 51
55.6769433350153093
  0
ARC
  5
23D40
  8
0
 10
3235.5794215635551154
 20
164.8484642360990051
 30
0.0
 40
0.0512520615956685
 50
274.9565803438051148
 51
299.124691933447707
  0
ARC
  5
23D41
  8
0
 10
3235.444469293217935
 20
164.8027668031058113
 30
0.0
 40
0.0687346433075193
 50
89.7952357188066372
 51
113.5802434838869033
  0
ARC
  5
23D42
  8
0
 10
3235.4528635014689826
 20
164.8763463061301024
 30
0.0
 40
0.0374184514658972
 50
196.4309243778506868
 51
248.313853446293308
  0
ARC
  5
23D43
  8
0
 10
3235.4802341755907946
 20
164.721053710887702
 30
0.0
 40
0.0668803858366316
 50
45.30974966724051
 51
94.5286584834292256
  0
ARC
  5
23D44
  8
0
 10
3235.5232162172119388
 20
164.8386297975750097
 30
0.0
 40
0.0701467363045442
 50
226.5259454979010911
 51
273.3124760164303098
  0
LINE
  5
23D45
  8
0
 10
3233.21918723684621
 20
165.2190448650547978
 30
0.0
 11
3233.2066720695947879
 21
165.1617680970547895
 31
0.0
  0
ARC
  5
23D46
  8
0
 10
3233.1912246454089654
 20
165.165143411410611
 30
0.0
 40
0.0158118835383084
 50
287.6296872743625954
 51
347.6743985687691065
  0
ARC
  5
23D47
  8
0
 10
3233.1802981421178629
 20
165.1995262920289917
 30
0.0
 40
0.0518891749245567
 50
262.1026392989128908
 51
287.6296872743620838
  0
ARC
  5
23D48
  8
0
 10
3233.2074514309138067
 20
165.3952757321976037
 30
0.0
 40
0.2495129194967908
 50
239.6288075569329976
 51
262.1026392989128908
  0
ARC
  5
23D49
  8
0
 10
3233.1058125841559558
 20
165.2218367758165982
 30
0.0
 40
0.048486735229917
 50
213.073804296617908
 51
239.6288075569329976
  0
ARC
  5
23D4A
  8
0
 10
3233.0821461507857748
 20
165.2045818962251076
 30
0.0
 40
0.0193005433660408
 50
167.8533739121068891
 51
208.485897197676195
  0
LINE
  5
23D4B
  8
0
 10
3233.0632777016189721
 20
165.208643004474709
 30
0.0
 11
3233.0744237547469311
 21
165.2673820824871882
 31
0.0
  0
ARC
  5
23D4C
  8
0
 10
3233.0617279245648206
 20
164.9884175605141081
 30
0.0
 40
0.279253269674077
 50
55.6769433350377412
 51
87.3942353197230801
  0
ARC
  5
23D4D
  8
0
 10
3233.1971499109590695
 20
165.1867672627008119
 30
0.0
 40
0.0390830826061652
 50
19.1271390679205204
 51
55.6769433350153093
  0
ARC
  5
23D4E
  8
0
 10
3233.2091303809897909
 20
165.244345311116092
 30
0.0
 40
0.0512520615956685
 50
274.9565803438051148
 51
299.124691933447707
  0
ARC
  5
23D4F
  8
0
 10
3233.0741781106530652
 20
165.1986478781228982
 30
0.0
 40
0.0687346433075193
 50
89.7952357188066372
 51
113.5802434838869033
  0
ARC
  5
23D50
  8
0
 10
3233.0825723189032033
 20
165.2722273811471894
 30
0.0
 40
0.0374184514658972
 50
196.4309243778506868
 51
248.313853446293308
  0
ARC
  5
23D51
  8
0
 10
3233.1099429930250153
 20
165.1169347859047889
 30
0.0
 40
0.0668803858366316
 50
45.30974966724051
 51
94.5286584834292256
  0
ARC
  5
23D52
  8
0
 10
3233.152925034647069
 20
165.2345108725920966
 30
0.0
 40
0.0701467363045442
 50
226.5259454979010911
 51
273.3124760164303098
  0
LINE
  5
23D53
  8
0
 10
3233.1159126459551771
 20
165.1289065825347961
 30
0.0
 11
3233.1033974787060288
 21
165.0716298145347878
 31
0.0
  0
ARC
  5
23D54
  8
0
 10
3233.0879500545179326
 20
165.0750051288906946
 30
0.0
 40
0.0158118835383084
 50
287.6296872743625954
 51
347.6743985687691065
  0
ARC
  5
23D55
  8
0
 10
3233.0770235512281943
 20
165.1093880095089901
 30
0.0
 40
0.0518891749245567
 50
262.1026392989128908
 51
287.6296872743620838
  0
ARC
  5
23D56
  8
0
 10
3233.1041768400241381
 20
165.305137449677602
 30
0.0
 40
0.2495129194967908
 50
239.6288075569329976
 51
262.1026392989128908
  0
ARC
  5
23D57
  8
0
 10
3233.0025379932658325
 20
165.1316984932965966
 30
0.0
 40
0.048486735229917
 50
213.073804296617908
 51
239.6288075569329976
  0
ARC
  5
23D58
  8
0
 10
3232.9788715598961062
 20
165.1144436137051059
 30
0.0
 40
0.0193005433660408
 50
167.8533739121068891
 51
208.485897197676195
  0
LINE
  5
23D59
  8
0
 10
3232.9600031107279392
 20
165.1185047219547926
 30
0.0
 11
3232.9711491638558982
 21
165.1772437999671865
 31
0.0
  0
ARC
  5
23D5A
  8
0
 10
3232.958453333675152
 20
164.8982792779941917
 30
0.0
 40
0.279253269674077
 50
55.6769433350377412
 51
87.3942353197230801
  0
ARC
  5
23D5B
  8
0
 10
3233.0938753200680367
 20
165.0966289801808102
 30
0.0
 40
0.0390830826061652
 50
19.1271390679205204
 51
55.6769433350153093
  0
ARC
  5
23D5C
  8
0
 10
3233.1058557900992128
 20
165.1542070285960904
 30
0.0
 40
0.0512520615956685
 50
274.9565803438051148
 51
299.124691933447707
  0
ARC
  5
23D5D
  8
0
 10
3232.9709035197620324
 20
165.1085095956030102
 30
0.0
 40
0.0687346433075193
 50
89.7952357188066372
 51
113.5802434838869033
  0
ARC
  5
23D5E
  8
0
 10
3232.9792977280130799
 20
165.1820890986271877
 30
0.0
 40
0.0374184514658972
 50
196.4309243778506868
 51
248.313853446293308
  0
ARC
  5
23D5F
  8
0
 10
3233.0066684021348919
 20
165.0267965033847872
 30
0.0
 40
0.0668803858366316
 50
45.30974966724051
 51
94.5286584834292256
  0
ARC
  5
23D60
  8
0
 10
3233.0496504437560361
 20
165.1443725900720949
 30
0.0
 40
0.0701467363045442
 50
226.5259454979010911
 51
273.3124760164303098
  0
LINE
  5
23D61
  8
0
 10
3233.0287775782549033
 20
165.0639516860408946
 30
0.0
 11
3233.0162624110048455
 21
165.0066749180408863
 31
0.0
  0
ARC
  5
23D62
  8
0
 10
3233.000814986817204
 20
165.010050232396793
 30
0.0
 40
0.0158118835383084
 50
287.6296872743625954
 51
347.6743985687691065
  0
ARC
  5
23D63
  8
0
 10
3232.989888483527011
 20
165.0444331130152023
 30
0.0
 40
0.0518891749245567
 50
262.1026392989128908
 51
287.6296872743620838
  0
ARC
  5
23D64
  8
0
 10
3233.0170417723238643
 20
165.2401825531837005
 30
0.0
 40
0.2495129194967908
 50
239.6288075569329976
 51
262.1026392989128908
  0
ARC
  5
23D65
  8
0
 10
3232.9154029255660134
 20
165.066743596802695
 30
0.0
 40
0.048486735229917
 50
213.073804296617908
 51
239.6288075569329976
  0
ARC
  5
23D66
  8
0
 10
3232.8917364921958324
 20
165.0494887172112044
 30
0.0
 40
0.0193005433660408
 50
167.8533739121068891
 51
208.485897197676195
  0
LINE
  5
23D67
  8
0
 10
3232.8728680430281202
 20
165.053549825460891
 30
0.0
 11
3232.8840140961560792
 21
165.1122889034733134
 31
0.0
  0
ARC
  5
23D68
  8
0
 10
3232.8713182659739687
 20
164.8333243815002902
 30
0.0
 40
0.279253269674077
 50
55.6769433350377412
 51
58.3400598583988028
  0
ARC
  5
23D69
  8
0
 10
3232.8713182659739687
 20
164.8333243815002902
 30
0.0
 40
0.279253269674077
 50
68.7375816604220802
 51
87.3942353197230801
  0
ARC
  5
23D6A
  8
0
 10
3233.0067402523668534
 20
165.0316740836869087
 30
0.0
 40
0.0390830826061652
 50
19.1271390679205204
 51
55.6769433350153093
  0
ARC
  5
23D6B
  8
0
 10
3233.0187207223980295
 20
165.0892521321023025
 30
0.0
 40
0.0512520615956685
 50
274.9565803438051148
 51
299.124691933447707
  0
ARC
  5
23D6C
  8
0
 10
3232.8837684520622133
 20
165.043554699108995
 30
0.0
 40
0.0687346433075193
 50
89.7952357188066372
 51
113.5802434838869033
  0
ARC
  5
23D6D
  8
0
 10
3232.8921626603128061
 20
165.1171342021332862
 30
0.0
 40
0.0374184514658972
 50
196.4309243778506868
 51
248.313853446293308
  0
ARC
  5
23D6E
  8
0
 10
3232.9195333344341634
 20
164.9618416068909994
 30
0.0
 40
0.0668803858366316
 50
45.30974966724051
 51
94.5286584834292256
  0
ARC
  5
23D6F
  8
0
 10
3232.9625153760562171
 20
165.0794176935781934
 30
0.0
 40
0.0701467363045442
 50
226.5259454979010911
 51
273.3124760164303098
  0
LINE
  5
23D70
  8
0
 10
3233.658491430191134
 20
165.1021108246424092
 30
0.0
 11
3233.6452284632418923
 21
165.0417415839924047
 31
0.0
  0
ARC
  5
23D71
  8
0
 10
3233.63169532141319
 20
165.0447147804557915
 30
0.0
 40
0.0138558949531247
 50
296.641873118728995
 51
347.6091182453084798
  0
ARC
  5
23D72
  8
0
 10
3233.6162610287310599
 20
165.0754801713081861
 30
0.0
 40
0.0482757535365454
 50
268.7099254804185762
 51
296.641873118728995
  0
ARC
  5
23D73
  8
0
 10
3233.6182750482289521
 20
165.1649132342921007
 30
0.0
 40
0.1377314913581921
 50
242.9176975871646107
 51
268.7099254804185762
  0
ARC
  5
23D74
  8
0
 10
3233.5747207136741963
 20
165.0797357348747028
 30
0.0
 40
0.0420644308535658
 50
211.4101732920017014
 51
242.9176975871639002
  0
ARC
  5
23D75
  8
0
 10
3233.5550397073161548
 20
165.0653008281028917
 30
0.0
 40
0.0178640759675567
 50
164.236948214583407
 51
204.7799251609455951
  0
LINE
  5
23D76
  8
0
 10
3233.5378474388958239
 20
165.0701537773865937
 30
0.0
 11
3233.5493842154919548
 21
165.1286628884423919
 31
0.0
  0
ARC
  5
23D77
  8
0
 10
3233.568713762319021
 20
164.9706448446586933
 30
0.0
 40
0.1591958967491545
 50
55.6709648143600191
 51
96.974055021960325
  0
ARC
  5
23D78
  8
0
 10
3233.6398972074262019
 20
165.0748823637582916
 30
0.0
 40
0.0329717182200644
 50
16.6037182390753983
 51
55.670964814338511
  0
ARC
  5
23D79
  8
0
 10
3233.6463506764498561
 20
165.1123001093997118
 30
0.0
 40
0.037629422784744
 50
279.5239755701587114
 51
311.9272339927143207
  0
ARC
  5
23D7A
  8
0
 10
3233.5643790535827975
 20
165.0605336456654868
 30
0.0
 40
0.069759865902565
 50
102.4125560169804032
 51
121.3638109426497067
  0
ARC
  5
23D7B
  8
0
 10
3233.5530271945190179
 20
165.1264467386880028
 30
0.0
 40
0.0257504255034673
 50
194.2683662921255916
 51
249.9027062025297141
  0
ARC
  5
23D7C
  8
0
 10
3233.5796348517378647
 20
165.0031059215980065
 30
0.0
 40
0.0501195579441056
 50
45.0498235337891586
 51
108.3792132650284969
  0
ARC
  5
23D7D
  8
0
 10
3233.598839904219858
 20
165.0844411134495999
 30
0.0
 40
0.0486428058492108
 50
223.9706662429439064
 51
289.4583864599312051
  0
LINE
  5
23D7E
  8
0
 10
3233.553552037883037
 20
165.0021606345721921
 30
0.0
 11
3233.5402890709328858
 21
164.9417913939221876
 31
0.0
  0
ARC
  5
23D7F
  8
0
 10
3233.5267559291050929
 20
164.9447645903856028
 30
0.0
 40
0.0138558949531247
 50
296.641873118728995
 51
347.6091182453084798
  0
ARC
  5
23D80
  8
0
 10
3233.5113216364229629
 20
164.9755299812379974
 30
0.0
 40
0.0482757535365454
 50
268.7099254804185762
 51
296.641873118728995
  0
ARC
  5
23D81
  8
0
 10
3233.5133356559208551
 20
165.064963044221912
 30
0.0
 40
0.1377314913581921
 50
242.9176975871646107
 51
268.7099254804185762
  0
ARC
  5
23D82
  8
0
 10
3233.4697813213651898
 20
164.9797855448045141
 30
0.0
 40
0.0420644308535658
 50
211.4101732920017014
 51
242.9176975871639002
  0
ARC
  5
23D83
  8
0
 10
3233.4501003150071483
 20
164.965350638032703
 30
0.0
 40
0.0178640759675567
 50
164.236948214583407
 51
204.7799251609455951
  0
LINE
  5
23D84
  8
0
 10
3233.4329080465868174
 20
164.970203587316405
 30
0.0
 11
3233.4444448231838578
 21
165.0287126983722032
 31
0.0
  0
ARC
  5
23D85
  8
0
 10
3233.463774370010924
 20
164.8706946545885046
 30
0.0
 40
0.1591958967491545
 50
55.6709648143600191
 51
96.974055021960325
  0
ARC
  5
23D86
  8
0
 10
3233.5349578151181049
 20
164.9749321736881029
 30
0.0
 40
0.0329717182200644
 50
16.6037182390753983
 51
55.670964814338511
  0
ARC
  5
23D87
  8
0
 10
3233.5414112841422138
 20
165.0123499193294094
 30
0.0
 40
0.037629422784744
 50
279.5239755701587114
 51
311.9272339927143207
  0
ARC
  5
23D88
  8
0
 10
3233.4594396612751552
 20
164.9605834555952129
 30
0.0
 40
0.069759865902565
 50
102.4125560169804032
 51
121.3638109426497067
  0
ARC
  5
23D89
  8
0
 10
3233.4480878022109209
 20
165.0264965486178141
 30
0.0
 40
0.0257504255034673
 50
194.2683662921255916
 51
249.9027062025297141
  0
ARC
  5
23D8A
  8
0
 10
3233.4746954594302224
 20
164.9031557315277041
 30
0.0
 40
0.0501195579441056
 50
45.0498235337891586
 51
108.3792132650284969
  0
ARC
  5
23D8B
  8
0
 10
3233.4939005119122157
 20
164.9844909233794112
 30
0.0
 40
0.0486428058492108
 50
223.9706662429439064
 51
289.4583864599312051
  0
LINE
  5
23D8C
  8
0
 10
3233.4595334225878105
 20
164.9350397083009909
 30
0.0
 11
3233.4462704556381141
 21
164.8746704676509864
 31
0.0
  0
ARC
  5
23D8D
  8
0
 10
3233.4327373138098665
 20
164.877643664114288
 30
0.0
 40
0.0138558949531247
 50
296.641873118728995
 51
347.6091182453084798
  0
ARC
  5
23D8E
  8
0
 10
3233.4173030211268269
 20
164.9084090549667962
 30
0.0
 40
0.0482757535365454
 50
268.7099254804185762
 51
296.641873118728995
  0
ARC
  5
23D8F
  8
0
 10
3233.4193170406260833
 20
164.9978421179507109
 30
0.0
 40
0.1377314913581921
 50
242.9176975871646107
 51
268.7099254804185762
  0
ARC
  5
23D90
  8
0
 10
3233.3757627060699633
 20
164.9126646185333129
 30
0.0
 40
0.0420644308535658
 50
211.4101732920017014
 51
242.9176975871639002
  0
ARC
  5
23D91
  8
0
 10
3233.3560816997119218
 20
164.8982297117615019
 30
0.0
 40
0.0178640759675567
 50
164.236948214583407
 51
204.7799251609455951
  0
LINE
  5
23D92
  8
0
 10
3233.3388894312920456
 20
164.9030826610452038
 30
0.0
 11
3233.3504262078881766
 21
164.9615917721010021
 31
0.0
  0
ARC
  5
23D93
  8
0
 10
3233.3697557547147881
 20
164.8035737283173034
 30
0.0
 40
0.1591958967491545
 50
55.6709648143600191
 51
96.974055021960325
  0
ARC
  5
23D94
  8
0
 10
3233.4409391998219689
 20
164.9078112474167881
 30
0.0
 40
0.0329717182200644
 50
16.6037182390753983
 51
55.670964814338511
  0
ARC
  5
23D95
  8
0
 10
3233.4473926688469874
 20
164.9452289930582083
 30
0.0
 40
0.037629422784744
 50
279.5239755701587114
 51
311.9272339927143207
  0
ARC
  5
23D96
  8
0
 10
3233.3654210459799287
 20
164.8934625293240117
 30
0.0
 40
0.069759865902565
 50
102.4125560169804032
 51
121.3638109426497067
  0
ARC
  5
23D97
  8
0
 10
3233.3540691869161492
 20
164.959375622346613
 30
0.0
 40
0.0257504255034673
 50
194.2683662921255916
 51
249.9027062025297141
  0
ARC
  5
23D98
  8
0
 10
3233.3806768441340864
 20
164.836034805256503
 30
0.0
 40
0.0501195579441056
 50
45.0498235337891586
 51
108.3792132650284969
  0
ARC
  5
23D99
  8
0
 10
3233.3998818966160798
 20
164.9173699971082101
 30
0.0
 40
0.0486428058492108
 50
223.9706662429439064
 51
289.4583864599312051
  0
LINE
  5
23D9A
  8
0
 10
3233.3628479641070044
 20
164.8732971336206106
 30
0.0
 11
3233.3495849971559437
 21
164.8129278929706061
 31
0.0
  0
ARC
  5
23D9B
  8
0
 10
3233.3360518553281509
 20
164.8159010894339929
 30
0.0
 40
0.0138558949531247
 50
296.641873118728995
 51
347.6091182453084798
  0
ARC
  5
23D9C
  8
0
 10
3233.3206175626460208
 20
164.8466664802865012
 30
0.0
 40
0.0482757535365454
 50
268.7099254804185762
 51
296.641873118728995
  0
ARC
  5
23D9D
  8
0
 10
3233.322631582143913
 20
164.9360995432703021
 30
0.0
 40
0.1377314913581921
 50
242.9176975871646107
 51
268.7099254804185762
  0
ARC
  5
23D9E
  8
0
 10
3233.279077247587793
 20
164.8509220438529042
 30
0.0
 40
0.0420644308535658
 50
211.4101732920017014
 51
242.9176975871639002
  0
ARC
  5
23D9F
  8
0
 10
3233.2593962412302062
 20
164.8364871370810931
 30
0.0
 40
0.0178640759675567
 50
164.236948214583407
 51
204.7799251609455951
  0
LINE
  5
23DA0
  8
0
 10
3233.2422039728098753
 20
164.8413400863647951
 30
0.0
 11
3233.2537407494060062
 21
164.8998491974205933
 31
0.0
  0
ARC
  5
23DA1
  8
0
 10
3233.2730702962330724
 20
164.7418311536368947
 30
0.0
 40
0.1591958967491545
 50
55.6709648143600191
 51
96.974055021960325
  0
ARC
  5
23DA2
  8
0
 10
3233.3442537413411628
 20
164.846068672736493
 30
0.0
 40
0.0329717182200644
 50
16.6037182390753983
 51
55.670964814338511
  0
ARC
  5
23DA3
  8
0
 10
3233.350707210364817
 20
164.8834864183777995
 30
0.0
 40
0.037629422784744
 50
279.5239755701587114
 51
311.9272339927143207
  0
ARC
  5
23DA4
  8
0
 10
3233.2687355874968489
 20
164.8317199546436882
 30
0.0
 40
0.069759865902565
 50
102.4125560169804032
 51
121.3638109426497067
  0
ARC
  5
23DA5
  8
0
 10
3233.2573837284339788
 20
164.8976330476662042
 30
0.0
 40
0.0257504255034673
 50
194.2683662921255916
 51
249.9027062025297141
  0
ARC
  5
23DA6
  8
0
 10
3233.2839913856528256
 20
164.7742922305760942
 30
0.0
 40
0.0501195579441056
 50
45.0498235337891586
 51
108.3792132650284969
  0
ARC
  5
23DA7
  8
0
 10
3233.3031964381348189
 20
164.8556274224278013
 30
0.0
 40
0.0486428058492108
 50
223.9706662429439064
 51
289.4583864599312051
  0
LINE
  5
23DA8
  8
0
 10
3234.1378584548720028
 20
164.9999917096291995
 30
0.0
 11
3234.1245954879218516
 21
164.9396224689791097
 31
0.0
  0
ARC
  5
23DA9
  8
0
 10
3234.1110623460940587
 20
164.9425956654424965
 30
0.0
 40
0.0138558949531247
 50
296.641873118728995
 51
347.6091182453084798
  0
ARC
  5
23DAA
  8
0
 10
3234.0956280534119287
 20
164.9733610562950048
 30
0.0
 40
0.0482757535365454
 50
268.7099254804185762
 51
296.641873118728995
  0
ARC
  5
23DAB
  8
0
 10
3234.0976420729089114
 20
165.0627941192788057
 30
0.0
 40
0.1377314913581921
 50
242.9176975871646107
 51
268.7099254804185762
  0
ARC
  5
23DAC
  8
0
 10
3234.0540877383541556
 20
164.9776166198614078
 30
0.0
 40
0.0420644308535658
 50
211.4101732920017014
 51
242.9176975871639002
  0
ARC
  5
23DAD
  8
0
 10
3234.0344067319952046
 20
164.9631817130897105
 30
0.0
 40
0.0178640759675567
 50
164.236948214583407
 51
204.7799251609455951
  0
LINE
  5
23DAE
  8
0
 10
3234.0172144635757832
 20
164.9680346623734124
 30
0.0
 11
3234.0287512401728236
 21
165.0265437734292107
 31
0.0
  0
ARC
  5
23DAF
  8
0
 10
3234.0480807869989803
 20
164.8685257296453983
 30
0.0
 40
0.1591958967491545
 50
55.6709648143600191
 51
96.974055021960325
  0
ARC
  5
23DB0
  8
0
 10
3234.1192642321061612
 20
164.9727632487449966
 30
0.0
 40
0.0329717182200644
 50
16.6037182390753983
 51
55.670964814338511
  0
ARC
  5
23DB1
  8
0
 10
3234.1257177011298154
 20
165.0101809943863884
 30
0.0
 40
0.037629422784744
 50
279.5239755701587114
 51
311.9272339927143207
  0
ARC
  5
23DB2
  8
0
 10
3234.0437460782632115
 20
164.9584145306521918
 30
0.0
 40
0.069759865902565
 50
102.4125560169804032
 51
121.3638109426497067
  0
ARC
  5
23DB3
  8
0
 10
3234.0323942191989772
 20
165.0243276236747931
 30
0.0
 40
0.0257504255034673
 50
194.2683662921255916
 51
249.9027062025297141
  0
ARC
  5
23DB4
  8
0
 10
3234.059001876417824
 20
164.9009868065847115
 30
0.0
 40
0.0501195579441056
 50
45.0498235337891586
 51
108.3792132650284969
  0
ARC
  5
23DB5
  8
0
 10
3234.0782069289011815
 20
164.9823219984363902
 30
0.0
 40
0.0486428058492108
 50
223.9706662429439064
 51
289.4583864599312051
  0
LINE
  5
23DB6
  8
0
 10
3234.0239449916139165
 20
164.8907804853884898
 30
0.0
 11
3234.0106820246642201
 21
164.8304112447385137
 31
0.0
  0
ARC
  5
23DB7
  8
0
 10
3233.997148882835063
 20
164.8333844412019005
 30
0.0
 40
0.0138558949531247
 50
296.641873118728995
 51
347.6091182453084798
  0
ARC
  5
23DB8
  8
0
 10
3233.9817145901538424
 20
164.8641498320542951
 30
0.0
 40
0.0482757535365454
 50
268.7099254804185762
 51
296.641873118728995
  0
ARC
  5
23DB9
  8
0
 10
3233.9837286096508251
 20
164.9535828950382097
 30
0.0
 40
0.1377314913581921
 50
242.9176975871646107
 51
268.7099254804185762
  0
ARC
  5
23DBA
  8
0
 10
3233.9401742750960693
 20
164.8684053956206981
 30
0.0
 40
0.0420644308535658
 50
211.4101732920017014
 51
242.9176975871639002
  0
ARC
  5
23DBB
  8
0
 10
3233.9204932687371183
 20
164.8539704888490007
 30
0.0
 40
0.0178640759675567
 50
164.236948214583407
 51
204.7799251609455951
  0
LINE
  5
23DBC
  8
0
 10
3233.9033010003181516
 20
164.8588234381327027
 30
0.0
 11
3233.9148377769138278
 21
164.9173325491885009
 31
0.0
  0
ARC
  5
23DBD
  8
0
 10
3233.9341673237408941
 20
164.7593145054048023
 30
0.0
 40
0.1591958967491545
 50
55.6709648143600191
 51
96.974055021960325
  0
ARC
  5
23DBE
  8
0
 10
3234.0053507688480749
 20
164.8635520245044006
 30
0.0
 40
0.0329717182200644
 50
16.6037182390753983
 51
55.670964814338511
  0
ARC
  5
23DBF
  8
0
 10
3234.0118042378721839
 20
164.9009697701457071
 30
0.0
 40
0.037629422784744
 50
279.5239755701587114
 51
311.9272339927143207
  0
ARC
  5
23DC0
  8
0
 10
3233.9298326150051253
 20
164.8492033064115105
 30
0.0
 40
0.069759865902565
 50
102.4125560169804032
 51
121.3638109426497067
  0
ARC
  5
23DC1
  8
0
 10
3233.918480755940891
 20
164.9151163994341118
 30
0.0
 40
0.0257504255034673
 50
194.2683662921255916
 51
249.9027062025297141
  0
ARC
  5
23DC2
  8
0
 10
3233.9450884131601924
 20
164.7917755823440018
 30
0.0
 40
0.0501195579441056
 50
45.0498235337891586
 51
108.3792132650284969
  0
ARC
  5
23DC3
  8
0
 10
3233.9642934656430953
 20
164.8731107741957089
 30
0.0
 40
0.0486428058492108
 50
223.9706662429439064
 51
289.4583864599312051
  0
LINE
  5
23DC4
  8
0
 10
3233.921612730520792
 20
164.8008318871164022
 30
0.0
 11
3233.9083497635710955
 21
164.7404626464663977
 31
0.0
  0
ARC
  5
23DC5
  8
0
 10
3233.8948166217428479
 20
164.7434358429298129
 30
0.0
 40
0.0138558949531247
 50
296.641873118728995
 51
347.6091182453084798
  0
ARC
  5
23DC6
  8
0
 10
3233.8793823290611726
 20
164.7742012337822075
 30
0.0
 40
0.0482757535365454
 50
268.7099254804185762
 51
296.641873118728995
  0
ARC
  5
23DC7
  8
0
 10
3233.8813963485590648
 20
164.8636342967660937
 30
0.0
 40
0.1377314913581921
 50
242.9176975871646107
 51
268.7099254804185762
  0
ARC
  5
23DC8
  8
0
 10
3233.8378420140029448
 20
164.7784567973486105
 30
0.0
 40
0.0420644308535658
 50
211.4101732920017014
 51
242.9176975871639002
  0
ARC
  5
23DC9
  8
0
 10
3233.8181610076449033
 20
164.7640218905769132
 30
0.0
 40
0.0178640759675567
 50
164.236948214583407
 51
204.7799251609455951
  0
LINE
  5
23DCA
  8
0
 10
3233.8009687392250271
 20
164.7688748398605867
 30
0.0
 11
3233.8125055158220675
 21
164.8273839509164134
 31
0.0
  0
ARC
  5
23DCB
  8
0
 10
3233.8318350626482243
 20
164.6693659071326863
 30
0.0
 40
0.1591958967491545
 50
55.6709648143600191
 51
96.974055021960325
  0
ARC
  5
23DCC
  8
0
 10
3233.9030185077549504
 20
164.773603426232313
 30
0.0
 40
0.0329717182200644
 50
16.6037182390753983
 51
55.670964814338511
  0
ARC
  5
23DCD
  8
0
 10
3233.9094719767799688
 20
164.8110211718735911
 30
0.0
 40
0.037629422784744
 50
279.5239755701587114
 51
311.9272339927143207
  0
ARC
  5
23DCE
  8
0
 10
3233.8275003539129102
 20
164.7592547081393946
 30
0.0
 40
0.069759865902565
 50
102.4125560169804032
 51
121.3638109426497067
  0
ARC
  5
23DCF
  8
0
 10
3233.8161484948491307
 20
164.8251678011619958
 30
0.0
 40
0.0257504255034673
 50
194.2683662921255916
 51
249.9027062025297141
  0
ARC
  5
23DD0
  8
0
 10
3233.8427561520679774
 20
164.7018269840718858
 30
0.0
 40
0.0501195579441056
 50
45.0498235337891586
 51
108.3792132650284969
  0
ARC
  5
23DD1
  8
0
 10
3233.8619612045499707
 20
164.7831621759235929
 30
0.0
 40
0.0486428058492108
 50
223.9706662429439064
 51
289.4583864599312051
  0
LINE
  5
23DD2
  8
0
 10
3233.8185391294500732
 20
164.7328383841829975
 30
0.0
 11
3233.8052761624990126
 21
164.672469143532993
 31
0.0
  0
ARC
  5
23DD3
  8
0
 10
3233.7917430206721292
 20
164.6754423399964082
 30
0.0
 40
0.0138558949531247
 50
296.641873118728995
 51
347.6091182453084798
  0
ARC
  5
23DD4
  8
0
 10
3233.7763087279890897
 20
164.7062077308488881
 30
0.0
 40
0.0482757535365454
 50
268.7099254804185762
 51
296.641873118728995
  0
ARC
  5
23DD5
  8
0
 10
3233.7783227474869818
 20
164.795640793832689
 30
0.0
 40
0.1377314913581921
 50
242.9176975871646107
 51
268.7099254804185762
  0
ARC
  5
23DD6
  8
0
 10
3233.7347684129322261
 20
164.7104632944152911
 30
0.0
 40
0.0420644308535658
 50
211.4101732920017014
 51
242.9176975871639002
  0
ARC
  5
23DD7
  8
0
 10
3233.7150874065741846
 20
164.6960283876435085
 30
0.0
 40
0.0178640759675567
 50
164.236948214583407
 51
204.7799251609455951
  0
LINE
  5
23DD8
  8
0
 10
3233.6978951381529441
 20
164.7008813369272957
 30
0.0
 11
3233.7094319147499846
 21
164.7593904479830087
 31
0.0
  0
ARC
  5
23DD9
  8
0
 10
3233.7287614615770508
 20
164.60137240419931
 30
0.0
 40
0.1591958967491545
 50
55.6709648143600191
 51
96.974055021960325
  0
ARC
  5
23DDA
  8
0
 10
3233.7999449066837769
 20
164.7056099232989084
 30
0.0
 40
0.0329717182200644
 50
16.6037182390753983
 51
55.670964814338511
  0
ARC
  5
23DDB
  8
0
 10
3233.8063983757078859
 20
164.7430276689403001
 30
0.0
 40
0.037629422784744
 50
279.5239755701587114
 51
311.9272339927143207
  0
ARC
  5
23DDC
  8
0
 10
3233.7244267528408272
 20
164.6912612052061036
 30
0.0
 40
0.069759865902565
 50
102.4125560169804032
 51
121.3638109426497067
  0
ARC
  5
23DDD
  8
0
 10
3233.7130748937779572
 20
164.7571742982285912
 30
0.0
 40
0.0257504255034673
 50
194.2683662921255916
 51
249.9027062025297141
  0
ARC
  5
23DDE
  8
0
 10
3233.7396825509958944
 20
164.6338334811385948
 30
0.0
 40
0.0501195579441056
 50
45.0498235337891586
 51
108.3792132650284969
  0
ARC
  5
23DDF
  8
0
 10
3233.7588876034787972
 20
164.715168672990302
 30
0.0
 40
0.0486428058492108
 50
223.9706662429439064
 51
289.4583864599312051
  0
LINE
  5
23DE0
  8
0
 10
3233.7239092047580016
 20
164.6691136027652931
 30
0.0
 11
3233.71735734782078
 21
164.6392914197176935
 31
0.0
  0
ARC
  5
23DE1
  8
0
 10
3233.7038242059929871
 20
164.6422646161809951
 30
0.0
 40
0.0138558949531247
 50
296.641873118728995
 51
347.6091182453084798
  0
ARC
  5
23DE2
  8
0
 10
3233.6883899133108571
 20
164.6730300070335034
 30
0.0
 40
0.0482757535365454
 50
268.7099254804185762
 51
296.641873118728995
  0
ARC
  5
23DE3
  8
0
 10
3233.6904039328078397
 20
164.7624630700173896
 30
0.0
 40
0.1377314913581921
 50
242.9176975871646107
 51
268.7099254804185762
  0
ARC
  5
23DE4
  8
0
 10
3233.646849598253084
 20
164.6772855705999064
 30
0.0
 40
0.0420644308535658
 50
211.4101732920017014
 51
242.9176975871639002
  0
ARC
  5
23DE5
  8
0
 10
3233.627168591894133
 20
164.662850663828209
 30
0.0
 40
0.0178640759675567
 50
164.236948214583407
 51
204.7799251609455951
  0
LINE
  5
23DE6
  8
0
 10
3233.6099763234751663
 20
164.667703613111911
 30
0.0
 11
3233.6215131000708425
 21
164.7262127241677092
 31
0.0
  0
ARC
  5
23DE7
  8
0
 10
3233.6408426468979087
 20
164.5681946803840106
 30
0.0
 40
0.1591958967491545
 50
67.871252675615338
 51
96.974055021960325
  0
ARC
  5
23DE8
  8
0
 10
3233.6365079381621399
 20
164.6580834813906904
 30
0.0
 40
0.069759865902565
 50
102.4125560169804032
 51
121.3638109426497067
  0
ARC
  5
23DE9
  8
0
 10
3233.6251560790979056
 20
164.7239965744132917
 30
0.0
 40
0.0257504255034673
 50
194.2683662921255916
 51
249.9027062025297141
  0
ARC
  5
23DEA
  8
0
 10
3233.6517637363172071
 20
164.6006557573232101
 30
0.0
 40
0.0501195579441056
 50
45.0498235337891586
 51
108.3792132650284969
  0
ARC
  5
23DEB
  8
0
 10
3233.6709687888001099
 20
164.6819909491748888
 30
0.0
 40
0.0486428058492108
 50
223.9706662429439064
 51
289.4583864599312051
  0
LINE
  5
23DEC
  8
0
 10
3235.0821001057470312
 20
164.864753245250597
 30
0.0
 11
3235.06883713879688
 21
164.8043840046005926
 31
0.0
  0
ARC
  5
23DED
  8
0
 10
3235.0553039969681777
 20
164.8073572010638941
 30
0.0
 40
0.0138558949531247
 50
296.641873118728995
 51
347.6091182453084798
  0
ARC
  5
23DEE
  8
0
 10
3235.0398697042860476
 20
164.8381225919164024
 30
0.0
 40
0.0482757535365454
 50
268.7099254804185762
 51
296.641873118728995
  0
ARC
  5
23DEF
  8
0
 10
3235.0418837237839398
 20
164.9275556549002886
 30
0.0
 40
0.1377314913581921
 50
242.9176975871646107
 51
268.7099254804185762
  0
ARC
  5
23DF0
  8
0
 10
3234.998329389229184
 20
164.8423781554828054
 30
0.0
 40
0.0420644308535658
 50
211.4101732920017014
 51
242.9176975871639002
  0
ARC
  5
23DF1
  8
0
 10
3234.9786483828697783
 20
164.827943248711108
 30
0.0
 40
0.0178640759675567
 50
164.236948214583407
 51
204.7799251609455951
  0
LINE
  5
23DF2
  8
0
 10
3234.9614561144508116
 20
164.83279619799481
 30
0.0
 11
3234.9729928910469425
 21
164.8913053090506082
 31
0.0
  0
ARC
  5
23DF3
  8
0
 10
3234.9923224378740088
 20
164.7332872652667959
 30
0.0
 40
0.1591958967491545
 50
55.6709648143600191
 51
96.974055021960325
  0
ARC
  5
23DF4
  8
0
 10
3235.0635058829811896
 20
164.8375247843665079
 30
0.0
 40
0.0329717182200644
 50
16.6037182390753983
 51
55.670964814338511
  0
ARC
  5
23DF5
  8
0
 10
3235.0699593520048438
 20
164.874942530007786
 30
0.0
 40
0.037629422784744
 50
279.5239755701587114
 51
311.9272339927143207
  0
ARC
  5
23DF6
  8
0
 10
3234.9879877291377852
 20
164.8231760662735894
 30
0.0
 40
0.069759865902565
 50
102.4125560169804032
 51
121.3638109426497067
  0
ARC
  5
23DF7
  8
0
 10
3234.9766358700740057
 20
164.8890891592961907
 30
0.0
 40
0.0257504255034673
 50
194.2683662921255916
 51
249.9027062025297141
  0
ARC
  5
23DF8
  8
0
 10
3235.0032435272928524
 20
164.7657483422061091
 30
0.0
 40
0.0501195579441056
 50
45.0498235337891586
 51
108.3792132650284969
  0
ARC
  5
23DF9
  8
0
 10
3235.0224485797748457
 20
164.8470835340577878
 30
0.0
 40
0.0486428058492108
 50
223.9706662429439064
 51
289.4583864599312051
  0
LINE
  5
23DFA
  8
0
 10
3234.5863844046471058
 20
164.9283137281504992
 30
0.0
 11
3234.5731214376969547
 21
164.8679444875006084
 31
0.0
  0
ARC
  5
23DFB
  8
0
 10
3234.5595882958677976
 20
164.8709176839639952
 30
0.0
 40
0.0138558949531247
 50
296.641873118728995
 51
347.6091182453084798
  0
ARC
  5
23DFC
  8
0
 10
3234.5441540031870318
 20
164.9016830748163898
 30
0.0
 40
0.0482757535365454
 50
268.7099254804185762
 51
296.641873118728995
  0
ARC
  5
23DFD
  8
0
 10
3234.5461680226840144
 20
164.9911161378003044
 30
0.0
 40
0.1377314913581921
 50
242.9176975871646107
 51
268.7099254804185762
  0
ARC
  5
23DFE
  8
0
 10
3234.5026136881288039
 20
164.9059386383829064
 30
0.0
 40
0.0420644308535658
 50
211.4101732920017014
 51
242.9176975871639002
  0
ARC
  5
23DFF
  8
0
 10
3234.4829326817698529
 20
164.8915037316110954
 30
0.0
 40
0.0178640759675567
 50
164.236948214583407
 51
204.7799251609455951
  0
LINE
  5
23E00
  8
0
 10
3234.4657404133508862
 20
164.8963566808947974
 30
0.0
 11
3234.4772771899470172
 21
164.9548657919505956
 31
0.0
  0
ARC
  5
23E01
  8
0
 10
3234.4966067367740834
 20
164.796847748166897
 30
0.0
 40
0.1591958967491545
 50
55.6709648143600191
 51
96.974055021960325
  0
ARC
  5
23E02
  8
0
 10
3234.5677901818808095
 20
164.9010852672664953
 30
0.0
 40
0.0329717182200644
 50
16.6037182390753983
 51
55.670964814338511
  0
ARC
  5
23E03
  8
0
 10
3234.5742436509049185
 20
164.9385030129078018
 30
0.0
 40
0.037629422784744
 50
279.5239755701587114
 51
311.9272339927143207
  0
ARC
  5
23E04
  8
0
 10
3234.4922720280378599
 20
164.8867365491736052
 30
0.0
 40
0.069759865902565
 50
102.4125560169804032
 51
121.3638109426497067
  0
ARC
  5
23E05
  8
0
 10
3234.4809201689740803
 20
164.9526496421962065
 30
0.0
 40
0.0257504255034673
 50
194.2683662921255916
 51
249.9027062025297141
  0
ARC
  5
23E06
  8
0
 10
3234.507527826192927
 20
164.8293088251060965
 30
0.0
 40
0.0501195579441056
 50
45.0498235337891586
 51
108.3792132650284969
  0
ARC
  5
23E07
  8
0
 10
3234.5267328786749204
 20
164.9106440169578036
 30
0.0
 40
0.0486428058492108
 50
223.9706662429439064
 51
289.4583864599312051
  0
LINE
  5
23E08
  8
0
 10
3234.9704252169472056
 20
164.73315909825061
 30
0.0
 11
3234.9571622499970545
 21
164.6727898576006055
 31
0.0
  0
ARC
  5
23E09
  8
0
 10
3234.9436291081688069
 20
164.675763054063907
 30
0.0
 40
0.0138558949531247
 50
296.641873118728995
 51
347.6091182453084798
  0
ARC
  5
23E0A
  8
0
 10
3234.9281948154862221
 20
164.7065284449163869
 30
0.0
 40
0.0482757535365454
 50
268.7099254804185762
 51
296.641873118728995
  0
ARC
  5
23E0B
  8
0
 10
3234.9302088349850237
 20
164.7959615079003015
 30
0.0
 40
0.1377314913581921
 50
242.9176975871646107
 51
268.7099254804185762
  0
ARC
  5
23E0C
  8
0
 10
3234.8866545004279942
 20
164.7107840084827899
 30
0.0
 40
0.0420644308535658
 50
211.4101732920017014
 51
242.9176975871639002
  0
ARC
  5
23E0D
  8
0
 10
3234.8669734940708622
 20
164.6963491017110925
 30
0.0
 40
0.0178640759675567
 50
164.236948214583407
 51
204.7799251609455951
  0
LINE
  5
23E0E
  8
0
 10
3234.8497812256500765
 20
164.7012020509947945
 30
0.0
 11
3234.861318002247117
 21
164.7597111620505927
 31
0.0
  0
ARC
  5
23E0F
  8
0
 10
3234.8806475490741832
 20
164.6016931182668941
 30
0.0
 40
0.1591958967491545
 50
55.6709648143600191
 51
96.974055021960325
  0
ARC
  5
23E10
  8
0
 10
3234.9518309941809093
 20
164.7059306373664072
 30
0.0
 40
0.0329717182200644
 50
16.6037182390753983
 51
55.670964814338511
  0
ARC
  5
23E11
  8
0
 10
3234.9582844632059278
 20
164.7433483830077989
 30
0.0
 40
0.037629422784744
 50
279.5239755701587114
 51
311.9272339927143207
  0
ARC
  5
23E12
  8
0
 10
3234.8763128403379596
 20
164.6915819192736024
 30
0.0
 40
0.069759865902565
 50
102.4125560169804032
 51
121.3638109426497067
  0
ARC
  5
23E13
  8
0
 10
3234.8649609812741801
 20
164.7574950122962036
 30
0.0
 40
0.0257504255034673
 50
194.2683662921255916
 51
249.9027062025297141
  0
ARC
  5
23E14
  8
0
 10
3234.8915686384930268
 20
164.6341541952060936
 30
0.0
 40
0.0501195579441056
 50
45.0498235337891586
 51
108.3792132650284969
  0
ARC
  5
23E15
  8
0
 10
3234.9107736909750201
 20
164.7154893870578007
 30
0.0
 40
0.0486428058492108
 50
223.9706662429439064
 51
289.4583864599312051
  0
LINE
  5
23E16
  8
0
 10
3235.3361166963700271
 20
164.5658645029745912
 30
0.0
 11
3235.3228537294198759
 21
164.5054952623245867
 31
0.0
  0
ARC
  5
23E17
  8
0
 10
3235.309320587592083
 20
164.508468458788002
 30
0.0
 40
0.0138558949531247
 50
296.641873118728995
 51
347.6091182453084798
  0
ARC
  5
23E18
  8
0
 10
3235.2938862949090435
 20
164.5392338496405102
 30
0.0
 40
0.0482757535365454
 50
268.7099254804185762
 51
296.641873118728995
  0
ARC
  5
23E19
  8
0
 10
3235.2959003144069356
 20
164.6286669126243112
 30
0.0
 40
0.1377314913581921
 50
242.9176975871646107
 51
268.7099254804185762
  0
ARC
  5
23E1A
  8
0
 10
3235.2523459798508156
 20
164.5434894132069132
 30
0.0
 40
0.0420644308535658
 50
211.4101732920017014
 51
242.9176975871639002
  0
ARC
  5
23E1B
  8
0
 10
3235.2326649734927742
 20
164.5290545064351022
 30
0.0
 40
0.0178640759675567
 50
164.236948214583407
 51
204.7799251609455951
  0
LINE
  5
23E1C
  8
0
 10
3235.215472705072898
 20
164.5339074557188894
 30
0.0
 11
3235.2270094816699384
 21
164.5924165667746024
 31
0.0
  0
ARC
  5
23E1D
  8
0
 10
3235.2463390284970046
 20
164.4343985229909038
 30
0.0
 40
0.1591958967491545
 50
55.6709648143600191
 51
96.974055021960325
  0
ARC
  5
23E1E
  8
0
 10
3235.3175224736041855
 20
164.5386360420905021
 30
0.0
 40
0.0329717182200644
 50
16.6037182390753983
 51
55.670964814338511
  0
ARC
  5
23E1F
  8
0
 10
3235.3239759426278397
 20
164.5760537877318939
 30
0.0
 40
0.037629422784744
 50
279.5239755701587114
 51
311.9272339927143207
  0
ARC
  5
23E20
  8
0
 10
3235.2420043197607811
 20
164.5242873239976973
 30
0.0
 40
0.069759865902565
 50
102.4125560169804032
 51
121.3638109426497067
  0
ARC
  5
23E21
  8
0
 10
3235.2306524606970015
 20
164.5902004170202986
 30
0.0
 40
0.0257504255034673
 50
194.2683662921255916
 51
249.9027062025297141
  0
ARC
  5
23E22
  8
0
 10
3235.2572601179158482
 20
164.4668595999301886
 30
0.0
 40
0.0501195579441056
 50
45.0498235337891586
 51
108.3792132650284969
  0
ARC
  5
23E23
  8
0
 10
3235.2764651703978416
 20
164.5481947917818104
 30
0.0
 40
0.0486428058492108
 50
223.9706662429439064
 51
289.4583864599312051
  0
LINE
  5
23E24
  8
0
 10
3235.4509871598847894
 20
164.706496556806087
 30
0.0
 11
3235.4377241929341835
 21
164.6461273161561962
 31
0.0
  0
ARC
  5
23E25
  8
0
 10
3235.4241910511059359
 20
164.6491005126194977
 30
0.0
 40
0.0138558949531247
 50
296.641873118728995
 51
347.6091182453084798
  0
ARC
  5
23E26
  8
0
 10
3235.4087567584238059
 20
164.679865903472006
 30
0.0
 40
0.0482757535365454
 50
268.7099254804185762
 51
296.641873118728995
  0
ARC
  5
23E27
  8
0
 10
3235.4107707779221528
 20
164.769298966455807
 30
0.0
 40
0.1377314913581921
 50
242.9176975871646107
 51
268.7099254804185762
  0
ARC
  5
23E28
  8
0
 10
3235.3672164433660328
 20
164.684121467038409
 30
0.0
 40
0.0420644308535658
 50
211.4101732920017014
 51
242.9176975871639002
  0
ARC
  5
23E29
  8
0
 10
3235.3475354370079913
 20
164.6696865602667117
 30
0.0
 40
0.0178640759675567
 50
164.236948214583407
 51
204.7799251609455951
  0
LINE
  5
23E2A
  8
0
 10
3235.3303431685881151
 20
164.6745395095504136
 30
0.0
 11
3235.3418799451851555
 21
164.7330486206060982
 31
0.0
  0
ARC
  5
23E2B
  8
0
 10
3235.3612094920122217
 20
164.5750305768223996
 30
0.0
 40
0.1591958967491545
 50
55.6709648143600191
 51
96.974055021960325
  0
ARC
  5
23E2C
  8
0
 10
3235.4323929371189479
 20
164.6792680959219979
 30
0.0
 40
0.0329717182200644
 50
16.6037182390753983
 51
55.670964814338511
  0
ARC
  5
23E2D
  8
0
 10
3235.4388464061430568
 20
164.7166858415633897
 30
0.0
 40
0.037629422784744
 50
279.5239755701587114
 51
311.9272339927143207
  0
ARC
  5
23E2E
  8
0
 10
3235.3568747832750887
 20
164.6649193778291931
 30
0.0
 40
0.069759865902565
 50
102.4125560169804032
 51
121.3638109426497067
  0
ARC
  5
23E2F
  8
0
 10
3235.3455229242122186
 20
164.7308324708517944
 30
0.0
 40
0.0257504255034673
 50
194.2683662921255916
 51
249.9027062025297141
  0
ARC
  5
23E30
  8
0
 10
3235.3721305814301559
 20
164.6074916537617128
 30
0.0
 40
0.0501195579441056
 50
45.0498235337891586
 51
108.3792132650284969
  0
ARC
  5
23E31
  8
0
 10
3235.3913356339130587
 20
164.6888268456133915
 30
0.0
 40
0.0486428058492108
 50
223.9706662429439064
 51
289.4583864599312051
  0
LINE
  5
23E32
  8
0
 10
3235.8217090255370749
 20
164.5279816323316879
 30
0.0
 11
3235.8084460585869238
 21
164.4676123916817119
 31
0.0
  0
ARC
  5
23E33
  8
0
 10
3235.7949129167591309
 20
164.4705855881450134
 30
0.0
 40
0.0138558949531247
 50
296.641873118728995
 51
347.6091182453084798
  0
ARC
  5
23E34
  8
0
 10
3235.7794786240779104
 20
164.5013509789974933
 30
0.0
 40
0.0482757535365454
 50
268.7099254804185762
 51
296.641873118728995
  0
ARC
  5
23E35
  8
0
 10
3235.781492643574893
 20
164.5907840419814079
 30
0.0
 40
0.1377314913581921
 50
242.9176975871646107
 51
268.7099254804185762
  0
ARC
  5
23E36
  8
0
 10
3235.737938309018773
 20
164.5056065425640099
 30
0.0
 40
0.0420644308535658
 50
211.4101732920017014
 51
242.9176975871639002
  0
ARC
  5
23E37
  8
0
 10
3235.7182573026611863
 20
164.4911716357921989
 30
0.0
 40
0.0178640759675567
 50
164.236948214583407
 51
204.7799251609455951
  0
LINE
  5
23E38
  8
0
 10
3235.7010650342422196
 20
164.4960245850759009
 30
0.0
 11
3235.7126018108369863
 21
164.5545336961316991
 31
0.0
  0
ARC
  5
23E39
  8
0
 10
3235.731931357664962
 20
164.3965156523480005
 30
0.0
 40
0.1591958967491545
 50
55.6709648143600191
 51
96.974055021960325
  0
ARC
  5
23E3A
  8
0
 10
3235.8031148027707786
 20
164.5007531714475135
 30
0.0
 40
0.0329717182200644
 50
16.6037182390753983
 51
55.670964814338511
  0
ARC
  5
23E3B
  8
0
 10
3235.809568271795797
 20
164.5381709170889053
 30
0.0
 40
0.037629422784744
 50
279.5239755701587114
 51
311.9272339927143207
  0
ARC
  5
23E3C
  8
0
 10
3235.7275966489291932
 20
164.4864044533547087
 30
0.0
 40
0.069759865902565
 50
102.4125560169804032
 51
121.3638109426497067
  0
ARC
  5
23E3D
  8
0
 10
3235.7162447898649589
 20
164.55231754637731
 30
0.0
 40
0.0257504255034673
 50
194.2683662921255916
 51
249.9027062025297141
  0
ARC
  5
23E3E
  8
0
 10
3235.7428524470838056
 20
164.4289767292872
 30
0.0
 40
0.0501195579441056
 50
45.0498235337891586
 51
108.3792132650284969
  0
ARC
  5
23E3F
  8
0
 10
3235.7620574995657989
 20
164.5103119211389071
 30
0.0
 40
0.0486428058492108
 50
223.9706662429439064
 51
289.4583864599312051
  0
LINE
  5
23E40
  8
0
 10
3235.7030586348610086
 20
164.418873505088186
 30
0.0
 11
3235.6897956679108574
 21
164.3585042644382099
 31
0.0
  0
ARC
  5
23E41
  8
0
 10
3235.6762625260830646
 20
164.3614774609015114
 30
0.0
 40
0.0138558949531247
 50
296.641873118728995
 51
347.6091182453084798
  0
ARC
  5
23E42
  8
0
 10
3235.6608282334009346
 20
164.3922428517539913
 30
0.0
 40
0.0482757535365454
 50
268.7099254804185762
 51
296.641873118728995
  0
ARC
  5
23E43
  8
0
 10
3235.6628422528988267
 20
164.4816759147379059
 30
0.0
 40
0.1377314913581921
 50
242.9176975871646107
 51
268.7099254804185762
  0
ARC
  5
23E44
  8
0
 10
3235.6192879183431614
 20
164.3964984153203943
 30
0.0
 40
0.0420644308535658
 50
211.4101732920017014
 51
242.9176975871639002
  0
ARC
  5
23E45
  8
0
 10
3235.5996069119860294
 20
164.382063508548697
 30
0.0
 40
0.0178640759675567
 50
164.236948214583407
 51
204.7799251609455951
  0
LINE
  5
23E46
  8
0
 10
3235.582414643564789
 20
164.3869164578323989
 30
0.0
 11
3235.5939514201618294
 21
164.4454255688881119
 31
0.0
  0
ARC
  5
23E47
  8
0
 10
3235.6132809669888957
 20
164.2874075251044133
 30
0.0
 40
0.1591958967491545
 50
55.6709648143600191
 51
96.974055021960325
  0
ARC
  5
23E48
  8
0
 10
3235.6844644120951671
 20
164.3916450442040116
 30
0.0
 40
0.0329717182200644
 50
16.6037182390753983
 51
55.670964814338511
  0
ARC
  5
23E49
  8
0
 10
3235.6909178811201855
 20
164.4290627898454034
 30
0.0
 40
0.037629422784744
 50
279.5239755701587114
 51
311.9272339927143207
  0
ARC
  5
23E4A
  8
0
 10
3235.6089462582531269
 20
164.3772963261112068
 30
0.0
 40
0.069759865902565
 50
102.4125560169804032
 51
121.3638109426497067
  0
ARC
  5
23E4B
  8
0
 10
3235.5975943991888926
 20
164.4432094191338081
 30
0.0
 40
0.0257504255034673
 50
194.2683662921255916
 51
249.9027062025297141
  0
ARC
  5
23E4C
  8
0
 10
3235.624202056408194
 20
164.319868602043698
 30
0.0
 40
0.0501195579441056
 50
45.0498235337891586
 51
108.3792132650284969
  0
ARC
  5
23E4D
  8
0
 10
3235.6434071088910969
 20
164.4012037938954052
 30
0.0
 40
0.0486428058492108
 50
223.9706662429439064
 51
289.4583864599312051
  0
LINE
  5
23E4E
  8
0
 10
3236.2001793163371985
 20
164.3887698803276862
 30
0.0
 11
3236.1869163493870474
 21
164.3284006396777102
 31
0.0
  0
ARC
  5
23E4F
  8
0
 10
3236.1733832075587998
 20
164.3313738361410969
 30
0.0
 40
0.0138558949531247
 50
296.641873118728995
 51
347.6091182453084798
  0
ARC
  5
23E50
  8
0
 10
3236.1579489148771245
 20
164.3621392269936052
 30
0.0
 40
0.0482757535365454
 50
268.7099254804185762
 51
296.641873118728995
  0
ARC
  5
23E51
  8
0
 10
3236.1599629343750166
 20
164.4515722899774062
 30
0.0
 40
0.1377314913581921
 50
242.9176975871646107
 51
268.7099254804185762
  0
ARC
  5
23E52
  8
0
 10
3236.1164085998188966
 20
164.3663947905600082
 30
0.0
 40
0.0420644308535658
 50
211.4101732920017014
 51
242.9176975871639002
  0
ARC
  5
23E53
  8
0
 10
3236.0967275934608551
 20
164.3519598837881972
 30
0.0
 40
0.0178640759675567
 50
164.236948214583407
 51
204.7799251609455951
  0
LINE
  5
23E54
  8
0
 10
3236.0795353250409789
 20
164.3568128330720128
 30
0.0
 11
3236.0910721016380194
 21
164.4153219441276974
 31
0.0
  0
ARC
  5
23E55
  8
0
 10
3236.1104016484650856
 20
164.2573039003439987
 30
0.0
 40
0.1591958967491545
 50
55.6709648143600191
 51
96.974055021960325
  0
ARC
  5
23E56
  8
0
 10
3236.1815850935718117
 20
164.3615414194435971
 30
0.0
 40
0.0329717182200644
 50
16.6037182390753983
 51
55.670964814338511
  0
ARC
  5
23E57
  8
0
 10
3236.1880385625950112
 20
164.3989591650849889
 30
0.0
 40
0.037629422784744
 50
279.5239755701587114
 51
311.9272339927143207
  0
ARC
  5
23E58
  8
0
 10
3236.1060669397279526
 20
164.3471927013507923
 30
0.0
 40
0.069759865902565
 50
102.4125560169804032
 51
121.3638109426497067
  0
ARC
  5
23E59
  8
0
 10
3236.094715080664173
 20
164.4131057943733936
 30
0.0
 40
0.0257504255034673
 50
194.2683662921255916
 51
249.9027062025297141
  0
ARC
  5
23E5A
  8
0
 10
3236.1213227378830197
 20
164.289764977283312
 30
0.0
 40
0.0501195579441056
 50
45.0498235337891586
 51
108.3792132650284969
  0
ARC
  5
23E5B
  8
0
 10
3236.1405277903659226
 20
164.3711001691349054
 30
0.0
 40
0.0486428058492108
 50
223.9706662429439064
 51
289.4583864599312051
  0
LINE
  5
23E5C
  8
0
 10
3236.0963528580041384
 20
164.2884124934024896
 30
0.0
 11
3236.0830898910539872
 21
164.2280432527525136
 31
0.0
  0
ARC
  5
23E5D
  8
0
 10
3236.0695567492261944
 20
164.2310164492159004
 30
0.0
 40
0.0138558949531247
 50
296.641873118728995
 51
347.6091182453084798
  0
ARC
  5
23E5E
  8
0
 10
3236.0541224565440643
 20
164.261781840068295
 30
0.0
 40
0.0482757535365454
 50
268.7099254804185762
 51
296.641873118728995
  0
ARC
  5
23E5F
  8
0
 10
3236.0561364760419565
 20
164.3512149030522096
 30
0.0
 40
0.1377314913581921
 50
242.9176975871646107
 51
268.7099254804185762
  0
ARC
  5
23E60
  8
0
 10
3236.0125821414858365
 20
164.2660374036348117
 30
0.0
 40
0.0420644308535658
 50
211.4101732920017014
 51
242.9176975871639002
  0
ARC
  5
23E61
  8
0
 10
3235.992901135127795
 20
164.2516024968630006
 30
0.0
 40
0.0178640759675567
 50
164.236948214583407
 51
204.7799251609455951
  0
LINE
  5
23E62
  8
0
 10
3235.9757088667079188
 20
164.2564554461467026
 30
0.0
 11
3235.9872456433040497
 21
164.3149645572025008
 31
0.0
  0
ARC
  5
23E63
  8
0
 10
3236.006575190131116
 20
164.1569465134188022
 30
0.0
 40
0.1591958967491545
 50
55.6709648143600191
 51
96.974055021960325
  0
ARC
  5
23E64
  8
0
 10
3236.0777586352378421
 20
164.2611840325184005
 30
0.0
 40
0.0329717182200644
 50
16.6037182390753983
 51
55.670964814338511
  0
ARC
  5
23E65
  8
0
 10
3236.0842121042628605
 20
164.298601778159707
 30
0.0
 40
0.037629422784744
 50
279.5239755701587114
 51
311.9272339927143207
  0
ARC
  5
23E66
  8
0
 10
3236.0022404813958019
 20
164.2468353144255957
 30
0.0
 40
0.069759865902565
 50
102.4125560169804032
 51
121.3638109426497067
  0
ARC
  5
23E67
  8
0
 10
3235.9908886223320224
 20
164.3127484074481117
 30
0.0
 40
0.0257504255034673
 50
194.2683662921255916
 51
249.9027062025297141
  0
ARC
  5
23E68
  8
0
 10
3236.0174962795508691
 20
164.1894075903580017
 30
0.0
 40
0.0501195579441056
 50
45.0498235337891586
 51
108.3792132650284969
  0
ARC
  5
23E69
  8
0
 10
3236.0367013320328624
 20
164.2707427822097088
 30
0.0
 40
0.0486428058492108
 50
223.9706662429439064
 51
289.4583864599312051
  0
LINE
  5
23E6A
  8
0
 10
3235.6128991868331468
 20
164.3385144608859889
 30
0.0
 11
3235.6005833259478095
 21
164.2797534399549875
 31
0.0
  0
ARC
  5
23E6B
  8
0
 10
3235.5842527314448489
 20
164.2831762077503015
 30
0.0
 40
0.016685432454459
 50
286.5401635062037826
 51
348.1625924233708815
  0
ARC
  5
23E6C
  8
0
 10
3235.5583745199078294
 20
164.3916508562926992
 30
0.0
 40
0.1281826348490979
 50
243.5332710078465936
 51
283.8241640007407227
  0
ARC
  5
23E6D
  8
0
 10
3235.5113831800349544
 20
164.2950532184468955
 30
0.0
 40
0.0207894193826536
 50
176.3679868974707006
 51
240.8172715023827948
  0
LINE
  5
23E6E
  8
0
 10
3235.490635516419843
 20
164.2963701895216104
 30
0.0
 11
3235.5014405083138627
 21
164.3506461819877984
 31
0.0
  0
ARC
  5
23E6F
  8
0
 10
3235.533864267169065
 20
164.1304632005303006
 30
0.0
 40
0.2225575104593132
 50
69.1991192520463017
 51
98.3770697940335026
  0
ARC
  5
23E70
  8
0
 10
3235.5960404987999937
 20
164.2941357064320869
 30
0.0
 40
0.0474730366528688
 50
35.7823467246278426
 51
69.1991192520463017
  0
ARC
  5
23E71
  8
0
 10
3235.596932793886026
 20
164.3672023529499882
 30
0.0
 40
0.0588909611827347
 50
279.5874595850265223
 51
309.7028715244080104
  0
ARC
  5
23E72
  8
0
 10
3235.5199332663041787
 20
164.2832430510040922
 30
0.0
 40
0.0698939494125451
 50
105.3421821661391959
 51
128.4060254532344914
  0
ARC
  5
23E73
  8
0
 10
3235.5112176571687996
 20
164.3643272446103083
 30
0.0
 40
0.0435522914862035
 50
217.169701874538589
 51
249.6014384810465003
  0
ARC
  5
23E74
  8
0
 10
3235.5355282051241375
 20
164.2210520049144975
 30
0.0
 40
0.0632459323759302
 50
55.4782455943203701
 51
109.5923690915133051
  0
ARC
  5
23E75
  8
0
 10
3235.5507243459360325
 20
164.3370304194179994
 30
0.0
 40
0.0671236065126928
 50
237.1565783688660929
 51
287.9140411466364071
  0
LINE
  5
23E76
  8
0
 10
3235.5144406590197832
 20
164.2690697499166959
 30
0.0
 11
3235.5021247981349006
 21
164.2103087289856944
 31
0.0
  0
ARC
  5
23E77
  8
0
 10
3235.4857942036328495
 20
164.2137314967810084
 30
0.0
 40
0.016685432454459
 50
286.5401635062037826
 51
348.1625924233708815
  0
ARC
  5
23E78
  8
0
 10
3235.4599159920949205
 20
164.3222061453234062
 30
0.0
 40
0.1281826348490979
 50
243.5332710078465936
 51
283.8241640007407227
  0
ARC
  5
23E79
  8
0
 10
3235.4129246522220456
 20
164.2256085074776024
 30
0.0
 40
0.0207894193826536
 50
176.3679868974707006
 51
240.8172715023827948
  0
LINE
  5
23E7A
  8
0
 10
3235.3921769886078437
 20
164.226925478552289
 30
0.0
 11
3235.4029819805009538
 21
164.2812014710185053
 31
0.0
  0
ARC
  5
23E7B
  8
0
 10
3235.4354057393570656
 20
164.0610184895610075
 30
0.0
 40
0.2225575104593132
 50
69.1991192520463017
 51
98.3770697940335026
  0
ARC
  5
23E7C
  8
0
 10
3235.4975819709879943
 20
164.2246909954627938
 30
0.0
 40
0.0474730366528688
 50
35.7823467246278426
 51
69.1991192520463017
  0
ARC
  5
23E7D
  8
0
 10
3235.4984742660731172
 20
164.2977576419806951
 30
0.0
 40
0.0588909611827347
 50
279.5874595850265223
 51
309.7028715244080104
  0
ARC
  5
23E7E
  8
0
 10
3235.4214747384908151
 20
164.2137983400347991
 30
0.0
 40
0.0698939494125451
 50
105.3421821661391959
 51
128.4060254532344914
  0
ARC
  5
23E7F
  8
0
 10
3235.4127591293558908
 20
164.2948825336409868
 30
0.0
 40
0.0435522914862035
 50
217.169701874538589
 51
249.6014384810465003
  0
ARC
  5
23E80
  8
0
 10
3235.4370696773098643
 20
164.1516072939452044
 30
0.0
 40
0.0632459323759302
 50
55.4782455943203701
 51
109.5923690915133051
  0
ARC
  5
23E81
  8
0
 10
3235.4522658181231236
 20
164.2675857084487063
 30
0.0
 40
0.0671236065126928
 50
237.1565783688660929
 51
287.9140411466364071
  0
LINE
  5
23E82
  8
0
 10
3235.423225597704004
 20
164.1993867541984002
 30
0.0
 11
3235.4164390318510414
 21
164.167006919619098
 31
0.0
  0
ARC
  5
23E83
  8
0
 10
3235.4001084373480808
 20
164.170429687414412
 30
0.0
 40
0.016685432454459
 50
286.5401635062037826
 51
348.1625924233708815
  0
ARC
  5
23E84
  8
0
 10
3235.3742302258101518
 20
164.2789043359568097
 30
0.0
 40
0.1281826348490979
 50
243.5332710078465936
 51
283.8241640007407227
  0
ARC
  5
23E85
  8
0
 10
3235.3272388859381863
 20
164.182306698111006
 30
0.0
 40
0.0207894193826536
 50
176.3679868974707006
 51
240.8172715023827948
  0
LINE
  5
23E86
  8
0
 10
3235.3064912223230749
 20
164.1836236691856925
 30
0.0
 11
3235.3172962142170945
 21
164.2378996616519089
 31
0.0
  0
ARC
  5
23E87
  8
0
 10
3235.3497199730718421
 20
164.0177166801944111
 30
0.0
 40
0.2225575104593132
 50
78.5368306331343717
 51
98.3770697940335026
  0
ARC
  5
23E88
  8
0
 10
3235.4127884997888032
 20
164.2544558326140987
 30
0.0
 40
0.0588909611827347
 50
279.5874595850265223
 51
285.9170999104820794
  0
ARC
  5
23E89
  8
0
 10
3235.3357889722060463
 20
164.170496530668089
 30
0.0
 40
0.0698939494125451
 50
105.3421821661391959
 51
128.4060254532344914
  0
ARC
  5
23E8A
  8
0
 10
3235.3270733630720315
 20
164.2515807242743904
 30
0.0
 40
0.0435522914862035
 50
217.169701874538589
 51
249.6014384810465003
  0
ARC
  5
23E8B
  8
0
 10
3235.3513839110269146
 20
164.108305484578608
 30
0.0
 40
0.0632459323759302
 50
55.4782455943203701
 51
109.5923690915133051
  0
ARC
  5
23E8C
  8
0
 10
3235.3665800518379001
 20
164.2242838990821099
 30
0.0
 40
0.0671236065126928
 50
237.1565783688660929
 51
287.9140411466364071
  0
LINE
  5
23E8D
  8
0
 10
3235.9980074432010042
 20
164.2196087459971068
 30
0.0
 11
3235.9856915823170311
 21
164.1608477250661053
 31
0.0
  0
ARC
  5
23E8E
  8
0
 10
3235.9693609878140705
 20
164.1642704928613909
 30
0.0
 40
0.016685432454459
 50
286.5401635062037826
 51
348.1625924233708815
  0
ARC
  5
23E8F
  8
0
 10
3235.9434827762761415
 20
164.2727451414037887
 30
0.0
 40
0.1281826348490979
 50
243.5332710078465936
 51
283.8241640007407227
  0
ARC
  5
23E90
  8
0
 10
3235.8964914364028118
 20
164.1761475035578997
 30
0.0
 40
0.0207894193826536
 50
176.3679868974707006
 51
240.8172715023827948
  0
LINE
  5
23E91
  8
0
 10
3235.8757437727890647
 20
164.1774644746325862
 30
0.0
 11
3235.8865487646821748
 21
164.2317404670988878
 31
0.0
  0
ARC
  5
23E92
  8
0
 10
3235.9189725235369224
 20
164.0115574856413048
 30
0.0
 40
0.2225575104593132
 50
69.1991192520463017
 51
98.3770697940335026
  0
ARC
  5
23E93
  8
0
 10
3235.9811487551701248
 20
164.1752299915432047
 30
0.0
 40
0.0474730366528688
 50
35.7823467246278426
 51
69.1991192520463017
  0
ARC
  5
23E94
  8
0
 10
3235.9820410502547929
 20
164.248296638061106
 30
0.0
 40
0.0588909611827347
 50
279.5874595850265223
 51
309.7028715244080104
  0
ARC
  5
23E95
  8
0
 10
3235.9050415226720361
 20
164.1643373361150964
 30
0.0
 40
0.0698939494125451
 50
105.3421821661391959
 51
128.4060254532344914
  0
ARC
  5
23E96
  8
0
 10
3235.8963259135371118
 20
164.2454215297213977
 30
0.0
 40
0.0435522914862035
 50
217.169701874538589
 51
249.6014384810465003
  0
ARC
  5
23E97
  8
0
 10
3235.9206364614919949
 20
164.1021462900255869
 30
0.0
 40
0.0632459323759302
 50
55.4782455943203701
 51
109.5923690915133051
  0
ARC
  5
23E98
  8
0
 10
3235.9358326023038899
 20
164.2181247045290888
 30
0.0
 40
0.0671236065126928
 50
237.1565783688660929
 51
287.9140411466364071
  0
LINE
  5
23E99
  8
0
 10
3235.8993944254089001
 20
164.1523831657023038
 30
0.0
 11
3235.8886878029038598
 21
164.1013000887595013
 31
0.0
  0
ARC
  5
23E9A
  8
0
 10
3235.8723572083999898
 20
164.1047228565547869
 30
0.0
 40
0.016685432454459
 50
286.5401635062037826
 51
348.1625924233708815
  0
ARC
  5
23E9B
  8
0
 10
3235.8464789968629702
 20
164.213197505097213
 30
0.0
 40
0.1281826348490979
 50
243.5332710078465936
 51
283.8241640007407227
  0
ARC
  5
23E9C
  8
0
 10
3235.7994876569900953
 20
164.1165998672512956
 30
0.0
 40
0.0207894193826536
 50
176.3679868974707006
 51
240.8172715023827948
  0
LINE
  5
23E9D
  8
0
 10
3235.7787399933768029
 20
164.1179168383260105
 30
0.0
 11
3235.7895449852690035
 21
164.1721928307923122
 31
0.0
  0
ARC
  5
23E9E
  8
0
 10
3235.8219687441242058
 20
163.9520098493347007
 30
0.0
 40
0.2225575104593132
 50
75.5292293917295439
 51
98.3770697940335026
  0
ARC
  5
23E9F
  8
0
 10
3235.884144975756044
 20
164.1156823552366006
 30
0.0
 40
0.0474730366528688
 50
35.7823467246278426
 51
40.8273938384772208
  0
ARC
  5
23EA0
  8
0
 10
3235.8850372708411669
 20
164.1887490017545019
 30
0.0
 40
0.0588909611827347
 50
279.5874595850265223
 51
309.7028715244080104
  0
ARC
  5
23EA1
  8
0
 10
3235.8080377432588648
 20
164.1047896998084923
 30
0.0
 40
0.0698939494125451
 50
105.3421821661391959
 51
128.4060254532344914
  0
ARC
  5
23EA2
  8
0
 10
3235.7993221341239405
 20
164.1858738934147937
 30
0.0
 40
0.0435522914862035
 50
217.169701874538589
 51
249.6014384810465003
  0
ARC
  5
23EA3
  8
0
 10
3235.8236326820788236
 20
164.0425986537190113
 30
0.0
 40
0.0632459323759302
 50
55.4782455943203701
 51
109.5923690915133051
  0
ARC
  5
23EA4
  8
0
 10
3235.8388288228911733
 20
164.1585770682225132
 30
0.0
 40
0.0671236065126928
 50
237.1565783688660929
 51
287.9140411466364071
  0
LINE
  5
23EA5
  8
0
 10
3235.9589941219769571
 20
164.6706871030249033
 30
0.0
 11
3235.9459347680808605
 21
164.6124719873415927
 31
0.0
  0
ARC
  5
23EA6
  8
0
 10
3235.9297101089250646
 20
164.6207070902937915
 30
0.0
 40
0.0181949576902993
 50
290.1051342130388093
 51
333.0891500843010249
  0
ARC
  5
23EA7
  8
0
 10
3235.9142246554879421
 20
164.6675243660010892
 30
0.0
 40
0.0675002086693982
 50
270.9633420845908063
 51
288.7882151162518198
  0
ARC
  5
23EA8
  8
0
 10
3235.9042727381188342
 20
164.909424766933796
 30
0.0
 40
0.3095896480150382
 50
252.1511296973222898
 51
272.0522696647147995
  0
ARC
  5
23EA9
  8
0
 10
3235.8427951044950532
 20
164.6732929951903941
 30
0.0
 40
0.0674194691817156
 50
231.6635395935857957
 51
240.2899259988373046
  0
ARC
  5
23EAA
  8
0
 10
3235.8107676304421148
 20
164.6304780968330022
 30
0.0
 40
0.0140438403945994
 50
170.6008714632324939
 51
225.7972434477950969
  0
LINE
  5
23EAB
  8
0
 10
3235.7969123335810764
 20
164.6327716098415976
 30
0.0
 11
3235.8070671235809641
 21
164.686333111641602
 31
0.0
  0
ARC
  5
23EAC
  8
0
 10
3235.8483841100110112
 20
164.3420830472205125
 30
0.0
 40
0.3467206371677323
 50
71.3964714873570756
 51
96.8439184307533338
  0
ARC
  5
23EAD
  8
0
 10
3235.9465775398948608
 20
164.6337994907842983
 30
0.0
 40
0.0389212981204972
 50
37.1681639777221235
 51
71.3964714873570756
  0
ARC
  5
23EAE
  8
0
 10
3235.9242082179662248
 20
164.847937933136194
 30
0.0
 40
0.1979579711658759
 50
278.8987212511793246
 51
285.6449448955215189
  0
ARC
  5
23EAF
  8
0
 10
3235.8099619099261872
 20
164.6371883421180939
 30
0.0
 40
0.0492299518535129
 50
93.3710121956104047
 51
124.029942917526995
  0
ARC
  5
23EB0
  8
0
 10
3235.8188144516288958
 20
164.7193675729112954
 30
0.0
 40
0.0551134093629392
 50
228.6612909053530984
 51
253.6506707807544103
  0
ARC
  5
23EB1
  8
0
 10
3235.8583802710932105
 20
164.5257377486040866
 30
0.0
 40
0.091956116629597
 50
64.9809760959813048
 51
101.4409572179665986
  0
ARC
  5
23EB2
  8
0
 10
3235.8818004414401912
 20
164.7224654605010983
 30
0.0
 40
0.1144503946470997
 50
248.6536985919528888
 51
277.7682347219945882
  0
LINE
  5
23EB3
  8
0
 10
3236.3306820058301128
 20
164.5227613458579867
 30
0.0
 11
3236.3176226519331067
 21
164.4645462301747045
 31
0.0
  0
ARC
  5
23EB4
  8
0
 10
3236.3013979927782202
 20
164.4727813331269033
 30
0.0
 40
0.0181949576902993
 50
290.1051342130388093
 51
333.0891500843010249
  0
ARC
  5
23EB5
  8
0
 10
3236.2859125393401882
 20
164.5195986088342011
 30
0.0
 40
0.0675002086693982
 50
270.9633420845908063
 51
288.7882151162518198
  0
ARC
  5
23EB6
  8
0
 10
3236.2759606219710804
 20
164.7614990097669079
 30
0.0
 40
0.3095896480150382
 50
252.1511296973222898
 51
272.0522696647147995
  0
ARC
  5
23EB7
  8
0
 10
3236.2144829883468446
 20
164.5253672380235059
 30
0.0
 40
0.0674194691817156
 50
231.6635395935857957
 51
240.2899259988373046
  0
ARC
  5
23EB8
  8
0
 10
3236.1824555142948157
 20
164.482552339666114
 30
0.0
 40
0.0140438403945994
 50
170.6008714632324939
 51
225.7972434477950969
  0
LINE
  5
23EB9
  8
0
 10
3236.1686002174328678
 20
164.4848458526747095
 30
0.0
 11
3236.1787550074332103
 21
164.5384073544747139
 31
0.0
  0
ARC
  5
23EBA
  8
0
 10
3236.2200719938641669
 20
164.1941572900537096
 30
0.0
 40
0.3467206371677323
 50
71.3964714873570756
 51
96.8439184307533338
  0
ARC
  5
23EBB
  8
0
 10
3236.3182654237480165
 20
164.4858737336174102
 30
0.0
 40
0.0389212981204972
 50
37.1681639777221235
 51
71.3964714873570756
  0
ARC
  5
23EBC
  8
0
 10
3236.2958961018180162
 20
164.7000121759693059
 30
0.0
 40
0.1979579711658759
 50
278.8987212511793246
 51
285.6449448955215189
  0
ARC
  5
23EBD
  8
0
 10
3236.1816497937779786
 20
164.4892625849512058
 30
0.0
 40
0.0492299518535129
 50
93.3710121956104047
 51
124.029942917526995
  0
ARC
  5
23EBE
  8
0
 10
3236.1905023354820514
 20
164.5714418157444072
 30
0.0
 40
0.0551134093629392
 50
228.6612909053530984
 51
253.6506707807544103
  0
ARC
  5
23EBF
  8
0
 10
3236.2300681549459114
 20
164.3778119914373121
 30
0.0
 40
0.091956116629597
 50
64.9809760959813048
 51
101.4409572179665986
  0
ARC
  5
23EC0
  8
0
 10
3236.2534883252928921
 20
164.5745397033342101
 30
0.0
 40
0.1144503946470997
 50
248.6536985919528888
 51
277.7682347219945882
  0
LINE
  5
23EC1
  8
0
 10
3236.5959726348319236
 20
164.2834296788599033
 30
0.0
 11
3236.5829132809358271
 21
164.2252145631765927
 31
0.0
  0
ARC
  5
23EC2
  8
0
 10
3236.5666886217800311
 20
164.2334496661287915
 30
0.0
 40
0.0181949576902993
 50
290.1051342130388093
 51
333.0891500843010249
  0
ARC
  5
23EC3
  8
0
 10
3236.5512031683419991
 20
164.2802669418360892
 30
0.0
 40
0.0675002086693982
 50
270.9633420845908063
 51
288.7882151162518198
  0
ARC
  5
23EC4
  8
0
 10
3236.5412512509728913
 20
164.5221673427687961
 30
0.0
 40
0.3095896480150382
 50
252.1511296973222898
 51
272.0522696647147995
  0
ARC
  5
23EC5
  8
0
 10
3236.4797736173491103
 20
164.2860355710253941
 30
0.0
 40
0.0674194691817156
 50
231.6635395935857957
 51
240.2899259988373046
  0
ARC
  5
23EC6
  8
0
 10
3236.4477461432961718
 20
164.2432206726680022
 30
0.0
 40
0.0140438403945994
 50
170.6008714632324939
 51
225.7972434477950969
  0
LINE
  5
23EC7
  8
0
 10
3236.4338908464360429
 20
164.2455141856765977
 30
0.0
 11
3236.4440456364350212
 21
164.2990756874766021
 31
0.0
  0
ARC
  5
23EC8
  8
0
 10
3236.4853626228650683
 20
163.9548256230555126
 30
0.0
 40
0.3467206371677323
 50
71.3964714873570756
 51
96.8439184307533338
  0
ARC
  5
23EC9
  8
0
 10
3236.5835560527498274
 20
164.2465420666192983
 30
0.0
 40
0.0389212981204972
 50
37.1681639777221235
 51
71.3964714873570756
  0
ARC
  5
23ECA
  8
0
 10
3236.5611867308198271
 20
164.4606805089711941
 30
0.0
 40
0.1979579711658759
 50
278.8987212511793246
 51
285.6449448955215189
  0
ARC
  5
23ECB
  8
0
 10
3236.4469404227797895
 20
164.249930917953094
 30
0.0
 40
0.0492299518535129
 50
93.3710121956104047
 51
124.029942917526995
  0
ARC
  5
23ECC
  8
0
 10
3236.4557929644838623
 20
164.3321101487462954
 30
0.0
 40
0.0551134093629392
 50
228.6612909053530984
 51
253.6506707807544103
  0
ARC
  5
23ECD
  8
0
 10
3236.495358783948177
 20
164.1384803244392003
 30
0.0
 40
0.091956116629597
 50
64.9809760959813048
 51
101.4409572179665986
  0
ARC
  5
23ECE
  8
0
 10
3236.5187789542951577
 20
164.3352080363360983
 30
0.0
 40
0.1144503946470997
 50
248.6536985919528888
 51
277.7682347219945882
  0
LINE
  5
23ECF
  8
0
 10
3236.508982364205167
 20
164.1890318463478025
 30
0.0
 11
3236.4959230103090704
 21
164.1308167306644918
 31
0.0
  0
ARC
  5
23ED0
  8
0
 10
3236.4796983511528197
 20
164.1390518336166906
 30
0.0
 40
0.0181949576902993
 50
290.1051342130388093
 51
333.0891500843010249
  0
ARC
  5
23ED1
  8
0
 10
3236.4642128977161519
 20
164.1858691093239884
 30
0.0
 40
0.0675002086693982
 50
270.9633420845908063
 51
288.7882151162518198
  0
ARC
  5
23ED2
  8
0
 10
3236.4542609803470441
 20
164.4277695102568089
 30
0.0
 40
0.3095896480150382
 50
252.1511296973222898
 51
272.0522696647147995
  0
ARC
  5
23ED3
  8
0
 10
3236.3927833467218989
 20
164.1916377385132932
 30
0.0
 40
0.0674194691817156
 50
231.6635395935857957
 51
240.2899259988373046
  0
ARC
  5
23ED4
  8
0
 10
3236.3607558726698699
 20
164.1488228401559013
 30
0.0
 40
0.0140438403945994
 50
170.6008714632324939
 51
225.7972434477950969
  0
LINE
  5
23ED5
  8
0
 10
3236.3469005758088315
 20
164.1511163531644968
 30
0.0
 11
3236.3570553658100835
 21
164.2046778549645012
 31
0.0
  0
ARC
  5
23ED6
  8
0
 10
3236.3983723522401306
 20
163.8604277905434969
 30
0.0
 40
0.3467206371677323
 50
71.3964714873570756
 51
96.8439184307533338
  0
ARC
  5
23ED7
  8
0
 10
3236.4965657821239802
 20
164.1521442341073111
 30
0.0
 40
0.0389212981204972
 50
37.1681639777221235
 51
71.3964714873570756
  0
ARC
  5
23ED8
  8
0
 10
3236.4741964601939799
 20
164.3662826764592069
 30
0.0
 40
0.1979579711658759
 50
278.8987212511793246
 51
285.6449448955215189
  0
ARC
  5
23ED9
  8
0
 10
3236.3599501521539423
 20
164.1555330854409931
 30
0.0
 40
0.0492299518535129
 50
93.3710121956104047
 51
124.029942917526995
  0
ARC
  5
23EDA
  8
0
 10
3236.3688026938580151
 20
164.2377123162341945
 30
0.0
 40
0.0551134093629392
 50
228.6612909053530984
 51
253.6506707807544103
  0
ARC
  5
23EDB
  8
0
 10
3236.4083685133218751
 20
164.0440824919270995
 30
0.0
 40
0.091956116629597
 50
64.9809760959813048
 51
101.4409572179665986
  0
ARC
  5
23EDC
  8
0
 10
3236.4317886836679463
 20
164.2408102038239974
 30
0.0
 40
0.1144503946470997
 50
248.6536985919528888
 51
277.7682347219945882
  0
LINE
  5
23EDD
  8
0
 10
3236.4043225156387962
 20
164.1201059282367964
 30
0.0
 11
3236.3912631617417901
 21
164.0618908125534006
 31
0.0
  0
ARC
  5
23EDE
  8
0
 10
3236.3750385025869036
 20
164.0701259155055993
 30
0.0
 40
0.0181949576902993
 50
290.1051342130388093
 51
333.0891500843010249
  0
ARC
  5
23EDF
  8
0
 10
3236.3595530491488717
 20
164.1169431912128971
 30
0.0
 40
0.0675002086693982
 50
270.9633420845908063
 51
288.7882151162518198
  0
ARC
  5
23EE0
  8
0
 10
3236.3496011317802186
 20
164.3588435921456039
 30
0.0
 40
0.3095896480150382
 50
252.1511296973222898
 51
272.0522696647147995
  0
ARC
  5
23EE1
  8
0
 10
3236.2881234981550733
 20
164.122711820402202
 30
0.0
 40
0.0674194691817156
 50
231.6635395935857957
 51
240.2899259988373046
  0
ARC
  5
23EE2
  8
0
 10
3236.2560960241030443
 20
164.07989692204481
 30
0.0
 40
0.0140438403945994
 50
170.6008714632324939
 51
225.7972434477950969
  0
LINE
  5
23EE3
  8
0
 10
3236.242240727242006
 20
164.0821904350534055
 30
0.0
 11
3236.2523955172418937
 21
164.1357519368534099
 31
0.0
  0
ARC
  5
23EE4
  8
0
 10
3236.2937125036719408
 20
163.7915018724324057
 30
0.0
 40
0.3467206371677323
 50
71.3964714873570756
 51
74.8945096157821837
  0
ARC
  5
23EE5
  8
0
 10
3236.2937125036719408
 20
163.7915018724324057
 30
0.0
 40
0.3467206371677323
 50
76.7820075407552309
 51
96.8439184307533338
  0
ARC
  5
23EE6
  8
0
 10
3236.3919059335571546
 20
164.0832183159961914
 30
0.0
 40
0.0389212981204972
 50
37.1681639777221235
 51
71.3964714873570756
  0
ARC
  5
23EE7
  8
0
 10
3236.3695366116271543
 20
164.2973567583480872
 30
0.0
 40
0.1979579711658759
 50
278.8987212511793246
 51
285.6449448955215189
  0
ARC
  5
23EE8
  8
0
 10
3236.2552903035871168
 20
164.0866071673299018
 30
0.0
 40
0.0492299518535129
 50
93.3710121956104047
 51
124.029942917526995
  0
ARC
  5
23EE9
  8
0
 10
3236.2641428452911896
 20
164.1687863981231033
 30
0.0
 40
0.0551134093629392
 50
228.6612909053530984
 51
253.6506707807544103
  0
ARC
  5
23EEA
  8
0
 10
3236.3037086647550495
 20
163.9751565738160082
 30
0.0
 40
0.091956116629597
 50
64.9809760959813048
 51
101.4409572179665986
  0
ARC
  5
23EEB
  8
0
 10
3236.3271288351020303
 20
164.1718842857129061
 30
0.0
 40
0.1144503946470997
 50
248.6536985919528888
 51
277.7682347219945882
  0
LINE
  5
23EEC
  8
0
 10
3234.4341758545601806
 20
164.7049021840917078
 30
0.0
 11
3234.4234200623450306
 21
164.655800972887306
 31
0.0
  0
ARC
  5
23EED
  8
0
 10
3234.4124036274688478
 20
164.6582141615145929
 30
0.0
 40
0.0112776467717765
 50
285.0868394479322205
 51
347.6443185570154242
  0
LINE
  5
23EEE
  8
0
 10
3234.4153390042438332
 20
164.6473252276873041
 30
0.0
 11
3234.3822237834569933
 21
164.6313874475972909
 31
0.0
  0
ARC
  5
23EEF
  8
0
 10
3234.378163854064951
 20
164.6429004780960952
 30
0.0
 40
0.0122079030930635
 50
261.5116354381015071
 51
289.4245750068247958
  0
LINE
  5
23EF0
  8
0
 10
3234.3763618630450765
 20
164.6308263020873142
 30
0.0
 11
3234.2893582040192086
 21
164.6437496039957864
 31
0.0
  0
ARC
  5
23EF1
  8
0
 10
3234.2894985340981293
 20
164.6478999085263979
 30
0.0
 40
0.0041526762729112
 50
236.9318640129991991
 51
268.0634531170675814
  0
LINE
  5
23EF2
  8
0
 10
3234.2872326844499185
 20
164.6444198732390873
 30
0.0
 11
3234.2323240700447968
 21
164.6731109808872873
 31
0.0
  0
ARC
  5
23EF3
  8
0
 10
3234.2361605068508652
 20
164.6841581653222875
 30
0.0
 40
0.011694380330458
 50
173.1604733287830982
 51
250.8490444349475865
  0
LINE
  5
23EF4
  8
0
 10
3234.2245493485452243
 20
164.6855508368873018
 30
0.0
 11
3234.2349649623438381
 21
164.7387565885873073
 31
0.0
  0
LINE
  5
23EF5
  8
0
 10
3234.4329422367181905
 20
164.6992706016854129
 30
0.0
 11
3234.4388227199751782
 21
164.7021398513487043
 31
0.0
  0
LINE
  5
23EF6
  8
0
 10
3234.4388227199751782
 20
164.7021398513487043
 30
0.0
 11
3234.4341758545601806
 21
164.7049021840917078
 31
0.0
  0
LINE
  5
23EF7
  8
0
 10
3234.4341758545601806
 20
164.7049021840917078
 30
0.0
 11
3234.3836709473448536
 21
164.7319537845872901
 31
0.0
  0
ARC
  5
23EF8
  8
0
 10
3234.2498779604848096
 20
164.3264333521987908
 30
0.0
 40
0.4270215268780924
 50
71.7407740332941017
 51
73.5110652912982516
  0
ARC
  5
23EF9
  8
0
 10
3234.3571775764580707
 20
164.6859177564047059
 30
0.0
 40
0.0518732424380989
 50
74.4547719144873241
 51
80.0475482544664203
  0
LINE
  5
23EFA
  8
0
 10
3234.3661428731438718
 20
164.7370103853872934
 30
0.0
 11
3234.2694610888452189
 21
164.7501400695873031
 31
0.0
  0
ARC
  5
23EFB
  8
0
 10
3234.2648029558267808
 20
164.7058543809519904
 30
0.0
 40
0.0445299270726836
 50
83.9960273795696395
 51
100.8520499434877991
  0
LINE
  5
23EFC
  8
0
 10
3234.2564191466390184
 20
164.7495879624266024
 30
0.0
 11
3234.2349649623438381
 21
164.7387565885873073
 31
0.0
  0
LINE
  5
23EFD
  8
0
 10
3234.2349649623438381
 20
164.7387565885873073
 30
0.0
 11
3234.2133494609438458
 21
164.7272005279872928
 31
0.0
  0
LINE
  5
23EFE
  8
0
 10
3234.2133494609438458
 20
164.7272005279872928
 30
0.0
 11
3234.2305029631402249
 21
164.7159634986817025
 31
0.0
  0
ARC
  5
23EFF
  8
0
 10
3234.3123690377560706
 20
164.6140004645409078
 30
0.0
 40
0.05386432129982
 50
47.8497641336587023
 51
109.3877271831514975
  0
ARC
  5
23F00
  8
0
 10
3234.3314775323638059
 20
164.7089284131216971
 30
0.0
 40
0.057572652638504
 50
230.0230205032212893
 51
287.2144927141520157
  0
LINE
  5
23F01
  8
0
 10
3234.4234259430440943
 20
164.6557977167873048
 30
0.0
 11
3234.3669527563029078
 21
164.6867668944153138
 31
0.0
  0
LINE
  5
23F02
  8
0
 10
3234.3669527563029078
 20
164.6867668944153138
 30
0.0
 11
3234.2679019192028136
 21
164.7034779830154037
 31
0.0
  0
LINE
  5
23F03
  8
0
 10
3234.2679019192028136
 20
164.7034779830154037
 30
0.0
 11
3234.2245493485452243
 21
164.6855508368873018
 31
0.0
  0
LINE
  5
23F04
  8
0
 10
3234.3669619971128668
 20
164.6867618268728108
 30
0.0
 11
3234.3769460807538962
 21
164.7341110155905994
 31
0.0
  0
LINE
  5
23F05
  8
0
 10
3234.2770863181021923
 20
164.7491045399596032
 30
0.0
 11
3234.2679019192028136
 21
164.7034779830154037
 31
0.0
  0
LINE
  5
23F06
  8
0
 10
3234.6773292754628528
 20
164.6602220384814075
 30
0.0
 11
3234.6665734832467933
 21
164.6111208272770057
 31
0.0
  0
ARC
  5
23F07
  8
0
 10
3234.6555570483719748
 20
164.6135340159044063
 30
0.0
 40
0.0112776467717765
 50
285.0868394479322205
 51
347.6443185570154242
  0
LINE
  5
23F08
  8
0
 10
3234.6584924251469602
 20
164.6026450820770037
 30
0.0
 11
3234.6253772043601202
 21
164.5867073019871043
 31
0.0
  0
ARC
  5
23F09
  8
0
 10
3234.621317274968078
 20
164.5982203324857949
 30
0.0
 40
0.0122079030930635
 50
261.5116354381015071
 51
289.4245750068247958
  0
LINE
  5
23F0A
  8
0
 10
3234.6195152839468392
 20
164.5861461564770138
 30
0.0
 11
3234.5325116249218809
 21
164.5990694583855998
 31
0.0
  0
ARC
  5
23F0B
  8
0
 10
3234.5326519550008015
 20
164.6032197629162113
 30
0.0
 40
0.0041526762729112
 50
236.9318640129991991
 51
268.0634531170675814
  0
LINE
  5
23F0C
  8
0
 10
3234.5303861053521359
 20
164.599739727628787
 30
0.0
 11
3234.4754774909479238
 21
164.628430835276987
 31
0.0
  0
ARC
  5
23F0D
  8
0
 10
3234.4793139277539922
 20
164.6394780197119871
 30
0.0
 40
0.011694380330458
 50
173.1604733287830982
 51
250.8490444349475865
  0
LINE
  5
23F0E
  8
0
 10
3234.4677027694469871
 20
164.6408706912770015
 30
0.0
 11
3234.4781183832469651
 21
164.694076442977007
 31
0.0
  0
LINE
  5
23F0F
  8
0
 10
3234.6760956576208628
 20
164.6545904560751126
 30
0.0
 11
3234.6819761408778504
 21
164.657459705738404
 31
0.0
  0
LINE
  5
23F10
  8
0
 10
3234.6819761408778504
 20
164.657459705738404
 30
0.0
 11
3234.6773292754628528
 21
164.6602220384814075
 31
0.0
  0
LINE
  5
23F11
  8
0
 10
3234.6773292754628528
 20
164.6602220384814075
 30
0.0
 11
3234.6268243682470711
 21
164.6872736389769898
 31
0.0
  0
ARC
  5
23F12
  8
0
 10
3234.4930313813888461
 20
164.2817532065886041
 30
0.0
 40
0.4270215268780924
 50
71.7407740332941017
 51
73.5110652912982516
  0
ARC
  5
23F13
  8
0
 10
3234.6003309973598334
 20
164.6412376107944908
 30
0.0
 40
0.0518732424380989
 50
74.4547719144873241
 51
80.0475482544664203
  0
LINE
  5
23F14
  8
0
 10
3234.6092962940479083
 20
164.692330239776993
 30
0.0
 11
3234.5126145097478911
 21
164.7054599239770027
 31
0.0
  0
ARC
  5
23F15
  8
0
 10
3234.5079563767299078
 20
164.6611742353418038
 30
0.0
 40
0.0445299270726836
 50
83.9960273795696395
 51
100.8520499434877991
  0
LINE
  5
23F16
  8
0
 10
3234.4995725675407812
 20
164.7049078168163021
 30
0.0
 11
3234.4781183832469651
 21
164.694076442977007
 31
0.0
  0
LINE
  5
23F17
  8
0
 10
3234.4781183832469651
 20
164.694076442977007
 30
0.0
 11
3234.4565028818469727
 21
164.6825203823769925
 31
0.0
  0
LINE
  5
23F18
  8
0
 10
3234.4565028818469727
 20
164.6825203823769925
 30
0.0
 11
3234.4736563840428971
 21
164.6712833530714022
 31
0.0
  0
ARC
  5
23F19
  8
0
 10
3234.5555224586578333
 20
164.5693203189306075
 30
0.0
 40
0.05386432129982
 50
47.8497641336587023
 51
109.3877271831514975
  0
ARC
  5
23F1A
  8
0
 10
3234.5746309532669329
 20
164.6642482675113968
 30
0.0
 40
0.057572652638504
 50
230.0230205032212893
 51
287.2144927141520157
  0
LINE
  5
23F1B
  8
0
 10
3234.6665793639481308
 20
164.6111175711770045
 30
0.0
 11
3234.6101061772060348
 21
164.6420867488050988
 31
0.0
  0
LINE
  5
23F1C
  8
0
 10
3234.6101061772060348
 20
164.6420867488050988
 30
0.0
 11
3234.5110553401059406
 21
164.6587978374051033
 31
0.0
  0
LINE
  5
23F1D
  8
0
 10
3234.5110553401059406
 20
164.6587978374051033
 30
0.0
 11
3234.4677027694469871
 21
164.6408706912770015
 31
0.0
  0
LINE
  5
23F1E
  8
0
 10
3234.6101154180159938
 20
164.6420816812625958
 30
0.0
 11
3234.6200995016579327
 21
164.6894308699804128
 31
0.0
  0
LINE
  5
23F1F
  8
0
 10
3234.520239739003955
 20
164.7044243943493882
 30
0.0
 11
3234.5110553401059406
 21
164.6587978374051033
 31
0.0
  0
LINE
  5
23F20
  8
0
 10
3234.9113472924968846
 20
164.6251027568200129
 30
0.0
 11
3234.9005915002821894
 21
164.5760015456156111
 31
0.0
  0
ARC
  5
23F21
  8
0
 10
3234.8895750654078256
 20
164.5784147342430117
 30
0.0
 40
0.0112776467717765
 50
285.0868394479322205
 51
347.6443185570154242
  0
LINE
  5
23F22
  8
0
 10
3234.8925104421819015
 20
164.5675258004156092
 30
0.0
 11
3234.859395221394152
 21
164.5515880203257097
 31
0.0
  0
ARC
  5
23F23
  8
0
 10
3234.8553352920030193
 20
164.5631010508244003
 30
0.0
 40
0.0122079030930635
 50
261.5116354381015071
 51
289.4245750068247958
  0
LINE
  5
23F24
  8
0
 10
3234.8535333009817805
 20
164.5510268748155909
 30
0.0
 11
3234.7665296419568222
 21
164.5639501767242052
 31
0.0
  0
ARC
  5
23F25
  8
0
 10
3234.7666699720361976
 20
164.5681004812547883
 30
0.0
 40
0.0041526762729112
 50
236.9318640129991991
 51
268.0634531170675814
  0
LINE
  5
23F26
  8
0
 10
3234.7644041223870772
 20
164.5646204459673925
 30
0.0
 11
3234.7094955079819556
 21
164.5933115536155924
 31
0.0
  0
ARC
  5
23F27
  8
0
 10
3234.7133319447889335
 20
164.6043587380505926
 30
0.0
 40
0.011694380330458
 50
173.1604733287830982
 51
250.8490444349475865
  0
LINE
  5
23F28
  8
0
 10
3234.7017207864819284
 20
164.6057514096156069
 30
0.0
 11
3234.7121364002819064
 21
164.6589571613156124
 31
0.0
  0
LINE
  5
23F29
  8
0
 10
3234.9101136746548946
 20
164.6194711744136896
 30
0.0
 11
3234.9159941579118822
 21
164.6223404240770094
 31
0.0
  0
LINE
  5
23F2A
  8
0
 10
3234.9159941579118822
 20
164.6223404240770094
 30
0.0
 11
3234.9113472924968846
 21
164.6251027568200129
 31
0.0
  0
LINE
  5
23F2B
  8
0
 10
3234.9113472924968846
 20
164.6251027568200129
 30
0.0
 11
3234.8608423852829219
 21
164.6521543573155952
 31
0.0
  0
ARC
  5
23F2C
  8
0
 10
3234.7270493984228779
 20
164.2466339249272096
 30
0.0
 40
0.4270215268780924
 50
71.7407740332941017
 51
73.5110652912982516
  0
ARC
  5
23F2D
  8
0
 10
3234.8343490143947747
 20
164.6061183291330963
 30
0.0
 40
0.0518732424380989
 50
74.4547719144873241
 51
80.0475482544664203
  0
LINE
  5
23F2E
  8
0
 10
3234.8433143110819401
 20
164.6572109581155985
 30
0.0
 11
3234.7466325267819229
 21
164.6703406423156082
 31
0.0
  0
ARC
  5
23F2F
  8
0
 10
3234.7419743937639396
 20
164.6260549536804092
 30
0.0
 40
0.0445299270726836
 50
83.9960273795696395
 51
100.8520499434877991
  0
LINE
  5
23F30
  8
0
 10
3234.7335905845761772
 20
164.6697885351549075
 30
0.0
 11
3234.7121364002819064
 21
164.6589571613156124
 31
0.0
  0
LINE
  5
23F31
  8
0
 10
3234.7121364002819064
 20
164.6589571613156124
 30
0.0
 11
3234.690520898881914
 21
164.647401100715598
 31
0.0
  0
LINE
  5
23F32
  8
0
 10
3234.690520898881914
 20
164.647401100715598
 30
0.0
 11
3234.7076744010778384
 21
164.6361640714100076
 31
0.0
  0
ARC
  5
23F33
  8
0
 10
3234.7895404756941389
 20
164.534201037269213
 30
0.0
 40
0.05386432129982
 50
47.8497641336587023
 51
109.3877271831514975
  0
ARC
  5
23F34
  8
0
 10
3234.8086489703009647
 20
164.6291289858500022
 30
0.0
 40
0.057572652638504
 50
230.0230205032212893
 51
287.2144927141520157
  0
LINE
  5
23F35
  8
0
 10
3234.9005973809821626
 20
164.5759982895156099
 30
0.0
 11
3234.8441241942400666
 21
164.6069674671437042
 31
0.0
  0
LINE
  5
23F36
  8
0
 10
3234.8441241942400666
 20
164.6069674671437042
 30
0.0
 11
3234.7450733571408819
 21
164.6236785557437088
 31
0.0
  0
LINE
  5
23F37
  8
0
 10
3234.7450733571408819
 20
164.6236785557437088
 30
0.0
 11
3234.7017207864819284
 21
164.6057514096156069
 31
0.0
  0
LINE
  5
23F38
  8
0
 10
3234.8441334350500256
 20
164.6069623996012012
 30
0.0
 11
3234.8541175186919645
 21
164.6543115883189898
 31
0.0
  0
LINE
  5
23F39
  8
0
 10
3234.7542577560388963
 20
164.6693051126879936
 30
0.0
 11
3234.7450733571408819
 21
164.6236785557437088
 31
0.0
  0
LINE
  5
23F3A
  8
0
 10
3235.1045033725558824
 20
164.5403605282444914
 30
0.0
 11
3235.0937475803420966
 21
164.4912593170400896
 31
0.0
  0
ARC
  5
23F3B
  8
0
 10
3235.0827311454668234
 20
164.4936725056674902
 30
0.0
 40
0.0112776467717765
 50
285.0868394479322205
 51
347.6443185570154242
  0
LINE
  5
23F3C
  8
0
 10
3235.0856665222418087
 20
164.4827835718400877
 30
0.0
 11
3235.0525513014540593
 21
164.466845791750103
 31
0.0
  0
ARC
  5
23F3D
  8
0
 10
3235.048491372062017
 20
164.4783588222489072
 30
0.0
 40
0.0122079030930635
 50
261.5116354381015071
 51
289.4245750068247958
  0
LINE
  5
23F3E
  8
0
 10
3235.0466893810421425
 20
164.4662846462400978
 30
0.0
 11
3234.9596857220158199
 21
164.4792079481487121
 31
0.0
  0
ARC
  5
23F3F
  8
0
 10
3234.9598260520951953
 20
164.4833582526792952
 30
0.0
 40
0.0041526762729112
 50
236.9318640129991991
 51
268.0634531170675814
  0
LINE
  5
23F40
  8
0
 10
3234.957560202447894
 20
164.4798782173918994
 30
0.0
 11
3234.9026515880418629
 21
164.5085693250400993
 31
0.0
  0
ARC
  5
23F41
  8
0
 10
3234.9064880248479312
 20
164.5196165094750995
 30
0.0
 40
0.011694380330458
 50
173.1604733287830982
 51
250.8490444349475865
  0
LINE
  5
23F42
  8
0
 10
3234.8948768665418356
 20
164.5210091810401138
 30
0.0
 11
3234.9052924803418136
 21
164.5742149327400909
 31
0.0
  0
LINE
  5
23F43
  8
0
 10
3235.1032697547148018
 20
164.5347289458381965
 30
0.0
 11
3235.1091502379717895
 21
164.5375981955014879
 31
0.0
  0
LINE
  5
23F44
  8
0
 10
3235.1091502379717895
 20
164.5375981955014879
 30
0.0
 11
3235.1045033725558824
 21
164.5403605282444914
 31
0.0
  0
LINE
  5
23F45
  8
0
 10
3235.1045033725558824
 20
164.5403605282444914
 30
0.0
 11
3235.0539984653419197
 21
164.5674121287401022
 31
0.0
  0
ARC
  5
23F46
  8
0
 10
3234.9202054784818756
 20
164.1618916963516881
 30
0.0
 40
0.4270215268780924
 50
71.7407740332941017
 51
73.5110652912982516
  0
ARC
  5
23F47
  8
0
 10
3235.0275050944542272
 20
164.5213761005574895
 30
0.0
 40
0.0518732424380989
 50
74.4547719144873241
 51
80.0475482544664203
  0
LINE
  5
23F48
  8
0
 10
3235.0364703911418474
 20
164.5724687295401054
 30
0.0
 11
3234.9397886068418302
 21
164.5855984137400867
 31
0.0
  0
ARC
  5
23F49
  8
0
 10
3234.9351304738238468
 20
164.5413127251048024
 30
0.0
 40
0.0445299270726836
 50
83.9960273795696395
 51
100.8520499434877991
  0
LINE
  5
23F4A
  8
0
 10
3234.9267466646360845
 20
164.5850463065793861
 30
0.0
 11
3234.9052924803418136
 21
164.5742149327400909
 31
0.0
  0
LINE
  5
23F4B
  8
0
 10
3234.9052924803418136
 20
164.5742149327400909
 30
0.0
 11
3234.8836769789418213
 21
164.5626588721401049
 31
0.0
  0
LINE
  5
23F4C
  8
0
 10
3234.8836769789418213
 20
164.5626588721401049
 30
0.0
 11
3234.9008304811368362
 21
164.5514218428344861
 31
0.0
  0
ARC
  5
23F4D
  8
0
 10
3234.9826965557531366
 20
164.4494588086936915
 30
0.0
 40
0.05386432129982
 50
47.8497641336587023
 51
109.3877271831514975
  0
ARC
  5
23F4E
  8
0
 10
3235.001805050360872
 20
164.5443867572743954
 30
0.0
 40
0.057572652638504
 50
230.0230205032212893
 51
287.2144927141520157
  0
LINE
  5
23F4F
  8
0
 10
3235.0937534610411603
 20
164.4912560609400884
 30
0.0
 11
3235.0372802742999738
 21
164.5222252385682111
 31
0.0
  0
LINE
  5
23F50
  8
0
 10
3235.0372802742999738
 20
164.5222252385682111
 30
0.0
 11
3234.9382294371998796
 21
164.5389363271681873
 31
0.0
  0
LINE
  5
23F51
  8
0
 10
3234.9382294371998796
 20
164.5389363271681873
 30
0.0
 11
3234.8948768665418356
 21
164.5210091810401138
 31
0.0
  0
LINE
  5
23F52
  8
0
 10
3235.0372895151099328
 20
164.5222201710257082
 30
0.0
 11
3235.0472735987509623
 21
164.5695693597434115
 31
0.0
  0
LINE
  5
23F53
  8
0
 10
3234.9474138360978941
 20
164.5845628841123869
 30
0.0
 11
3234.9382294371998796
 21
164.5389363271681873
 31
0.0
  0
LINE
  5
23F54
  8
0
 10
3234.9431936638661682
 20
164.4237784086494116
 30
0.0
 11
3234.9324378716510182
 21
164.3746771974450098
 31
0.0
  0
ARC
  5
23F55
  8
0
 10
3234.9214214367761997
 20
164.3770903860724104
 30
0.0
 40
0.0112776467717765
 50
285.0868394479322205
 51
347.6443185570154242
  0
LINE
  5
23F56
  8
0
 10
3234.924356813551185
 20
164.3662014522450079
 30
0.0
 11
3234.8912415927629809
 21
164.3502636721551085
 31
0.0
  0
ARC
  5
23F57
  8
0
 10
3234.8871816633709386
 20
164.361776702653799
 30
0.0
 40
0.0122079030930635
 50
261.5116354381015071
 51
289.4245750068247958
  0
LINE
  5
23F58
  8
0
 10
3234.8853796723510641
 20
164.3497025266449896
 30
0.0
 11
3234.7983760133251963
 21
164.3626258285536039
 31
0.0
  0
ARC
  5
23F59
  8
0
 10
3234.7985163434041169
 20
164.366776133084187
 30
0.0
 40
0.0041526762729112
 50
236.9318640129991991
 51
268.0634531170675814
  0
LINE
  5
23F5A
  8
0
 10
3234.7962504937568156
 20
164.3632960977967912
 30
0.0
 11
3234.7413418793498749
 21
164.3919872054449911
 31
0.0
  0
ARC
  5
23F5B
  8
0
 10
3234.7451783161582171
 20
164.4030343898799913
 30
0.0
 40
0.011694380330458
 50
173.1604733287830982
 51
250.8490444349475865
  0
LINE
  5
23F5C
  8
0
 10
3234.733567157851212
 20
164.4044270614450056
 30
0.0
 11
3234.74398277165119
 21
164.4576328131450111
 31
0.0
  0
LINE
  5
23F5D
  8
0
 10
3234.9419600460241782
 20
164.418146826243202
 30
0.0
 11
3234.9478405292811658
 21
164.4210160759064081
 31
0.0
  0
LINE
  5
23F5E
  8
0
 10
3234.9478405292811658
 20
164.4210160759064081
 30
0.0
 11
3234.9431936638661682
 21
164.4237784086494116
 31
0.0
  0
LINE
  5
23F5F
  8
0
 10
3234.9431936638661682
 20
164.4237784086494116
 30
0.0
 11
3234.8926887566508412
 21
164.4508300091449939
 31
0.0
  0
ARC
  5
23F60
  8
0
 10
3234.7588957697907972
 20
164.0453095767566083
 30
0.0
 40
0.4270215268780924
 50
71.7407740332941017
 51
73.5110652912982516
  0
ARC
  5
23F61
  8
0
 10
3234.8661953857631488
 20
164.404793980962495
 30
0.0
 40
0.0518732424380989
 50
74.4547719144873241
 51
80.0475482544664203
  0
LINE
  5
23F62
  8
0
 10
3234.8751606824512237
 20
164.4558866099449972
 30
0.0
 11
3234.7784788981512065
 21
164.4690162941450922
 31
0.0
  0
ARC
  5
23F63
  8
0
 10
3234.7738207651332232
 20
164.4247306055098079
 30
0.0
 40
0.0445299270726836
 50
83.9960273795696395
 51
100.8520499434877991
  0
LINE
  5
23F64
  8
0
 10
3234.765436955945006
 20
164.4684641869843063
 30
0.0
 11
3234.74398277165119
 21
164.4576328131450111
 31
0.0
  0
LINE
  5
23F65
  8
0
 10
3234.74398277165119
 20
164.4576328131450111
 30
0.0
 11
3234.7223672702511976
 21
164.4460767525449967
 31
0.0
  0
LINE
  5
23F66
  8
0
 10
3234.7223672702511976
 20
164.4460767525449967
 30
0.0
 11
3234.7395207724462125
 21
164.4348397232394063
 31
0.0
  0
ARC
  5
23F67
  8
0
 10
3234.8213868470620582
 20
164.3328766890986117
 30
0.0
 40
0.05386432129982
 50
47.8497641336587023
 51
109.3877271831514975
  0
ARC
  5
23F68
  8
0
 10
3234.8404953416697936
 20
164.4278046376794009
 30
0.0
 40
0.057572652638504
 50
230.0230205032212893
 51
287.2144927141520157
  0
LINE
  5
23F69
  8
0
 10
3234.9324437523509914
 20
164.3746739413450086
 30
0.0
 11
3234.8759705656088954
 21
164.4056431189731029
 31
0.0
  0
LINE
  5
23F6A
  8
0
 10
3234.8759705656088954
 20
164.4056431189731029
 30
0.0
 11
3234.7769197285088012
 21
164.4223542075731075
 31
0.0
  0
LINE
  5
23F6B
  8
0
 10
3234.7769197285088012
 20
164.4223542075731075
 30
0.0
 11
3234.733567157851212
 21
164.4044270614450056
 31
0.0
  0
LINE
  5
23F6C
  8
0
 10
3234.8759798064188544
 20
164.4056380514305999
 30
0.0
 11
3234.8859638900598839
 21
164.4529872401483885
 31
0.0
  0
LINE
  5
23F6D
  8
0
 10
3234.7861041274068157
 20
164.4679807645173923
 30
0.0
 11
3234.7769197285088012
 21
164.4223542075731075
 31
0.0
  0
LINE
  5
23F6E
  8
0
 10
3234.5268703066039961
 20
164.5392595475846065
 30
0.0
 11
3234.5161145143879367
 21
164.4901583363802047
 31
0.0
  0
ARC
  5
23F6F
  8
0
 10
3234.5050980795140276
 20
164.4925715250074916
 30
0.0
 40
0.0112776467717765
 50
285.0868394479322205
 51
347.6443185570154242
  0
LINE
  5
23F70
  8
0
 10
3234.508033456289013
 20
164.481682591180089
 30
0.0
 11
3234.4749182355008088
 21
164.4657448110901896
 31
0.0
  0
ARC
  5
23F71
  8
0
 10
3234.4708583061092213
 20
164.4772578415889086
 30
0.0
 40
0.0122079030930635
 50
261.5116354381015071
 51
289.4245750068247958
  0
LINE
  5
23F72
  8
0
 10
3234.4690563150879825
 20
164.4651836655802128
 30
0.0
 11
3234.3820526560639337
 21
164.4781069674887135
 31
0.0
  0
ARC
  5
23F73
  8
0
 10
3234.3821929861419449
 20
164.4822572720192966
 30
0.0
 40
0.0041526762729112
 50
236.9318640129991991
 51
268.0634531170675814
  0
LINE
  5
23F74
  8
0
 10
3234.3799271364941887
 20
164.478777236731986
 30
0.0
 11
3234.3250185220890671
 21
164.507468344380186
 31
0.0
  0
ARC
  5
23F75
  8
0
 10
3234.328854958896045
 20
164.5185155288151009
 30
0.0
 40
0.011694380330458
 50
173.1604733287830982
 51
250.8490444349475865
  0
LINE
  5
23F76
  8
0
 10
3234.3172438005890399
 20
164.5199082003802005
 30
0.0
 11
3234.3276594143890179
 21
164.573113952080206
 31
0.0
  0
LINE
  5
23F77
  8
0
 10
3234.5256366887620061
 20
164.5336279651783116
 30
0.0
 11
3234.5315171720189937
 21
164.536497214841603
 31
0.0
  0
LINE
  5
23F78
  8
0
 10
3234.5315171720189937
 20
164.536497214841603
 30
0.0
 11
3234.5268703066039961
 21
164.5392595475846065
 31
0.0
  0
LINE
  5
23F79
  8
0
 10
3234.5268703066039961
 20
164.5392595475846065
 30
0.0
 11
3234.4763653993891239
 21
164.5663111480801888
 31
0.0
  0
ARC
  5
23F7A
  8
0
 10
3234.3425724125290799
 20
164.1607907156916895
 30
0.0
 40
0.4270215268780924
 50
71.7407740332941017
 51
73.5110652912982516
  0
ARC
  5
23F7B
  8
0
 10
3234.4498720285009767
 20
164.5202751198976046
 30
0.0
 40
0.0518732424380989
 50
74.4547719144873241
 51
80.0475482544664203
  0
LINE
  5
23F7C
  8
0
 10
3234.4588373251890516
 20
164.571367748880192
 30
0.0
 11
3234.3621555408890345
 21
164.5844974330802017
 31
0.0
  0
ARC
  5
23F7D
  8
0
 10
3234.3574974078710511
 20
164.5402117444448891
 30
0.0
 40
0.0445299270726836
 50
83.9960273795696395
 51
100.8520499434877991
  0
LINE
  5
23F7E
  8
0
 10
3234.3491135986819245
 20
164.5839453259193874
 30
0.0
 11
3234.3276594143890179
 21
164.573113952080206
 31
0.0
  0
LINE
  5
23F7F
  8
0
 10
3234.3276594143890179
 20
164.573113952080206
 30
0.0
 11
3234.3060439129890256
 21
164.5615578914801915
 31
0.0
  0
LINE
  5
23F80
  8
0
 10
3234.3060439129890256
 20
164.5615578914801915
 30
0.0
 11
3234.3231974151840404
 21
164.5503208621746012
 31
0.0
  0
ARC
  5
23F81
  8
0
 10
3234.4050634897998862
 20
164.4483578280338065
 30
0.0
 40
0.05386432129982
 50
47.8497641336587023
 51
109.3877271831514975
  0
ARC
  5
23F82
  8
0
 10
3234.4241719844080762
 20
164.5432857766145105
 30
0.0
 40
0.057572652638504
 50
230.0230205032212893
 51
287.2144927141520157
  0
LINE
  5
23F83
  8
0
 10
3234.5161203950888194
 20
164.4901550802802035
 30
0.0
 11
3234.4596472083471781
 21
164.5211242579082125
 31
0.0
  0
LINE
  5
23F84
  8
0
 10
3234.4596472083471781
 20
164.5211242579082125
 30
0.0
 11
3234.3605963712470839
 21
164.5378353465081886
 31
0.0
  0
LINE
  5
23F85
  8
0
 10
3234.3605963712470839
 20
164.5378353465081886
 30
0.0
 11
3234.3172438005890399
 21
164.5199082003802005
 31
0.0
  0
LINE
  5
23F86
  8
0
 10
3234.4596564491571371
 20
164.5211191903657095
 30
0.0
 11
3234.4696405327981665
 21
164.5684683790834981
 31
0.0
  0
LINE
  5
23F87
  8
0
 10
3234.3697807701450984
 20
164.5834619034525019
 30
0.0
 11
3234.3605963712470839
 21
164.5378353465081886
 31
0.0
  0
LINE
  5
23F88
  8
0
 10
3234.2286300871310232
 20
164.7063963451936104
 30
0.0
 11
3234.1983262246790218
 21
164.713115487555001
 31
0.0
  0
ARC
  5
23F89
  8
0
 10
3234.1975903295701755
 20
164.7097965425201096
 30
0.0
 40
0.0033995496402756
 50
77.4983099702695739
 51
96.5032313854229358
  0
LINE
  5
23F8A
  8
0
 10
3234.1972052991300188
 20
164.7131742176549949
 30
0.0
 11
3234.171895339378807
 21
164.6931826763548941
 31
0.0
  0
LINE
  5
23F8B
  8
0
 10
3234.1718962926629501
 20
164.6931817893938046
 30
0.0
 11
3234.1874471801561413
 21
164.682869144208297
 31
0.0
  0
LINE
  5
23F8C
  8
0
 10
3234.194071423476089
 20
164.7106988678251014
 30
0.0
 11
3234.1874471801561413
 21
164.682869144208297
 31
0.0
  0
LINE
  5
23F8D
  8
0
 10
3234.1874471801561413
 20
164.682869144208297
 30
0.0
 11
3234.1778801883920096
 21
164.6427171705576029
 31
0.0
  0
ARC
  5
23F8E
  8
0
 10
3234.1880787524128209
 20
164.6402871635339125
 30
0.0
 40
0.0104840661107586
 50
166.5980523374799134
 51
249.2582728845266047
  0
LINE
  5
23F8F
  8
0
 10
3234.1843657573799646
 20
164.6304826079550025
 30
0.0
 11
3234.2512531561801552
 21
164.6004189400549933
 31
0.0
  0
LINE
  5
23F90
  8
0
 10
3234.2512531561801552
 20
164.6004189400549933
 30
0.0
 11
3234.3353171490798559
 21
164.5846965940550035
 31
0.0
  0
ARC
  5
23F91
  8
0
 10
3234.3369508918249267
 20
164.59331983447791
 30
0.0
 40
0.0087766389209812
 50
259.2720026750944271
 51
308.8590147132247239
  0
LINE
  5
23F92
  8
0
 10
3234.3424574094801756
 20
164.5864855346549973
 30
0.0
 11
3234.3616354830569435
 21
164.6019376516925092
 31
0.0
  0
ARC
  5
23F93
  8
0
 10
3234.353812216697861
 20
164.6116473359693089
 30
0.0
 40
0.0124692207164588
 50
308.8590147132215975
 51
342.9381763116305137
  0
LINE
  5
23F94
  8
0
 10
3234.3657326510801795
 20
164.6079888240550133
 30
0.0
 11
3234.3718125852951744
 21
164.6315020402169012
 31
0.0
  0
LINE
  5
23F95
  8
0
 10
3234.1778903128802085
 20
164.642756377055008
 30
0.0
 11
3234.1975477115970534
 21
164.6583947455752082
 31
0.0
  0
LINE
  5
23F96
  8
0
 10
3234.1975477115970534
 20
164.6583947455752082
 30
0.0
 11
3234.291504612279823
 21
164.6411661731549998
 31
0.0
  0
LINE
  5
23F97
  8
0
 10
3234.291504612279823
 20
164.6411661731549998
 30
0.0
 11
3234.3657326510801795
 21
164.6079888240550133
 31
0.0
  0
ARC
  5
23F98
  8
0
 10
3234.2436030820058477
 20
164.522707502824602
 30
0.0
 40
0.1005153923670695
 50
55.6280320492828011
 51
93.2095049967829823
  0
ARC
  5
23F99
  8
0
 10
3234.2930196462061758
 20
164.6999217482184861
 30
0.0
 40
0.094534544633253
 50
234.3900084120631959
 51
274.4475118383106178
  0
LINE
  5
23F9A
  8
0
 10
3234.1824589965008272
 20
164.6619323828508925
 30
0.0
 11
3234.1549101949799478
 21
164.6671186876550053
 31
0.0
  0
ARC
  5
23F9B
  8
0
 10
3234.1454330796850627
 20
164.6167778037109031
 30
0.0
 40
0.0512251921477903
 50
79.3383500295159791
 51
89.6831954696476004
  0
LINE
  5
23F9C
  8
0
 10
3234.1457163167819999
 20
164.6680022128076928
 30
0.0
 11
3234.1228869703859345
 21
164.6520031305279019
 31
0.0
  0
LINE
  5
23F9D
  8
0
 10
3234.1228869703800228
 20
164.6520031305549878
 30
0.0
 11
3234.1383910063650546
 21
164.6449528942173117
 31
0.0
  0
LINE
  5
23F9E
  8
0
 10
3234.1435387269789317
 20
164.6664761315159922
 30
0.0
 11
3234.1383910063650546
 21
164.6449528942173117
 31
0.0
  0
LINE
  5
23F9F
  8
0
 10
3234.1383910063650546
 20
164.6449528942173117
 30
0.0
 11
3234.1291344692172061
 21
164.6060176430270872
 31
0.0
  0
ARC
  5
23FA0
  8
0
 10
3234.1394153558981088
 20
164.603573446404198
 30
0.0
 40
0.0105674371571021
 50
166.6266672602845063
 51
249.8186421031410873
  0
LINE
  5
23FA1
  8
0
 10
3234.1357696658801615
 20
164.5936547936549914
 30
0.0
 11
3234.2026842565801417
 21
164.5643246488550062
 31
0.0
  0
LINE
  5
23FA2
  8
0
 10
3234.2026847008678487
 20
164.5643244541134891
 30
0.0
 11
3234.2865574622119311
 21
164.5483802357572074
 31
0.0
  0
ARC
  5
23FA3
  8
0
 10
3234.288217127137159
 20
164.5571107157983874
 30
0.0
 40
0.0088868312356671
 50
259.2364988303194195
 51
307.2357973259184973
  0
LINE
  5
23FA4
  8
0
 10
3234.2935945189801714
 20
164.5500354471550111
 30
0.0
 11
3234.3075005108898949
 21
164.5606043698685994
 31
0.0
  0
ARC
  5
23FA5
  8
0
 10
3234.1922671314409854
 20
164.4791746251704865
 30
0.0
 40
0.1072155390466563
 50
57.1708122541431507
 51
90.2629734777801644
  0
ARC
  5
23FA6
  8
0
 10
3234.2416450621471995
 20
164.6482189785390062
 30
0.0
 40
0.0794352629745628
 50
231.1114812207586056
 51
276.3223045111320175
  0
LINE
  5
23FA7
  8
0
 10
3234.1291356026981703
 20
164.6060224107226873
 30
0.0
 11
3234.1486011438801143
 21
164.620897359954995
 31
0.0
  0
LINE
  5
23FA8
  8
0
 10
3234.1486011438801143
 20
164.620897359954995
 30
0.0
 11
3234.2424606117801886
 21
164.6032680154550008
 31
0.0
  0
LINE
  5
23FA9
  8
0
 10
3234.2424606117801886
 20
164.6032680154550008
 30
0.0
 11
3234.316855698280051
 21
164.5707627239549993
 31
0.0
  0
LINE
  5
23FAA
  8
0
 10
3234.3211440797717842
 20
164.587347359166813
 30
0.0
 11
3234.316855698280051
 21
164.5707627239549993
 31
0.0
  0
ARC
  5
23FAB
  8
0
 10
3234.3061197661118058
 20
164.5735387737275914
 30
0.0
 40
0.0110890347572824
 50
316.4010635969275995
 51
345.5022563934404047
  0
LINE
  5
23FAC
  8
0
 10
3234.0871822164122023
 20
164.5919201403935119
 30
0.0
 11
3234.0761675674798425
 21
164.5438655380550017
 31
0.0
  0
ARC
  5
23FAD
  8
0
 10
3234.0895591178082213
 20
164.540796045886708
 30
0.0
 40
0.0137388282752838
 50
167.0901717804449902
 51
222.4732626170354024
  0
ARC
  5
23FAE
  8
0
 10
3234.1020897510361465
 20
164.5522675029357913
 30
0.0
 40
0.0307273860691571
 50
222.4732626170153935
 51
243.9586671078006077
  0
ARC
  5
23FAF
  8
0
 10
3234.1802596034231101
 20
164.7122464386908121
 30
0.0
 40
0.2087829552252216
 50
243.9586671078006077
 51
265.4334194781421274
  0
ARC
  5
23FB0
  8
0
 10
3234.1656673555080488
 20
164.5295488799434906
 30
0.0
 40
0.0255035737568516
 50
265.4334194781420138
 51
294.2612845460819244
  0
ARC
  5
23FB1
  8
0
 10
3234.1710049369557964
 20
164.5177061176268012
 30
0.0
 40
0.01251354700554
 50
294.2612845460811855
 51
346.9746774951216253
  0
LINE
  5
23FB2
  8
0
 10
3234.1831965172800665
 20
164.5148857935548961
 30
0.0
 11
3234.1947556932650514
 21
164.5605147520151945
 31
0.0
  0
ARC
  5
23FB3
  8
0
 10
3234.0452538782969896
 20
164.2483627657626926
 30
0.0
 40
0.3461064217843233
 50
64.408413801906832
 51
83.0419324236954424
  0
ARC
  5
23FB4
  8
0
 10
3234.1580086914977983
 20
164.4837889303732936
 30
0.0
 40
0.0850716982638768
 50
49.5512606186207165
 51
64.4084138019061214
  0
ARC
  5
23FB5
  8
0
 10
3234.1857828550369049
 20
164.6593490267763116
 30
0.0
 40
0.1141629014214252
 50
272.5698340230537156
 51
283.8961054708605047
  0
ARC
  5
23FB6
  8
0
 10
3234.0747196100937799
 20
164.4790890169610975
 30
0.0
 40
0.1135173068622558
 50
83.6970201223568182
 51
94.0081849716389968
  0
ARC
  5
23FB7
  8
0
 10
3234.1100916986729317
 20
164.6258211976073937
 30
0.0
 40
0.054746974475961
 50
217.7175588029568871
 51
241.4534780708953861
  0
LINE
  5
23FB8
  8
0
 10
3234.4840222095172066
 20
164.8021341571964911
 30
0.0
 11
3234.470759242566146
 21
164.7417649165464866
 31
0.0
  0
ARC
  5
23FB9
  8
0
 10
3234.4572261007378984
 20
164.7447381130099018
 30
0.0
 40
0.0138558949531247
 50
296.641873118728995
 51
347.6091182453084798
  0
ARC
  5
23FBA
  8
0
 10
3234.4417918080562231
 20
164.7755035038624101
 30
0.0
 40
0.0482757535365454
 50
268.7099254804185762
 51
296.641873118728995
  0
ARC
  5
23FBB
  8
0
 10
3234.4438058275541152
 20
164.864936566846211
 30
0.0
 40
0.1377314913581921
 50
242.9176975871646107
 51
268.7099254804185762
  0
ARC
  5
23FBC
  8
0
 10
3234.4002514929979952
 20
164.7797590674288131
 30
0.0
 40
0.0420644308535658
 50
211.4101732920017014
 51
242.9176975871639002
  0
ARC
  5
23FBD
  8
0
 10
3234.3805704866399537
 20
164.765324160657002
 30
0.0
 40
0.0178640759675567
 50
164.236948214583407
 51
204.7799251609455951
  0
LINE
  5
23FBE
  8
0
 10
3234.3633782182200775
 20
164.7701771099407893
 30
0.0
 11
3234.3749149948162085
 21
164.8286862209965022
 31
0.0
  0
ARC
  5
23FBF
  8
0
 10
3234.39424454164282
 20
164.6706681772128036
 30
0.0
 40
0.1591958967491545
 50
55.6709648143600191
 51
96.974055021960325
  0
ARC
  5
23FC0
  8
0
 10
3234.4654279867509103
 20
164.7749056963124019
 30
0.0
 40
0.0329717182200644
 50
16.6037182390753983
 51
55.670964814338511
  0
ARC
  5
23FC1
  8
0
 10
3234.4718814557750193
 20
164.8123234419537937
 30
0.0
 40
0.037629422784744
 50
279.5239755701587114
 51
311.9272339927143207
  0
ARC
  5
23FC2
  8
0
 10
3234.3899098329079607
 20
164.7605569782195971
 30
0.0
 40
0.069759865902565
 50
102.4125560169804032
 51
121.3638109426497067
  0
ARC
  5
23FC3
  8
0
 10
3234.3785579738441811
 20
164.8264700712421984
 30
0.0
 40
0.0257504255034673
 50
194.2683662921255916
 51
249.9027062025297141
  0
ARC
  5
23FC4
  8
0
 10
3234.4051656310630278
 20
164.7031292541520884
 30
0.0
 40
0.0501195579441056
 50
45.0498235337891586
 51
108.3792132650284969
  0
ARC
  5
23FC5
  8
0
 10
3234.4243706835450212
 20
164.7844644460037102
 30
0.0
 40
0.0486428058492108
 50
223.9706662429439064
 51
289.4583864599312051
  0
LINE
  5
23FC6
  8
0
 10
3234.5121411347208777
 20
164.4837635348814047
 30
0.0
 11
3234.5032940587798294
 21
164.446630057155005
 31
0.0
  0
ARC
  5
23FC7
  8
0
 10
3234.5137080923827853
 20
164.444148906673604
 30
0.0
 40
0.0107055221078185
 50
166.599074727397209
 51
258.8431843000623758
  0
LINE
  5
23FC8
  8
0
 10
3234.5116366280021794
 20
164.4336457053082938
 30
0.0
 11
3234.5779356225798438
 21
164.4068250023549922
 31
0.0
  0
LINE
  5
23FC9
  8
0
 10
3234.5779356225798438
 20
164.4068250023549922
 30
0.0
 11
3234.6614286552421618
 21
164.3916807358108088
 31
0.0
  0
ARC
  5
23FCA
  8
0
 10
3234.6630126130539793
 20
164.4004133767008113
 30
0.0
 40
0.0088751303799805
 50
259.7192584829995781
 51
305.7981557294389745
  0
LINE
  5
23FCB
  8
0
 10
3234.6682039569800509
 20
164.3932149124549937
 30
0.0
 11
3234.6867699240719958
 21
164.4066042017830966
 31
0.0
  0
ARC
  5
23FCC
  8
0
 10
3234.6793947239339104
 20
164.4168308627887995
 30
0.0
 40
0.0126086546626628
 50
305.7981557294418167
 51
343.3045213471853003
  0
LINE
  5
23FCD
  8
0
 10
3234.6914718628800074
 20
164.4132085862549957
 30
0.0
 11
3234.7025053274801394
 21
164.4558829235548956
 31
0.0
  0
ARC
  5
23FCE
  8
0
 10
3234.6934419744247862
 20
164.453909434638291
 30
0.0
 40
0.0199017542311538
 50
280.0895358245280136
 51
298.2291076468561073
  0
ARC
  5
23FCF
  8
0
 10
3234.7305507539940663
 20
164.4118783867257036
 30
0.0
 40
0.0369743076690689
 50
105.4792369680722999
 51
138.5073949082606077
  0
ARC
  5
23FD0
  8
0
 10
3234.6421679325057994
 20
164.3009329352877899
 30
0.0
 40
0.1662831924647195
 50
61.8239705733176166
 51
68.7241032904058358
  0
LINE
  5
23FD1
  8
0
 10
3234.7025053274801394
 20
164.4558829235548956
 30
0.0
 11
3234.6385329152799386
 21
164.4829617533549992
 31
0.0
  0
ARC
  5
23FD2
  8
0
 10
3234.6015671976970225
 20
164.3885542408914944
 30
0.0
 40
0.1013866001300321
 50
68.6169328708064512
 51
79.7517863769269724
  0
LINE
  5
23FD3
  8
0
 10
3234.6196051781798815
 20
164.4883233440550043
 30
0.0
 11
3234.5285764102500252
 21
164.5034500364861003
 31
0.0
  0
ARC
  5
23FD4
  8
0
 10
3234.5207787960071073
 20
164.4628000284355949
 30
0.0
 40
0.0413911336204237
 50
79.1412452403309743
 51
92.2113303885616347
  0
LINE
  5
23FD5
  8
0
 10
3234.5032701973241274
 20
164.4465276773871949
 30
0.0
 11
3234.522530904479936
 21
164.4605871524549912
 31
0.0
  0
LINE
  5
23FD6
  8
0
 10
3234.522530904479936
 20
164.4605871524549912
 30
0.0
 11
3234.616620260379932
 21
164.4438756284550038
 31
0.0
  0
LINE
  5
23FD7
  8
0
 10
3234.616620260379932
 20
164.4438756284550038
 30
0.0
 11
3234.6914916091168379
 21
164.413284959145102
 31
0.0
  0
ARC
  5
23FD8
  8
0
 10
3234.5689074530450853
 20
164.321040346845308
 30
0.0
 40
0.1060588208546457
 50
59.1517900527420295
 51
91.7809172830264828
  0
ARC
  5
23FD9
  8
0
 10
3234.6134227556140104
 20
164.4927522053488929
 30
0.0
 40
0.0812587180215911
 50
233.9575366154915059
 51
276.9751707202726152
  0
ARC
  5
23FDA
  8
0
 10
3233.3758076616209109
 20
164.0820766575077982
 30
0.0
 40
0.6327521530541308
 50
68.240271476466404
 51
76.6843152680038003
  0
ARC
  5
23FDB
  8
0
 10
3233.5077191727841637
 20
164.639420079486797
 30
0.0
 40
0.0600110799673434
 50
76.6843152680038003
 51
98.1328534304899733
  0
ARC
  5
23FDC
  8
0
 10
3233.5405640595508885
 20
164.7352992131741019
 30
0.0
 40
0.0551246401955897
 50
221.4235940123876105
 51
246.4554350839729011
  0
LINE
  5
23FDD
  8
0
 10
3233.5215406928691664
 20
164.697817813187612
 30
0.0
 11
3233.5091403641799843
 21
164.6438026649549897
 31
0.0
  0
ARC
  5
23FDE
  8
0
 10
3233.5215642172429398
 20
164.6409505046516983
 30
0.0
 40
0.0127470366488546
 50
167.070565390775613
 51
215.1125324115452884
  0
ARC
  5
23FDF
  8
0
 10
3233.5275843246340628
 20
164.6451834745029998
 30
0.0
 40
0.0201063658824614
 50
215.1125324115425883
 51
239.3954285166115881
  0
ARC
  5
23FE0
  8
0
 10
3233.7037483214921849
 20
164.9948305670367006
 30
0.0
 40
0.4115815262070003
 50
243.0708708841848988
 51
260.7186846166164855
  0
ARC
  5
23FE1
  8
0
 10
3233.6387984709190277
 20
164.6032147387363977
 30
0.0
 40
0.0146474756130552
 50
264.3941269841826056
 51
340.7006798139254897
  0
LINE
  5
23FE2
  8
0
 10
3233.6526228297798298
 20
164.5983737012550137
 30
0.0
 11
3233.6605463465298271
 21
164.628006801091999
 31
0.0
  0
ARC
  5
23FE3
  8
0
 10
3233.9575086095078404
 20
164.234559093338504
 30
0.0
 40
0.3226108711368664
 50
68.1388274872816169
 51
82.5971392962030251
  0
ARC
  5
23FE4
  8
0
 10
3233.9929988800690808
 20
164.2390997806830057
 30
0.0
 40
0.3154396694844403
 50
88.8961980716162543
 51
92.6418118052041564
  0
ARC
  5
23FE5
  8
0
 10
3234.0577553386669933
 20
164.6555834257281106
 30
0.0
 40
0.128707244546155
 50
231.968580866096687
 51
241.4392401811813897
  0
LINE
  5
23FE6
  8
0
 10
3233.9990754424511579
 20
164.5544809159370061
 30
0.0
 11
3233.9875112102799903
 21
164.5060785635550076
 31
0.0
  0
ARC
  5
23FE7
  8
0
 10
3234.0001960111508197
 20
164.5030479260940126
 30
0.0
 40
0.0130418149260493
 50
166.5628551399088053
 51
232.5010760491024087
  0
ARC
  5
23FE8
  8
0
 10
3234.103069433364908
 20
164.6988987112763141
 30
0.0
 40
0.2340874205869227
 50
241.7459982785271961
 51
263.9576113971353948
  0
ARC
  5
23FE9
  8
0
 10
3234.0773293302049751
 20
164.4857546692163055
 30
0.0
 40
0.0196735812460176
 50
273.2025336265767237
 51
330.5131353997754218
  0
LINE
  5
23FEA
  8
0
 10
3234.094454564222815
 20
164.4760708601068018
 30
0.0
 11
3234.1051325524699678
 21
164.5174484699959123
 31
0.0
  0
ARC
  5
23FEB
  8
0
 10
3233.9955491954228819
 20
164.3384700173926092
 30
0.0
 40
0.1506621436698557
 50
63.2805795564270284
 51
82.7270571521814162
  0
ARC
  5
23FEC
  8
0
 10
3234.063916336434886
 20
164.5621421715923134
 30
0.0
 40
0.0891000590884781
 50
236.4102918260390993
 51
269.5973448825743048
  0
ARC
  5
23FED
  8
0
 10
3235.0653420667390492
 20
163.9733628524058986
 30
0.0
 40
0.5316923982513677
 50
66.6641675560431253
 51
86.6330569494389948
  0
ARC
  5
23FEE
  8
0
 10
3235.2538733729720661
 20
164.4103751343743056
 30
0.0
 40
0.0557472459265174
 50
52.0732499952082506
 51
66.6641675560424858
  0
LINE
  5
23FEF
  8
0
 10
3235.2759473361797973
 20
164.4615347006549939
 30
0.0
 11
3235.2641636608791487
 21
164.415963016655013
 31
0.0
  0
ARC
  5
23FF0
  8
0
 10
3235.252763745986158
 20
164.4189107439223108
 30
0.0
 40
0.0117748526789316
 50
303.2654593644173815
 51
345.5023139451650991
  0
LINE
  5
23FF1
  8
0
 10
3235.2592224746799729
 20
164.4090653399549922
 30
0.0
 11
3235.2418305276219144
 21
164.3944064447836979
 31
0.0
  0
ARC
  5
23FF2
  8
0
 10
3235.2348430943320636
 20
164.4016946565440946
 30
0.0
 40
0.0100966457124048
 50
265.276710723846179
 51
313.7929941167110997
  0
LINE
  5
23FF3
  8
0
 10
3235.2340117000790087
 20
164.3916322990550043
 30
0.0
 11
3235.149048472279901
 21
164.4039527207550009
 31
0.0
  0
LINE
  5
23FF4
  8
0
 10
3235.149048472279901
 20
164.4039527207550009
 30
0.0
 11
3235.0814576243801639
 21
164.4315341687550074
 31
0.0
  0
ARC
  5
23FF5
  8
0
 10
3235.0857106666708205
 20
164.4419566358641021
 30
0.0
 40
0.0112568285662085
 50
170.1826415564856916
 51
247.8013560424602986
  0
LINE
  5
23FF6
  8
0
 10
3235.0746186798801318
 20
164.4438760155549915
 30
0.0
 11
3235.083658080513942
 21
164.4818169437515962
 31
0.0
  0
LINE
  5
23FF7
  8
0
 10
3235.0746186798801318
 20
164.4438760155549915
 30
0.0
 11
3235.0945428449799692
 21
164.4605876359549939
 31
0.0
  0
LINE
  5
23FF8
  8
0
 10
3235.0945428449799692
 20
164.4605876359549939
 30
0.0
 11
3235.1893159143801313
 21
164.4466306370549944
 31
0.0
  0
LINE
  5
23FF9
  8
0
 10
3235.1893159143801313
 20
164.4466306370549944
 30
0.0
 11
3235.2641636608791487
 21
164.415963016655013
 31
0.0
  0
ARC
  5
23FFA
  8
0
 10
3235.1526782687788
 20
164.3498294842733003
 30
0.0
 40
0.0762230473706951
 50
54.5239074680369882
 51
100.0503241876438949
  0
ARC
  5
23FFB
  8
0
 10
3235.1829397293067814
 20
164.4839695204418888
 30
0.0
 40
0.0734098046008484
 50
233.5994031434860858
 51
280.9748285122095126
  0
LINE
  5
23FFC
  8
0
 10
3235.078333025379834
 20
164.4594661770549919
 30
0.0
 11
3235.0492356139798176
 21
164.4643385115550132
 31
0.0
  0
ARC
  5
23FFD
  8
0
 10
3235.0395318069618043
 20
164.4063877150875896
 30
0.0
 40
0.0587576265844337
 50
80.4940664618844863
 51
91.8670836199714387
  0
ARC
  5
23FFE
  8
0
 10
3235.0377675172148884
 20
164.4605098613407961
 30
0.0
 40
0.0046067315468632
 50
91.8670836200236494
 51
123.7884607744698968
  0
LINE
  5
23FFF
  8
0
 10
3235.035205583680181
 20
164.4643384997550015
 30
0.0
 11
3235.0159705896357991
 21
164.448913988119898
 31
0.0
  0
ARC
  5
24000
  8
0
 10
3235.016572204095155
 20
164.4480869749478984
 30
0.0
 40
0.0010226880024049
 50
126.0341817909963993
 51
212.979386074766893
  0
ARC
  5
24001
  8
0
 10
3235.0204572793331863
 20
164.4506079855106861
 30
0.0
 40
0.0056540273174048
 50
212.9793860747172118
 51
240.0617084485498935
  0
ARC
  5
24002
  8
0
 10
3235.0480411079811347
 20
164.4985036331891024
 30
0.0
 40
0.0609248213178552
 50
240.0617084485506894
 51
248.6005046967437977
  0
ARC
  5
24003
  8
0
 10
3234.9706633989230795
 20
164.301053871588806
 30
0.0
 40
0.1511452572294398
 50
65.514665812552721
 51
68.6005046967438261
  0
LINE
  5
24004
  8
0
 10
3235.0398454621099518
 20
164.4651445045020068
 30
0.0
 11
3235.0333071089798977
 21
164.4386062411549858
 31
0.0
  0
LINE
  5
24005
  8
0
 10
3235.0333071089798977
 20
164.4386062411549858
 30
0.0
 11
3235.0245617738801229
 21
164.4018989579550123
 31
0.0
  0
ARC
  5
24006
  8
0
 10
3235.0350931132570622
 20
164.3996431008424111
 30
0.0
 40
0.01077023678513
 50
167.909708451057611
 51
250.8680119041985961
  0
LINE
  5
24007
  8
0
 10
3235.0315632175797873
 20
164.3894677464548977
 30
0.0
 11
3235.099179390880181
 21
164.3626158707550076
 31
0.0
  0
LINE
  5
24008
  8
0
 10
3235.099179390880181
 20
164.3626158707550076
 30
0.0
 11
3235.1839493641527952
 21
164.3500681962169097
 31
0.0
  0
ARC
  5
24009
  8
0
 10
3235.185231939528876
 20
164.3587330591799116
 30
0.0
 40
0.0087592722165833
 50
261.5802004973817247
 51
308.7272946376183995
  0
LINE
  5
2400A
  8
0
 10
3235.1907118660801643
 20
164.3518996665549992
 30
0.0
 11
3235.2098602597639001
 21
164.3672554051613872
 31
0.0
  0
ARC
  5
2400B
  8
0
 10
3235.2022077935930611
 20
164.3767979246476045
 30
0.0
 40
0.0122319220334203
 50
308.7272946376438085
 51
344.3331292809397155
  0
LINE
  5
2400C
  8
0
 10
3235.2139852758800771
 20
164.3734947704550109
 30
0.0
 11
3235.2194593337057995
 21
164.3937425775214933
 31
0.0
  0
ARC
  5
2400D
  8
0
 10
3235.0987766234161427
 20
164.2976923719637057
 30
0.0
 40
0.0865533224940399
 50
57.3216321548753101
 51
97.5270231762645921
  0
ARC
  5
2400E
  8
0
 10
3235.1324111695230386
 20
164.4484652807925045
 30
0.0
 40
0.0790128366895089
 50
235.3069645511174031
 51
279.5416776363621238
  0
LINE
  5
2400F
  8
0
 10
3235.024561619080032
 20
164.4018989990549926
 30
0.0
 11
3235.0441893773759148
 21
164.4174113895076914
 31
0.0
  0
LINE
  5
24010
  8
0
 10
3235.0441893773759148
 20
164.4174113895076914
 30
0.0
 11
3235.1389602337799261
 21
164.4034929903550051
 31
0.0
  0
LINE
  5
24011
  8
0
 10
3235.1389602337799261
 20
164.4034929903550051
 30
0.0
 11
3235.213970749830878
 21
164.3734383340832892
 31
0.0
  0
LINE
  5
24012
  8
0
 10
3235.0288529788590495
 20
164.4199106721571013
 30
0.0
 11
3234.9998120542791185
 21
164.4247754098549876
 31
0.0
  0
ARC
  5
24013
  8
0
 10
3234.9886544179630619
 20
164.3581678978223977
 30
0.0
 40
0.0675355721627624
 50
80.4904933562642952
 51
88.2299788674540792
  0
ARC
  5
24014
  8
0
 10
3234.9903792439367862
 20
164.413982942422308
 30
0.0
 40
0.0116938831809434
 50
88.2299788674800993
 51
112.7356733334617047
  0
LINE
  5
24015
  8
0
 10
3234.9858597878078399
 20
164.4247681832702881
 30
0.0
 11
3234.966624793722076
 21
164.4093436716080134
 31
0.0
  0
ARC
  5
24016
  8
0
 10
3234.9672242600768186
 20
164.4085205888542021
 30
0.0
 40
0.0010182461055081
 50
126.0665418857776956
 51
211.70553761988009
  0
LINE
  5
24017
  8
0
 10
3234.9844765804168674
 20
164.401060384612606
 30
0.0
 11
3234.9680581751808859
 21
164.4065080964396941
 31
0.0
  0
LINE
  5
24018
  8
0
 10
3234.9663579767247938
 20
164.4079854456057035
 30
0.0
 11
3234.9667466603677894
 21
164.4074311455320867
 31
0.0
  0
ARC
  5
24019
  8
0
 10
3234.9691020010809552
 20
164.4093844748664139
 30
0.0
 40
0.0030599224438816
 50
219.6695701859048029
 51
250.0543737025242876
  0
LINE
  5
2401A
  8
0
 10
3234.9903792439367862
 20
164.4256768256032899
 30
0.0
 11
3234.9844765804168674
 21
164.4010603846126912
 31
0.0
  0
LINE
  5
2401B
  8
0
 10
3234.9844765804168674
 20
164.4010603846126912
 30
0.0
 11
3234.9760355966791394
 21
164.3655568589549887
 31
0.0
  0
ARC
  5
2401C
  8
0
 10
3234.986711015164019
 20
164.3633304967686115
 30
0.0
 40
0.0109051019438842
 50
168.2197950581366115
 51
253.8899748490468937
  0
LINE
  5
2401D
  8
0
 10
3234.9836850373958441
 20
164.3528536314476014
 30
0.0
 11
3235.0506052672799342
 21
164.3265206556550027
 31
0.0
  0
LINE
  5
2401E
  8
0
 10
3235.0506052672799342
 20
164.3265206556550027
 30
0.0
 11
3235.1351536822799062
 21
164.3133049683549984
 31
0.0
  0
ARC
  5
2401F
  8
0
 10
3235.1365349631419122
 20
164.3221418229917958
 30
0.0
 40
0.0089441565669253
 50
261.116034972324087
 51
312.1258806195035049
  0
LINE
  5
24020
  8
0
 10
3235.142534360828904
 20
164.3155081841645142
 30
0.0
 11
3235.1607317661801062
 21
164.3293361658550111
 31
0.0
  0
ARC
  5
24021
  8
0
 10
3235.1535402919521403
 20
164.338944180762013
 30
0.0
 40
0.0120013025911946
 50
306.8140518371365033
 51
344.8475805813641273
  0
LINE
  5
24022
  8
0
 10
3235.1651243559799696
 20
164.3358071878550106
 30
0.0
 11
3235.1695629409841786
 21
164.3521976784936953
 31
0.0
  0
ARC
  5
24023
  8
0
 10
3235.0468469096331319
 20
164.2558511291911998
 30
0.0
 40
0.0914974243532254
 50
57.7677599732613771
 51
94.7045342169675166
  0
ARC
  5
24024
  8
0
 10
3235.0847286058860846
 20
164.4104989317264085
 30
0.0
 40
0.0780185560927075
 50
234.4273786630930942
 51
278.0449239358180193
  0
LINE
  5
24025
  8
0
 10
3234.9760345383801905
 20
164.3655555736550014
 30
0.0
 11
3234.9955017511288133
 21
164.3804322740415103
 31
0.0
  0
LINE
  5
24026
  8
0
 10
3234.9955017511288133
 20
164.3804322740415103
 30
0.0
 11
3235.0901248450800267
 21
164.3658646402548982
 31
0.0
  0
LINE
  5
24027
  8
0
 10
3235.0901248450800267
 20
164.3658646402548982
 30
0.0
 11
3235.1651258431797942
 21
164.3358088074550096
 31
0.0
  0
ARC
  5
24028
  8
0
 10
3232.8186376202911561
 20
165.1974166967576991
 30
0.0
 40
0.0791523609578321
 50
139.0130390000630882
 51
175.8602930575910932
  0
ARC
  5
24029
  8
0
 10
3232.8903929576349583
 20
165.1350693972044041
 30
0.0
 40
0.1742103127501544
 50
115.7141337363815978
 51
139.0130390000655893
  0
ARC
  5
2402A
  8
0
 10
3233.1146613148271172
 20
164.559161961369
 30
0.0
 40
0.7918365611934381
 50
93.2038378078108849
 51
112.2521220895618939
  0
ARC
  5
2402B
  8
0
 10
3233.2229823146190029
 20
161.7126389854377919
 30
0.0
 40
3.6403207406499498
 50
85.3349310239586032
 51
92.4021212077281433
  0
ARC
  5
2402C
  8
0
 10
3232.8988938258971757
 20
158.1569823197586118
 30
0.0
 40
7.210635835236042
 50
78.9689759643458586
 51
85.066115421397555
  0
ARC
  5
2402D
  8
0
 10
3232.2844457917999534
 20
154.7560553632563085
 30
0.0
 40
10.6664014957522504
 50
74.7479138723064693
 51
79.2248788995681394
  0
ARC
  5
2402E
  8
0
 10
3232.8109445354371019
 20
156.6494545430853975
 30
0.0
 40
8.7011935955501372
 50
68.5632682928398651
 51
74.8128709803109189
  0
ARC
  5
2402F
  8
0
 10
3234.6454638757431894
 20
161.2606695168348097
 30
0.0
 40
3.7385729271393919
 50
61.4688251204758984
 51
68.9055377569288083
  0
ARC
  5
24030
  8
0
 10
3235.8140944957222018
 20
163.3626565249305997
 30
0.0
 40
1.3338692708634321
 50
48.8386380057436114
 51
62.4449101408353613
  0
ARC
  5
24031
  8
0
 10
3236.4304790334049358
 20
164.0926800879055065
 30
0.0
 40
0.3789280549939979
 50
30.3655894510616484
 51
46.3523970855235703
  0
ARC
  5
24032
  8
0
 10
3236.6845621238021522
 20
164.2415447016200005
 30
0.0
 40
0.0844473424812961
 50
354.7170873882005822
 51
30.3655894510630517
  0
ARC
  5
24033
  8
0
 10
3236.6931935934089779
 20
164.240746580648505
 30
0.0
 40
0.0757790517239649
 50
319.1278843417148892
 51
354.7170873882005822
  0
ARC
  5
24034
  8
0
 10
3236.5706505463640497
 20
164.3467923536730098
 30
0.0
 40
0.2378361538676593
 50
294.583954166137687
 51
319.1278843417148892
  0
ARC
  5
24035
  8
0
 10
3236.4612592815969947
 20
164.5859004935124119
 30
0.0
 40
0.5007794012516498
 50
279.8720265910599778
 51
294.583954166137687
  0
ARC
  5
24036
  8
0
 10
3236.1860009034189716
 20
166.1676190080991944
 30
0.0
 40
2.1062701779749911
 50
276.9312760859976947
 51
279.8720265910599778
  0
ARC
  5
24037
  8
0
 10
3236.345061106589128
 20
164.859205177149704
 30
0.0
 40
0.788223554652249
 50
273.5333262823373275
 51
276.9312760859976947
  0
LINE
  5
24038
  8
0
 10
3235.8863112062058462
 20
164.0955746544676117
 30
0.0
 11
3236.2394295255289762
 21
163.6419098281550077
 31
0.0
  0
ARC
  5
24039
  8
0
 10
3236.346147577875854
 20
163.7318063721756118
 30
0.0
 40
0.1395354124345547
 50
220.1099251149576048
 51
239.7350341888474929
  0
ARC
  5
2403A
  8
0
 10
3236.3081370169411457
 20
163.6668640250190094
 30
0.0
 40
0.0642872234591858
 50
239.8232253698215004
 51
266.6603552981267171
  0
ARC
  5
2403B
  8
0
 10
3236.3061861975188549
 20
163.6312777153680997
 30
0.0
 40
0.0286434961176879
 50
269.9758865362749134
 51
321.0209042091271954
  0
LINE
  5
2403C
  8
0
 10
3236.3284529500788267
 20
163.61325990195499
 30
0.0
 11
3236.4980659220300367
 21
163.8308842113050048
 31
0.0
  0
ARC
  5
2403D
  8
0
 10
3236.4744089083610561
 20
163.8448393241390875
 30
0.0
 40
0.027466333390529
 50
329.4639320780494813
 51
12.6043548406261099
  0
ARC
  5
2403E
  8
0
 10
3236.4369674158551788
 20
163.8364671709769027
 30
0.0
 40
0.0658324422593893
 50
12.6043548406292807
 51
28.1028553315676106
  0
ARC
  5
2403F
  8
0
 10
3236.0009389342130817
 20
163.5283604104151891
 30
0.0
 40
0.599278740240389
 50
34.4631514778450097
 51
50.6640199791738723
  0
ARC
  5
24040
  8
0
 10
3236.079187234462097
 20
163.6223373090672055
 30
0.0
 40
0.476994988278278
 50
50.7783389594335617
 51
63.1569127564627308
  0
ARC
  5
24041
  8
0
 10
3236.3119068335081465
 20
164.0544052908375932
 30
0.0
 40
0.018501634786489
 50
180.0258785114617126
 51
200.4717811890749886
  0
LINE
  5
24042
  8
0
 10
3235.94502100892214
 20
164.1445717365290022
 30
0.0
 11
3236.2731064030799644
 21
164.0508145738548933
 31
0.0
  0
ARC
  5
24043
  8
0
 10
3236.2755259641958219
 20
164.084266729373013
 30
0.0
 40
0.0335395435984899
 50
265.8630573718456276
 51
298.3873318593372232
  0
ARC
  5
24044
  8
0
 10
3235.6941237966680092
 20
163.8089568890536043
 30
0.0
 40
0.3315459857497681
 50
74.8211098142157027
 51
91.1781535174678766
  0
ARC
  5
24045
  8
0
 10
3235.6891941444109762
 20
164.0486611847130121
 30
0.0
 40
0.0917910049277554
 50
91.1781535174678766
 51
102.7017133416715069
  0
ARC
  5
24046
  8
0
 10
3235.7143089787127792
 20
164.210993105832614
 30
0.0
 40
0.0857311957572021
 50
238.1048986490864934
 51
250.0155963861373039
  0
LINE
  5
24047
  8
0
 10
3235.6873068103800506
 20
164.1404327846549904
 30
0.0
 11
3235.6760669623799913
 21
164.0914698798549978
 31
0.0
  0
ARC
  5
24048
  8
0
 10
3235.6884788644661057
 20
164.0886206229857862
 30
0.0
 40
0.012734739027466
 50
167.0712662727032978
 51
229.2021900171498885
  0
ARC
  5
24049
  8
0
 10
3235.7094340956978158
 20
164.1198590383698956
 30
0.0
 40
0.0502808733997243
 50
234.3910971849826126
 51
256.8993932306187276
  0
ARC
  5
2404A
  8
0
 10
3235.8189246358779201
 20
164.5013690544687961
 30
0.0
 40
0.4471338834843237
 50
254.3142876066494011
 51
268.9686401090206118
  0
ARC
  5
2404B
  8
0
 10
3235.8102510264770899
 20
164.0684510652303061
 30
0.0
 40
0.0141572737766481
 50
272.5316897014225219
 51
342.9884864332094025
  0
LINE
  5
2404C
  8
0
 10
3235.8237888626799759
 20
164.0643091584549893
 30
0.0
 11
3235.8296238320622251
 21
164.0861278734128064
 31
0.0
  0
LINE
  5
2404D
  8
0
 10
3235.8271299484799783
 20
164.0768010139549915
 30
0.0
 11
3235.9077456272161726
 21
164.0680370208976058
 31
0.0
  0
LINE
  5
2404E
  8
0
 10
3235.212278489379969
 20
164.2099083515549864
 30
0.0
 11
3235.2011568956800147
 21
164.1614590314549957
 31
0.0
  0
ARC
  5
2404F
  8
0
 10
3235.2133080513781351
 20
164.1586697205549115
 30
0.0
 40
0.0124671905449921
 50
167.07166687278891
 51
226.0618132180130999
  0
ARC
  5
24050
  8
0
 10
3235.2197805244550182
 20
164.165386649417286
 30
0.0
 40
0.0217951078404343
 50
226.0618132180073871
 51
251.5735796308916008
  0
ARC
  5
24051
  8
0
 10
3235.3688384490260432
 20
164.612782394377291
 30
0.0
 40
0.4933682384213018
 50
251.5735796308916008
 51
265.6618909487372093
  0
ARC
  5
24052
  8
0
 10
3235.3327505397928689
 20
164.1370607727039896
 30
0.0
 40
0.0162797785731861
 50
265.6618909487372093
 51
340.148796957133186
  0
LINE
  5
24053
  8
0
 10
3235.348062936091992
 20
164.1315325080603884
 30
0.0
 11
3235.3540639225248015
 21
164.1523179698320973
 31
0.0
  0
LINE
  5
24054
  8
0
 10
3235.3520076358240658
 20
164.1451956626762012
 30
0.0
 11
3235.6767077651170439
 21
164.0942639845482063
 31
0.0
  0
ARC
  5
24055
  8
0
 10
3233.0538370873769054
 20
164.3742151200478929
 30
0.0
 40
0.5029474605982182
 50
68.0276600541153442
 51
78.8995340342403324
  0
ARC
  5
24056
  8
0
 10
3233.1327300658240347
 20
164.776318681931599
 30
0.0
 40
0.0931775537873482
 50
78.8995340342403324
 51
93.370187943532315
  0
ARC
  5
24057
  8
0
 10
3233.1767969098968933
 20
164.9075455852639038
 30
0.0
 40
0.0625675296730751
 50
217.6407183337921083
 51
241.948338319999209
  0
LINE
  5
24058
  8
0
 10
3233.150903945635946
 20
164.8677069367479078
 30
0.0
 11
3233.1387404927841089
 21
164.8147236717599071
 31
0.0
  0
ARC
  5
24059
  8
0
 10
3233.1486537902360396
 20
164.8124478602148884
 30
0.0
 40
0.0101711741969058
 50
167.0705500256115101
 51
176.7842927536214006
  0
ARC
  5
2405A
  8
0
 10
3233.1544886471451719
 20
164.8121200364574861
 30
0.0
 40
0.016015233023231
 50
176.7842927536036939
 51
219.4432206320338992
  0
ARC
  5
2405B
  8
0
 10
3233.1670967568120432
 20
164.8246349459138003
 30
0.0
 40
0.0337433814753272
 50
222.2538294004556008
 51
238.2230772478229994
  0
ARC
  5
2405C
  8
0
 10
3233.3286209770622008
 20
165.119853323698095
 30
0.0
 40
0.3702161286782665
 50
241.0336860163758956
 51
258.4200023291385264
  0
ARC
  5
2405D
  8
0
 10
3233.2648192772649054
 20
164.8084838541338115
 30
0.0
 40
0.0523771702829906
 50
258.4200023291385264
 51
274.6925959660285912
  0
ARC
  5
2405E
  8
0
 10
3233.2679930964582127
 20
164.7698187598765003
 30
0.0
 40
0.0135820334461249
 50
274.6925959660546255
 51
326.2502075837422808
  0
ARC
  5
2405F
  8
0
 10
3233.2651296121271116
 20
164.7717320639299885
 30
0.0
 40
0.0170259084311853
 50
326.2502075837649045
 51
343.0954438505618782
  0
LINE
  5
24060
  8
0
 10
3233.2814198389628473
 20
164.7667812995896952
 30
0.0
 11
3233.2907660399100678
 21
164.8021049503574034
 31
0.0
  0
ARC
  5
24061
  8
0
 10
3233.1801016541571698
 20
164.7079870185310995
 30
0.0
 40
0.081368865082874
 50
50.7773088962456072
 51
87.3752789706991564
  0
ARC
  5
24062
  8
0
 10
3233.2345638091501314
 20
164.8504324308227922
 30
0.0
 40
0.079466444888321
 50
230.3231037895581039
 51
267.8294840773688748
  0
ARC
  5
24063
  8
0
 10
3240.5414586693627825
 20
181.7327035938936888
 30
0.0
 40
18.4730343606923206
 50
246.774738694357211
 51
247.6289348257778897
  0
ARC
  5
24064
  8
0
 10
3233.5459915209148676
 20
164.5227872495443933
 30
0.0
 40
0.0971662220127626
 50
53.5651661690744376
 51
86.7944064419237975
  0
ARC
  5
24065
  8
0
 10
3233.6198944610418948
 20
164.7278335594598104
 30
0.0
 40
0.1279023557184061
 50
237.633952035224894
 51
262.7256205757840917
  0
ARC
  5
24066
  8
0
 10
3236.9932833531588585
 20
173.7822156978899102
 30
0.0
 40
9.7748890564184059
 50
250.0100094299397142
 51
251.4896680586145123
  0
LINE
  5
24067
  8
0
 10
3233.897803759179169
 20
164.5470354364549905
 30
0.0
 11
3233.8899940080141278
 21
164.5130166329435895
 31
0.0
  0
LINE
  5
24068
  8
0
 10
3233.8899940080141278
 20
164.5130166329435895
 30
0.0
 11
3233.885759171780137
 21
164.494569942554989
 31
0.0
  0
ARC
  5
24069
  8
0
 10
3233.8981172634971699
 20
164.4917328756613983
 30
0.0
 40
0.0126795654290344
 50
167.0705499372587894
 51
233.2001768765397003
  0
ARC
  5
2406A
  8
0
 10
3233.932201946585792
 20
164.541339905267705
 30
0.0
 40
0.0728593052533261
 50
235.1058872070290136
 51
250.0624295600879066
  0
ARC
  5
2406B
  8
0
 10
3234.1070794069892145
 20
164.9824774483199974
 30
0.0
 40
0.5473679736161542
 50
248.5999629391093038
 51
259.9886283732467973
  0
ARC
  5
2406C
  8
0
 10
3234.0154948077802146
 20
164.4584608763964013
 30
0.0
 40
0.0154357250966598
 50
256.6204514217370729
 51
338.4510895319608039
  0
LINE
  5
2406D
  8
0
 10
3234.0298516430798372
 20
164.4527914064549918
 30
0.0
 11
3234.0357157478802037
 21
164.4747224971549997
 31
0.0
  0
LINE
  5
2406E
  8
0
 10
3234.4812974892802231
 20
164.3686273582549973
 30
0.0
 11
3234.4735813031120415
 21
164.3390282658778005
 31
0.0
  0
ARC
  5
2406F
  8
0
 10
3234.4598472240859337
 20
164.3437618153380981
 30
0.0
 40
0.0145269204308797
 50
266.5095707179610258
 51
340.9831184913556967
  0
ARC
  5
24070
  8
0
 10
3234.4818438028269156
 20
164.5897382983006878
 30
0.0
 40
0.2614794911908629
 50
245.9989752210346978
 51
264.9798592592111959
  0
ARC
  5
24071
  8
0
 10
3234.3804847560318194
 20
164.3638038836054989
 30
0.0
 40
0.013869149887234
 50
168.4646108299108107
 51
248.874906712442197
  0
LINE
  5
24072
  8
0
 10
3234.3668957438799225
 20
164.3665773412550095
 30
0.0
 11
3234.3780814211440884
 21
164.4153122886851008
 31
0.0
  0
ARC
  5
24073
  8
0
 10
3234.4308900198661831
 20
164.5325784555159032
 30
0.0
 40
0.1365250552762028
 50
236.2009782820038879
 51
246.4206292950836996
  0
ARC
  5
24074
  8
0
 10
3234.331074167893803
 20
164.201419418411092
 30
0.0
 40
0.2190121591837368
 50
77.6051112191891832
 51
83.7430705553686749
  0
ARC
  5
24075
  8
0
 10
3234.3018319744619475
 20
163.9362706417570905
 30
0.0
 40
0.4850720334246498
 50
71.8456202154710866
 51
80.9560523084416843
  0
LINE
  5
24076
  8
0
 10
3234.4648051210301674
 20
164.4411370349550054
 30
0.0
 11
3234.4529699570848607
 21
164.3971960021133043
 31
0.0
  0
ARC
  5
24077
  8
0
 10
3234.4670411416691422
 20
164.3922422102901919
 30
0.0
 40
0.0149177172857434
 50
160.6052692067354997
 51
227.8375208542611858
  0
ARC
  5
24078
  8
0
 10
3234.5167944485419866
 20
164.4669653610939974
 30
0.0
 40
0.1045485385801305
 50
235.1336769025720912
 51
250.1519948512504925
  0
ARC
  5
24079
  8
0
 10
3234.5583083377878211
 20
164.604379451060197
 30
0.0
 40
0.2480115320906992
 50
251.9098404294092006
 51
266.6661902105288959
  0
ARC
  5
2407A
  8
0
 10
3234.5427104490158854
 20
164.3761341127681987
 30
0.0
 40
0.0193821409870189
 50
273.4762786695782211
 51
334.3144857970381736
  0
LINE
  5
2407B
  8
0
 10
3234.5601773753801353
 20
164.367733287054989
 30
0.0
 11
3234.5717185437388252
 21
164.4093630040993048
 31
0.0
  0
ARC
  5
2407C
  8
0
 10
3234.3857761894851137
 20
164.221790722833191
 30
0.0
 40
0.1269087976942527
 50
64.0698470484213516
 51
86.3254709824963413
  0
ARC
  5
2407D
  8
0
 10
3234.4406302893348766
 20
164.4293708161945915
 30
0.0
 40
0.093449677455327
 50
240.002942058998002
 51
270.3923759718963993
  0
ARC
  5
2407E
  8
0
 10
3234.4008218586350267
 20
163.9731304155590976
 30
0.0
 40
0.4723600889839645
 50
75.339260849559011
 51
82.2151023296862462
  0
ARC
  5
2407F
  8
0
 10
3234.4535725720429582
 20
164.3589763716531991
 30
0.0
 40
0.0829249344342626
 50
82.2151023296862462
 51
96.4589701129163046
  0
ARC
  5
24080
  8
0
 10
3234.4678720923279798
 20
164.4543663498367891
 30
0.0
 40
0.02696392677312
 50
208.8034559149917868
 51
255.9437993776006124
  0
ARC
  5
24081
  8
0
 10
3234.4782890675678573
 20
164.2759860024465866
 30
0.0
 40
0.1010825518036305
 50
60.1437480938953897
 51
89.0714077461193767
  0
ARC
  5
24082
  8
0
 10
3234.5239159961688529
 20
164.4417190655751995
 30
0.0
 40
0.0782075185672114
 50
235.7737679666423958
 51
273.4413754129333256
  0
LINE
  5
24083
  8
0
 10
3235.040542903720052
 20
164.3243443292315931
 30
0.0
 11
3235.0285116235559144
 21
164.2781926468823883
 31
0.0
  0
ARC
  5
24084
  8
0
 10
3235.0147775445288971
 20
164.2829261963426859
 30
0.0
 40
0.0145269204308797
 50
266.5095707179610258
 51
340.9831184913556967
  0
ARC
  5
24085
  8
0
 10
3235.0367741232707886
 20
164.528902679305304
 30
0.0
 40
0.2614794911908629
 50
245.9989752210346978
 51
264.9798592592111959
  0
ARC
  5
24086
  8
0
 10
3234.9354150764747828
 20
164.3029682646102003
 30
0.0
 40
0.013869149887234
 50
168.4646108299108107
 51
248.874906712442197
  0
LINE
  5
24087
  8
0
 10
3234.9218260643228859
 20
164.3057417222595973
 30
0.0
 11
3234.9330117415879613
 21
164.3544766696898023
 31
0.0
  0
ARC
  5
24088
  8
0
 10
3234.9858203403100561
 20
164.471742836520491
 30
0.0
 40
0.1365250552762028
 50
236.2009782820038879
 51
246.4206292950836996
  0
ARC
  5
24089
  8
0
 10
3234.8860044883381306
 20
164.1405837994157082
 30
0.0
 40
0.2190121591837368
 50
77.6051112191891832
 51
83.7430705553686749
  0
ARC
  5
2408A
  8
0
 10
3234.8567622949058205
 20
163.8754350227617067
 30
0.0
 40
0.4850720334246498
 50
67.7361200503423362
 51
80.9560523084416843
  0
ARC
  5
2408B
  8
0
 10
3234.9407065099289866
 20
164.1609551038378925
 30
0.0
 40
0.1269087976942527
 50
64.0698470484213516
 51
86.3254709824963413
  0
ARC
  5
2408C
  8
0
 10
3234.9955606097792042
 20
164.368535197199293
 30
0.0
 40
0.093449677455327
 50
240.002942058998002
 51
270.3923759718963993
  0
ARC
  5
2408D
  8
0
 10
3235.0072071147751558
 20
164.2458746467918047
 30
0.0
 40
0.0852570576944559
 50
49.0622821963395594
 51
66.9830593630413205
  0
ARC
  5
2408E
  8
0
 10
3235.0642961622511393
 20
164.4256678877871991
 30
0.0
 40
0.1153946654352871
 50
256.6672706932405958
 51
269.3915715169508189
  0
LINE
  5
2408F
  8
0
 10
3234.9514472225509962
 20
164.2836329878784056
 30
0.0
 11
3234.9394159423868587
 21
164.2374813055292861
 31
0.0
  0
ARC
  5
24090
  8
0
 10
3234.9256818633612056
 20
164.2422148549896121
 30
0.0
 40
0.0145269204308797
 50
266.5095707179610258
 51
340.9831184913556967
  0
ARC
  5
24091
  8
0
 10
3234.947678442103097
 20
164.4881913379522018
 30
0.0
 40
0.2614794911908629
 50
245.9989752210346978
 51
264.9798592592111959
  0
ARC
  5
24092
  8
0
 10
3234.8463193953080008
 20
164.2622569232570129
 30
0.0
 40
0.013869149887234
 50
168.4646108299108107
 51
248.874906712442197
  0
LINE
  5
24093
  8
0
 10
3234.8327303831561039
 20
164.2650303809064951
 30
0.0
 11
3234.843916060419815
 21
164.3137653283365864
 31
0.0
  0
ARC
  5
24094
  8
0
 10
3234.8967246591419098
 20
164.4310314951673888
 30
0.0
 40
0.1365250552762028
 50
236.2009782820038879
 51
246.4206292950836996
  0
ARC
  5
24095
  8
0
 10
3234.7969088071699844
 20
164.099872458062606
 30
0.0
 40
0.2190121591837368
 50
77.6051112191891832
 51
83.7430705553686749
  0
ARC
  5
24096
  8
0
 10
3234.7676666137381289
 20
163.8347236814086045
 30
0.0
 40
0.4850720334246498
 50
67.7361200503423362
 51
80.9560523084416843
  0
ARC
  5
24097
  8
0
 10
3234.8516108287599309
 20
164.1202437624847903
 30
0.0
 40
0.1269087976942527
 50
64.0698470484213516
 51
86.3254709824963413
  0
ARC
  5
24098
  8
0
 10
3234.9064649286101485
 20
164.3278238558461055
 30
0.0
 40
0.093449677455327
 50
240.002942058998002
 51
270.3923759718963993
  0
ARC
  5
24099
  8
0
 10
3234.9181114336070095
 20
164.2051633054387025
 30
0.0
 40
0.0852570576944559
 50
49.0622821963395594
 51
66.9830593630413205
  0
ARC
  5
2409A
  8
0
 10
3234.9752004810829931
 20
164.3849565464340969
 30
0.0
 40
0.1153946654352871
 50
256.6672706932405958
 51
269.3915715169508189
  0
ARC
  5
2409B
  8
0
 10
3234.6279293025691004
 20
163.5422105268359019
 30
0.0
 40
0.7700088705603098
 50
74.2510903389385817
 51
82.7403630030853634
  0
ARC
  5
2409C
  8
0
 10
3234.764520728359912
 20
164.3416684336528988
 30
0.0
 40
0.0530329745406468
 50
222.1975400078434859
 51
243.7077739685869915
  0
LINE
  5
2409D
  8
0
 10
3234.7431818898621714
 20
164.3035452113628878
 30
0.0
 11
3234.7410297961378092
 21
164.2941219038953875
 31
0.0
  0
LINE
  5
2409E
  8
0
 10
3234.7410297961378092
 20
164.2941219038953875
 30
0.0
 11
3234.7317233385801956
 21
164.2535721911550013
 31
0.0
  0
ARC
  5
2409F
  8
0
 10
3234.7439859370729209
 20
164.2507578345363868
 30
0.0
 40
0.0125814118837319
 50
167.074046365365291
 51
238.9798965101167028
  0
ARC
  5
240A0
  8
0
 10
3234.9128524277061842
 20
164.6871611718462134
 30
0.0
 40
0.4803358216939414
 50
248.5888803870855952
 51
264.182574976959188
  0
ARC
  5
240A1
  8
0
 10
3234.8631293362677752
 20
164.224943745717411
 30
0.0
 40
0.0156789498135797
 50
273.7915588539804048
 51
336.910603906320091
  0
LINE
  5
240A2
  8
0
 10
3234.8775523095800963
 20
164.2187949809550105
 30
0.0
 11
3234.8821624491979492
 21
164.235052682296697
 31
0.0
  0
ARC
  5
240A3
  8
0
 10
3234.7572245844648933
 20
164.0395762133460948
 30
0.0
 40
0.1926424016482616
 50
68.9926298542355738
 51
83.6767893174762207
  0
ARC
  5
240A4
  8
0
 10
3234.8335470388969952
 20
164.3534897016432978
 30
0.0
 40
0.1342717555856854
 50
245.7699053797419992
 51
266.8995022422824945
  0
ARC
  5
240A5
  8
0
 10
3238.1873062802369532
 20
177.8798885118262945
 30
0.0
 40
14.04219953611093
 50
252.7936206197680065
 51
254.2134595155525858
  0
ARC
  5
240A6
  8
0
 10
3237.3566306762058957
 20
175.0532348242421961
 30
0.0
 40
11.0949979299471302
 50
254.9392011548821984
 51
256.3376350463773861
  0
ARC
  5
240A7
  8
0
 10
3222.2782867737150809
 20
102.4438723696473943
 30
0.0
 40
63.0665302981848512
 50
78.1736713565257446
 51
78.4274206728578065
  0
ARC
  5
240A8
  8
0
 10
3235.2361523047488845
 20
163.9547037006811081
 30
0.0
 40
0.185816265762157
 50
70.1019036825238544
 51
86.226022679657774
  0
ARC
  5
240A9
  8
0
 10
3235.3054778375940259
 20
164.2855067682361039
 30
0.0
 40
0.1561986417784132
 50
248.559920830833903
 51
267.7680055313364278
  0
ARC
  5
240AA
  8
0
 10
3235.7206311259888025
 20
163.9035326191857109
 30
0.0
 40
0.1678929800825958
 50
71.6796403223651168
 51
89.4820047579931241
  0
ARC
  5
240AB
  8
0
 10
3235.7630558465139075
 20
164.1592683305663911
 30
0.0
 40
0.0969067733216013
 50
245.0311171098149998
 51
276.1305279705297835
  0
ARC
  5
240AC
  8
0
 10
3236.6402461631359984
 20
164.0672519478206084
 30
0.0
 40
0.0362298876468821
 50
180.1152602733864114
 51
202.2409915738099073
  0
ARC
  5
240AD
  8
0
 10
3236.7528713579949908
 20
164.113307461427496
 30
0.0
 40
0.1579079253143909
 50
202.2409915738099073
 51
215.9945324772243112
  0
ARC
  5
240AE
  8
0
 10
3235.5964968118209981
 20
163.2733207611703108
 30
0.0
 40
1.2713505354426831
 50
30.6463495252712406
 51
35.9945324772243183
  0
ARC
  5
240AF
  8
0
 10
3242.8862267356289522
 20
168.4399954439820135
 30
0.0
 40
7.6686182970349881
 50
216.102752055978101
 51
217.9984007339220966
  0
ARC
  5
240B0
  8
0
 10
3236.6856000139418938
 20
163.569626202573005
 30
0.0
 40
0.2170237474475948
 50
327.0556882195410253
 51
43.4548032646302076
  0
ARC
  5
240B1
  8
0
 10
3236.7243774450589626
 20
163.5444131112282093
 30
0.0
 40
0.1707702850763414
 50
270.2578689796941944
 51
327.0794193541983077
  0
ARC
  5
240B2
  8
0
 10
3236.7248052164341061
 20
163.5098281405367118
 30
0.0
 40
0.1361840112691168
 50
241.7956729633638133
 51
270.1433849419216813
  0
ARC
  5
240B3
  8
0
 10
3236.7945118568090948
 20
163.6403186378028067
 30
0.0
 40
0.284125748289699
 50
223.5520801150026955
 51
241.8444444205657931
  0
ARC
  5
240B4
  8
0
 10
3237.6358185309131841
 20
164.4401434965517979
 30
0.0
 40
1.4449516286720889
 50
222.2168185696561977
 51
223.5520801150026955
  0
ARC
  5
240B5
  8
0
 10
3232.8828463400600413
 20
165.194805116752093
 30
0.0
 40
0.1433964612547176
 50
176.6715811923099011
 51
213.3264620961940068
  0
ARC
  5
240B6
  8
0
 10
3233.1234306231008304
 20
165.3529985589829892
 30
0.0
 40
0.4313304162013668
 50
213.3264620961940068
 51
229.7844074410757003
  0
ARC
  5
240B7
  8
0
 10
3233.6075806327389728
 20
165.9255965732633058
 30
0.0
 40
1.1811768790127819
 50
229.7844074410757003
 51
239.2096010678264975
  0
ARC
  5
240B8
  8
0
 10
3234.6621290052021322
 20
167.6952921010606019
 30
0.0
 40
3.2412483658719848
 50
239.2096010678264975
 51
242.0460659835979982
  0
ARC
  5
240B9
  8
0
 10
3232.7690166015418072
 20
165.2164703426284973
 30
0.0
 40
0.1257394362652335
 50
117.6561934359017982
 51
156.985458908565704
  0
ARC
  5
240BA
  8
0
 10
3232.9564640223779861
 20
164.858771388871105
 30
0.0
 40
0.5295773704632296
 50
97.1384306054658708
 51
117.6561934359017982
  0
ARC
  5
240BB
  8
0
 10
3233.1904018194632044
 20
162.9908224201575138
 30
0.0
 40
2.412118271113985
 50
89.0265397849589561
 51
97.1384306054658708
  0
ARC
  5
240BC
  8
0
 10
3233.1509597276099157
 20
160.6695689033624888
 30
0.0
 40
4.7337068582334076
 50
79.8948230561553743
 51
89.0265397849589561
  0
ARC
  5
240BD
  8
0
 10
3231.0791840375950414
 20
149.0447704337088055
 30
0.0
 40
16.541678486324269
 50
76.2957447508177751
 51
79.8948230561553743
  0
ARC
  5
240BE
  8
0
 10
3233.3369194150009207
 20
158.3033847517966137
 30
0.0
 40
7.011762005814604
 50
69.7944157466562132
 51
76.2957447508177751
  0
ARC
  5
240BF
  8
0
 10
3232.8163892961929378
 20
156.8890507050886072
 30
0.0
 40
8.51884276020815
 50
65.0760286804246846
 51
69.7944157466562132
  0
ARC
  5
240C0
  8
0
 10
3235.740584448671143
 20
163.1817947018840016
 30
0.0
 40
1.579855492675686
 50
49.3872431085325587
 51
65.0760286804246846
  0
ARC
  5
240C1
  8
0
 10
3236.5690667937569742
 20
164.1479661958389045
 30
0.0
 40
0.3071142181617235
 50
26.3267959393945183
 51
49.3872431085315
  0
ARC
  5
240C2
  8
0
 10
3236.7362289752882134
 20
164.230680188311311
 30
0.0
 40
0.1206073832067398
 50
358.0456946742907007
 51
26.3267959393959714
  0
LINE
  5
240C3
  8
0
 10
3233.0498947820601643
 20
165.2539977597589882
 30
0.0
 11
3232.8568425055359512
 21
165.3078505489793883
 31
0.0
  0
LINE
  5
240C4
  8
0
 10
3232.8026388922799015
 20
165.2855634405493959
 30
0.0
 11
3232.9794246206879507
 21
165.1767439862510969
 31
0.0
  0
LINE
  5
240C5
  8
0
 10
3232.7460896640841383
 20
165.2290693474425041
 30
0.0
 11
3232.9441020332337757
 21
165.1693846277927094
 31
0.0
  0
LINE
  5
240C6
  8
0
 10
3232.7396169983471736
 20
165.1878840783290059
 30
0.0
 11
3232.8720084500409939
 21
165.1112758445738962
 31
0.0
  0
LINE
  5
240C7
  8
0
 10
3232.8388676653298717
 20
165.0386384794549883
 30
0.0
 11
3232.8538425651609032
 21
165.0428682599660135
 31
0.0
  0
LINE
  5
240C8
  8
0
 10
3233.1648140212291764
 20
165.2491301001049919
 30
0.0
 11
3233.2419061058199077
 21
165.3529105391729104
 31
0.0
  0
LINE
  5
240C9
  8
0
 10
3233.2430910802640938
 20
165.3371849833042972
 30
0.0
 11
3233.6275485563069196
 21
165.2500233374782113
 31
0.0
  0
LINE
  5
240CA
  8
0
 10
3233.2343394744530087
 20
165.342724430836796
 30
0.0
 11
3233.5706873115309463
 21
165.1298285079074049
 31
0.0
  0
LINE
  5
240CB
  8
0
 10
3233.5396108980871759
 20
165.1257485010594905
 30
0.0
 11
3233.2291963883549215
 21
165.209139357651992
 31
0.0
  0
LINE
  5
240CC
  8
0
 10
3233.2125324897488099
 20
165.1885888273573926
 30
0.0
 11
3233.4645458991931264
 21
165.0298886817517996
 31
0.0
  0
LINE
  5
240CD
  8
0
 10
3233.4356398028171498
 20
165.0261578837522052
 30
0.0
 11
3233.1277355403130969
 21
165.1161475055075982
 31
0.0
  0
LINE
  5
240CE
  8
0
 10
3233.1097980239760545
 20
165.1009224751290958
 30
0.0
 11
3233.3467146030188815
 21
164.9606674985043071
 31
0.0
  0
LINE
  5
240CF
  8
0
 10
3233.3297285110388657
 20
164.9509722949410104
 30
0.0
 11
3233.040750830099114
 21
165.0429763482356975
 31
0.0
  0
LINE
  5
240D0
  8
0
 10
3233.0215520270871821
 20
165.0308833131093138
 30
0.0
 11
3233.2559614167839754
 21
164.9001050295159985
 31
0.0
  0
LINE
  5
240D1
  8
0
 10
3233.2369504990938367
 20
164.8938178374249048
 30
0.0
 11
3232.8516406411208663
 21
165.017998893348107
 31
0.0
  0
LINE
  5
240D2
  8
0
 10
3232.8816947885779882
 20
164.9937872790621043
 30
0.0
 11
3233.1426863625961232
 21
164.8689627787989878
 31
0.0
  0
LINE
  5
240D3
  8
0
 10
3233.786447452387165
 20
165.3127853989728919
 30
0.0
 11
3233.7331312031760717
 21
165.2503311484564961
 31
0.0
  0
LINE
  5
240D4
  8
0
 10
3233.6643390990798252
 20
165.1753686554577882
 30
0.0
 11
3233.6172573758371982
 21
165.1222589967962051
 31
0.0
  0
LINE
  5
240D5
  8
0
 10
3233.5448812158360852
 20
165.0500874514198131
 30
0.0
 11
3233.5152500008839525
 21
165.0213385823385863
 31
0.0
  0
LINE
  5
240D6
  8
0
 10
3233.4357206073791531
 20
164.9551018638441064
 30
0.0
 11
3233.4303431948269463
 21
164.9507895414712948
 31
0.0
  0
LINE
  5
240D7
  8
0
 10
3233.3365154649009128
 20
164.8878381538611109
 30
0.0
 11
3233.3402450302260149
 21
164.8901277366352076
 31
0.0
  0
LINE
  5
240D8
  8
0
 10
3233.237528100156851
 20
164.8424178111401943
 30
0.0
 11
3233.2429698764908608
 21
164.8452243900221106
 31
0.0
  0
LINE
  5
240D9
  8
0
 10
3233.2980332509778236
 20
164.8005824380192053
 30
0.0
 11
3233.5250254351021795
 21
164.6969826204581864
 31
0.0
  0
LINE
  5
240DA
  8
0
 10
3233.3331345315132239
 20
164.8000416599660127
 30
0.0
 11
3233.6011364065038833
 21
164.7147154245890022
 31
0.0
  0
LINE
  5
240DB
  8
0
 10
3233.3580100111498723
 20
164.8465724297043096
 30
0.0
 11
3233.6108473268132002
 21
164.7229523638839908
 31
0.0
  0
LINE
  5
240DC
  8
0
 10
3233.3718118432630035
 20
164.8523324791514142
 30
0.0
 11
3233.7003128286901301
 21
164.756720792378502
 31
0.0
  0
LINE
  5
240DD
  8
0
 10
3233.4522184976440258
 20
164.9017442574429992
 30
0.0
 11
3233.7230095700929269
 21
164.7604643564976925
 31
0.0
  0
LINE
  5
240DE
  8
0
 10
3233.4640734976501335
 20
164.9114988372693915
 30
0.0
 11
3233.7986102740637762
 21
164.8227511818768107
 31
0.0
  0
LINE
  5
240DF
  8
0
 10
3233.5546943726440077
 20
164.9771429169155113
 30
0.0
 11
3233.8227300596199711
 21
164.8283012161788861
 31
0.0
  0
LINE
  5
240E0
  8
0
 10
3233.5630817187620778
 20
164.9921420617245076
 30
0.0
 11
3233.8984166417280903
 21
164.9114887422194897
 31
0.0
  0
LINE
  5
240E1
  8
0
 10
3233.6583363505319539
 20
165.0766305554926134
 30
0.0
 11
3233.9264914470140866
 21
164.918325242332287
 31
0.0
  0
LINE
  5
240E2
  8
0
 10
3233.6660266023950498
 20
165.0949917874426944
 30
0.0
 11
3234.0115073728288735
 21
165.0202781286938034
 31
0.0
  0
LINE
  5
240E3
  8
0
 10
3233.7874298274068678
 20
165.1864599974842918
 30
0.0
 11
3234.0398475865390537
 21
165.0275085839157896
 31
0.0
  0
LINE
  5
240E4
  8
0
 10
3233.7979981097960263
 20
165.216062246942613
 30
0.0
 11
3234.1018702131841565
 21
165.1573438292500953
 31
0.0
  0
LINE
  5
240E5
  8
0
 10
3233.9270258356391423
 20
165.2939434180784986
 30
0.0
 11
3234.1250533778711542
 21
165.1765235926920923
 31
0.0
  0
LINE
  5
240E6
  8
0
 10
3234.2016213609381339
 20
165.1613528139546077
 30
0.0
 11
3234.2639585810647986
 21
165.2372271857634018
 31
0.0
  0
LINE
  5
240E7
  8
0
 10
3234.0856186825872101
 20
165.0232326782179939
 30
0.0
 11
3234.1371774426102093
 21
165.0847856388602111
 31
0.0
  0
LINE
  5
240E8
  8
0
 10
3233.9807647798679682
 20
164.9115380601664071
 30
0.0
 11
3234.0201576797599046
 21
164.9527536460479951
 31
0.0
  0
LINE
  5
240E9
  8
0
 10
3233.8811726307922072
 20
164.8207235561349933
 30
0.0
 11
3233.9065013780368645
 21
164.8431952320621008
 31
0.0
  0
LINE
  5
240EA
  8
0
 10
3233.7859722160469573
 20
164.7499330420369006
 30
0.0
 11
3233.8006689593539704
 21
164.7603951211092976
 31
0.0
  0
LINE
  5
240EB
  8
0
 10
3233.6971236865779247
 20
164.6255508580937885
 30
0.0
 11
3233.9889301886050816
 21
164.5120177290698109
 31
0.0
  0
LINE
  5
240EC
  8
0
 10
3233.7437076864730443
 20
164.662330024340207
 30
0.0
 11
3233.9985263023081643
 21
164.5544910181768046
 31
0.0
  0
LINE
  5
240ED
  8
0
 10
3233.79114483179319
 20
164.6602682227596972
 30
0.0
 11
3234.0730885029488491
 21
164.5854727810286988
 31
0.0
  0
LINE
  5
240EE
  8
0
 10
3233.8256960442081436
 20
164.7107232814736903
 30
0.0
 11
3234.0871234009900945
 21
164.5916635410507922
 31
0.0
  0
LINE
  5
240EF
  8
0
 10
3233.8282107456561789
 20
164.722585686892586
 30
0.0
 11
3234.1233085701969685
 21
164.6518114141296962
 31
0.0
  0
LINE
  5
240F0
  8
0
 10
3233.9237968203879063
 20
164.7762250181392858
 30
0.0
 11
3234.1457054160441658
 21
164.6679945734381079
 31
0.0
  0
LINE
  5
240F1
  8
0
 10
3233.9310455866079792
 20
164.7909705518819123
 30
0.0
 11
3234.2173165723402235
 21
164.7293214216387867
 31
0.0
  0
LINE
  5
240F2
  8
0
 10
3234.0233798270228363
 20
164.8651650330999132
 30
0.0
 11
3234.2507694565761085
 21
164.7467356561211034
 31
0.0
  0
LINE
  5
240F3
  8
0
 10
3234.0322760422682222
 20
164.882582627585407
 30
0.0
 11
3234.3548279522919984
 21
164.8208537488063996
 31
0.0
  0
LINE
  5
240F4
  8
0
 10
3234.1331500697378942
 20
164.9732928749440077
 30
0.0
 11
3234.3914826689988331
 21
164.8298401144419074
 31
0.0
  0
LINE
  5
240F5
  8
0
 10
3234.1433939198909684
 20
164.9952330589308929
 30
0.0
 11
3234.4571737223668606
 21
164.9426901900436917
 31
0.0
  0
LINE
  5
240F6
  8
0
 10
3234.2601247292318476
 20
165.0966103227092958
 30
0.0
 11
3234.4975737496229158
 21
164.9560407078978983
 31
0.0
  0
LINE
  5
240F7
  8
0
 10
3234.2647702603908328
 20
165.1298689812741998
 30
0.0
 11
3234.5842344856691852
 21
165.084149253220005
 31
0.0
  0
LINE
  5
240F8
  8
0
 10
3234.4229705837719848
 20
165.2058798872712941
 30
0.0
 11
3234.5938959410600546
 21
165.1071051501936893
 31
0.0
  0
LINE
  5
240F9
  8
0
 10
3234.7376311954549237
 20
165.0642895819516127
 30
0.0
 11
3235.1670619668789186
 21
165.0255801770821904
 31
0.0
  0
LINE
  5
240FA
  8
0
 10
3234.7390192742009276
 20
165.0292717252063142
 30
0.0
 11
3234.9845466582091831
 21
164.8922931481529019
 31
0.0
  0
LINE
  5
240FB
  8
0
 10
3234.5930937885827916
 20
164.9222243706113886
 30
0.0
 11
3234.9528847565661636
 21
164.8791408418138076
 31
0.0
  0
LINE
  5
240FC
  8
0
 10
3234.590160623778047
 20
164.9044057485942858
 30
0.0
 11
3234.8664588164178895
 21
164.7602554511437916
 31
0.0
  0
LINE
  5
240FD
  8
0
 10
3234.4892640162470343
 20
164.7976867827705121
 30
0.0
 11
3234.8414244685559424
 21
164.7470491048345025
 31
0.0
  0
LINE
  5
240FE
  8
0
 10
3234.4894889312740816
 20
164.7790676114024961
 30
0.0
 11
3234.7237417489382096
 21
164.6648162454042961
 31
0.0
  0
LINE
  5
240FF
  8
0
 10
3234.1961129242640709
 20
164.5456544458556039
 30
0.0
 11
3234.4621994036879187
 21
164.4414513528699047
 31
0.0
  0
LINE
  5
24100
  8
0
 10
3234.1677772123412069
 20
164.5041327280216024
 30
0.0
 11
3234.4473342245901222
 21
164.4368949636346997
 31
0.0
  0
LINE
  5
24101
  8
0
 10
3234.1040339241649235
 20
164.5131912435965091
 30
0.0
 11
3234.3737043566670764
 21
164.4162425849353042
 31
0.0
  0
LINE
  5
24102
  8
0
 10
3234.0968733081799655
 20
164.4854435847742877
 30
0.0
 11
3234.3636675039829242
 21
164.413749906435811
 31
0.0
  0
LINE
  5
24103
  8
0
 10
3234.3648958760882124
 20
164.7371797314297055
 30
0.0
 11
3234.3745163351231895
 21
164.7464856847909971
 31
0.0
  0
LINE
  5
24104
  8
0
 10
3234.448708795454877
 20
164.8202575438085944
 30
0.0
 11
3234.4892895436519211
 21
164.8656776973816136
 31
0.0
  0
LINE
  5
24105
  8
0
 10
3234.5575697937338191
 20
164.9439084132945936
 30
0.0
 11
3234.6147400518461836
 21
165.0160431460153063
 31
0.0
  0
LINE
  5
24106
  8
0
 10
3235.0356081621262092
 20
164.8864854363322081
 30
0.0
 11
3235.1464048890438789
 21
165.0274422308577869
 31
0.0
  0
LINE
  5
24107
  8
0
 10
3234.9255211544877966
 20
164.7544337254377069
 30
0.0
 11
3234.9719045393658234
 21
164.8096498244414931
 31
0.0
  0
LINE
  5
24108
  8
0
 10
3234.8354825828610046
 20
164.6582745309389111
 30
0.0
 11
3234.8571024938960363
 21
164.6808491583425962
 31
0.0
  0
LINE
  5
24109
  8
0
 10
3234.9086918403017989
 20
164.6129803657869957
 30
0.0
 11
3235.2086637664219779
 21
164.5767996059367135
 31
0.0
  0
LINE
  5
2410A
  8
0
 10
3234.9730801066871209
 20
164.7087497935413012
 30
0.0
 11
3235.2282071208687739
 21
164.5925584656677927
 31
0.0
  0
LINE
  5
2410B
  8
0
 10
3234.9732223089717991
 20
164.7310213897249866
 30
0.0
 11
3235.3345799393518973
 21
164.6960264204824114
 31
0.0
  0
LINE
  5
2410C
  8
0
 10
3235.0850620879527924
 20
164.8404768829659872
 30
0.0
 11
3235.3213358785428682
 21
164.7249479138858987
 31
0.0
  0
LINE
  5
2410D
  8
0
 10
3235.0792176285449386
 20
164.8666760180911126
 30
0.0
 11
3235.4388701708471672
 21
164.8406994143489896
 31
0.0
  0
LINE
  5
2410E
  8
0
 10
3235.1535002319460546
 20
165.0268026481373056
 30
0.0
 11
3235.4354460874737924
 21
164.8709066075429064
 31
0.0
  0
LINE
  5
2410F
  8
0
 10
3235.5827203502899465
 20
164.827635451751604
 30
0.0
 11
3235.8221469047171013
 21
164.8129972959891063
 31
0.0
  0
LINE
  5
24110
  8
0
 10
3235.4616169031401114
 20
164.7785519158599925
 30
0.0
 11
3235.4181436107360241
 21
164.7236974516357861
 31
0.0
  0
LINE
  5
24111
  8
0
 10
3235.3512549570859846
 20
164.6450901471959014
 30
0.0
 11
3235.2976541742768859
 21
164.58509719370619
 31
0.0
  0
LINE
  5
24112
  8
0
 10
3235.2244843979487996
 20
164.5119751529913117
 30
0.0
 11
3235.1995371559228261
 21
164.4878416997815975
 31
0.0
  0
LINE
  5
24113
  8
0
 10
3235.2846161193128864
 20
164.456879316722592
 30
0.0
 11
3235.5765116285078875
 21
164.4284242510923946
 31
0.0
  0
LINE
  5
24114
  8
0
 10
3235.3435698135949679
 20
164.5439281954469948
 30
0.0
 11
3235.5948330218529918
 21
164.4455309163595871
 31
0.0
  0
LINE
  5
24115
  8
0
 10
3235.3389104447492173
 20
164.563729644714698
 30
0.0
 11
3235.6952784750928913
 21
164.5373676949232902
 31
0.0
  0
LINE
  5
24116
  8
0
 10
3235.4427398070570234
 20
164.6689569603144889
 30
0.0
 11
3235.7128990565579443
 21
164.5545697730040899
 31
0.0
  0
LINE
  5
24117
  8
0
 10
3235.2689644977899661
 20
164.4345295688600004
 30
0.0
 11
3235.5015115874339244
 21
164.350656637252996
 31
0.0
  0
LINE
  5
24118
  8
0
 10
3235.2134284835119615
 20
164.3719280135217105
 30
0.0
 11
3235.4789993917438551
 21
164.3398962245958899
 31
0.0
  0
LINE
  5
24119
  8
0
 10
3235.1902473962450131
 20
164.3515518306155059
 30
0.0
 11
3235.4033499567390209
 21
164.281255344475511
 31
0.0
  0
LINE
  5
2411A
  8
0
 10
3235.0459882983159332
 20
164.3218008325904123
 30
0.0
 11
3235.3845185433710867
 21
164.2731229033012141
 31
0.0
  0
LINE
  5
2411B
  8
0
 10
3235.3075222218399176
 20
164.2344195702407035
 30
0.0
 11
3235.0509622578988456
 21
164.3110461803942997
 31
0.0
  0
LINE
  5
2411C
  8
0
 10
3235.0256491108589216
 20
164.2732908207532034
 30
0.0
 11
3235.2960715295980663
 21
164.2280090416300879
 31
0.0
  0
LINE
  5
2411D
  8
0
 10
3234.9445998929732013
 20
164.2573668071109978
 30
0.0
 11
3235.3072026176960208
 21
164.1871971739348908
 31
0.0
  0
LINE
  5
2411E
  8
0
 10
3234.9637869607499852
 20
164.2771529721063928
 30
0.0
 11
3235.2858984963281728
 21
164.1913198742888085
 31
0.0
  0
LINE
  5
2411F
  8
0
 10
3235.534105464510958
 20
164.255017941070804
 30
0.0
 11
3235.8667431378980837
 21
164.2228044028126135
 31
0.0
  0
LINE
  5
24120
  8
0
 10
3235.5248394926447872
 20
164.2450981685987017
 30
0.0
 11
3235.7944780589441507
 21
164.1728629853554082
 31
0.0
  0
LINE
  5
24121
  8
0
 10
3235.4959604828250121
 20
164.2005008345309989
 30
0.0
 11
3235.7760928013699413
 21
164.1669562893256114
 31
0.0
  0
LINE
  5
24122
  8
0
 10
3235.4617287072069303
 20
164.1940363285146987
 30
0.0
 11
3235.6886287183929198
 21
164.1404573336710087
 31
0.0
  0
LINE
  5
24123
  8
0
 10
3235.4175845972940806
 20
164.1724726029034969
 30
0.0
 11
3235.6728819562440549
 21
164.1359355296968943
 31
0.0
  0
LINE
  5
24124
  8
0
 10
3235.6182551094188966
 20
164.3123069599801056
 30
0.0
 11
3235.8875303031099975
 21
164.2318827729698967
 31
0.0
  0
LINE
  5
24125
  8
0
 10
3235.6322010989410956
 20
164.3248944483850096
 30
0.0
 11
3235.9685061954692173
 21
164.3000161106650978
 31
0.0
  0
LINE
  5
24126
  8
0
 10
3235.715869774361181
 20
164.4016868280776009
 30
0.0
 11
3235.9828471710029589
 21
164.313845301761404
 31
0.0
  0
LINE
  5
24127
  8
0
 10
3236.0729250599770239
 20
164.3993842998476111
 30
0.0
 11
3235.7041572671791982
 21
164.4180898104355038
 31
0.0
  0
LINE
  5
24128
  8
0
 10
3235.8323762633281149
 20
164.5082415171384866
 30
0.0
 11
3236.0909270826227839
 21
164.415289864416394
 31
0.0
  0
LINE
  5
24129
  8
0
 10
3235.8221877454288915
 20
164.5276484695635872
 30
0.0
 11
3236.1816378030821397
 21
164.4666279260796102
 31
0.0
  0
LINE
  5
2412A
  8
0
 10
3235.8173726194399933
 20
164.5308403497346887
 30
0.0
 11
3236.1661369208741235
 21
164.5220068639131057
 31
0.0
  0
LINE
  5
2412B
  8
0
 10
3235.9516299490251185
 20
164.6378595846265966
 30
0.0
 11
3236.201900945728994
 21
164.540401442708486
 31
0.0
  0
LINE
  5
2412C
  8
0
 10
3235.9743875200838374
 20
164.6610294825078995
 30
0.0
 11
3236.221767622101197
 21
164.6506833856495007
 31
0.0
  0
LINE
  5
2412D
  8
0
 10
3235.8947000976418167
 20
164.6856962447666035
 30
0.0
 11
3235.9575637366319825
 21
164.761763560246294
 31
0.0
  0
LINE
  5
2412E
  8
0
 10
3235.7824777139021535
 20
164.5474739227834959
 30
0.0
 11
3235.8276475416278117
 21
164.6094675542838104
 31
0.0
  0
LINE
  5
2412F
  8
0
 10
3235.6730136389010113
 20
164.4349722276859893
 30
0.0
 11
3235.7102545960378848
 21
164.4739359192898007
 31
0.0
  0
LINE
  5
24130
  8
0
 10
3235.5781274524138098
 20
164.3485746763718112
 30
0.0
 11
3235.5941392541180903
 21
164.3627795625706938
 31
0.0
  0
LINE
  5
24131
  8
0
 10
3235.4842429499540231
 20
164.2781515647081108
 30
0.0
 11
3235.4933803668209293
 21
164.2846561672004952
 31
0.0
  0
LINE
  5
24132
  8
0
 10
3236.1908965381921917
 20
164.3946498368314906
 30
0.0
 11
3236.6371634061611076
 21
164.3842659082631883
 31
0.0
  0
LINE
  5
24133
  8
0
 10
3236.3243273495882022
 20
164.494433983635588
 30
0.0
 11
3236.6951651433842017
 21
164.3638400665998915
 31
0.0
  0
LINE
  5
24134
  8
0
 10
3236.5480212696111266
 20
164.2958374912157922
 30
0.0
 11
3236.649870612873201
 21
164.3797909493272016
 31
0.0
  0
LINE
  5
24135
  8
0
 10
3236.5909242558550432
 20
164.2609253521958124
 30
0.0
 11
3236.7634242267849913
 21
164.2122839241374095
 31
0.0
  0
LINE
  5
24136
  8
0
 10
3236.5152093530869024
 20
164.186309782677597
 30
0.0
 11
3236.7379820349510737
 21
164.1777769430914873
 31
0.0
  0
LINE
  5
24137
  8
0
 10
3236.5048479023239452
 20
164.1706015182776923
 30
0.0
 11
3236.6667056647361278
 21
164.1292038848399102
 31
0.0
  0
LINE
  5
24138
  8
0
 10
3236.1065644259779219
 20
164.2772264956159063
 30
0.0
 11
3236.3730283906320437
 21
164.2062209134479929
 31
0.0
  0
LINE
  5
24139
  8
0
 10
3236.0885086263479025
 20
164.2934391709922863
 30
0.0
 11
3236.4274271527688143
 21
164.2848569095197888
 31
0.0
  0
LINE
  5
2413A
  8
0
 10
3236.2110351513160822
 20
164.3763680273249861
 30
0.0
 11
3236.4667025102389744
 21
164.3010437630117906
 31
0.0
  0
LINE
  5
2413B
  8
0
 10
3236.0111004411342037
 20
164.2120618489072967
 30
0.0
 11
3236.3326678347921188
 21
164.1960978974362035
 31
0.0
  0
LINE
  5
2413C
  8
0
 10
3236.0137170628681815
 20
164.1986501323032996
 30
0.0
 11
3236.2723954511061493
 21
164.1375665824330952
 31
0.0
  0
LINE
  5
2413D
  8
0
 10
3235.9761524485061273
 20
164.1490297672270913
 30
0.0
 11
3236.2329607260649027
 21
164.1304817400022955
 31
0.0
  0
LINE
  5
2413E
  8
0
 10
3236.4142679352189589
 20
164.1150743723906942
 30
0.0
 11
3236.5957575096790606
 21
164.1035207309178077
 31
0.0
  0
LINE
  5
2413F
  8
0
 10
3235.8680232261640413
 20
164.1697501307388052
 30
0.0
 11
3235.8757670958570998
 21
164.1745038286622957
 31
0.0
  0
LINE
  5
24140
  8
0
 10
3235.9608053134838883
 20
164.2301481147798086
 30
0.0
 11
3235.977197432909179
 21
164.2432923219265035
 31
0.0
  0
LINE
  5
24141
  8
0
 10
3236.0554649197938488
 20
164.3084494106691977
 30
0.0
 11
3236.0856318207788718
 21
164.3377206521255118
 31
0.0
  0
LINE
  5
24142
  8
0
 10
3236.1574751826419742
 20
164.4093809068959899
 30
0.0
 11
3236.2028612035251172
 21
164.4606631322841963
 31
0.0
  0
LINE
  5
24143
  8
0
 10
3236.272466336261914
 20
164.5368963061033014
 30
0.0
 11
3236.3268692080969231
 21
164.5998016855087087
 31
0.0
  0
LINE
  5
24144
  8
0
 10
3233.1648140212291764
 20
165.2491301001049919
 30
0.0
 11
3233.1640687865110522
 21
165.2482419946996117
 31
0.0
  0
LINE
  5
24145
  8
0
 10
3233.0989200522349165
 20
165.1706034445481919
 30
0.0
 11
3233.0809756348530755
 21
165.1492188610367862
 31
0.0
  0
LINE
  5
24146
  8
0
 10
3235.2881386148760612
 20
164.4543484060939136
 30
0.0
 11
3235.2737656876579422
 21
164.4530974860747108
 31
0.0
  0
LINE
  5
24147
  8
0
 10
3235.7824115447451732
 20
164.6779874295820889
 30
0.0
 11
3235.4639898676491612
 21
164.6886897827897087
 31
0.0
  0
LINE
  5
24148
  8
0
 10
3236.4648900165648229
 20
164.2221428237079976
 30
0.0
 11
3236.4444989777598494
 21
164.2040664592873043
 31
0.0
  0
LINE
  5
24149
  8
0
 10
3234.6819761408778504
 20
164.657459705738404
 30
0.0
 11
3234.7013286495821376
 21
164.6531791310156052
 31
0.0
  0
LINE
  5
2414A
  8
0
 10
3234.4388227199751782
 20
164.7021398513487043
 30
0.0
 11
3234.4850673209612069
 21
164.6975846883208021
 31
0.0
  0
ARC
  5
2414B
  8
0
 10
3233.9087995339868939
 20
164.3183729348835982
 30
0.0
 40
0.1650375063536247
 50
58.2039514599366612
 51
85.7937740219670957
  0
ARC
  5
2414C
  8
0
 10
3234.014711957353029
 20
164.6443159903346043
 30
0.0
 40
0.1866378626319349
 50
239.8266643787717101
 51
264.1710763280916012
  0
ARC
  5
2414D
  8
0
 10
3234.1053270006700586
 20
164.4288857119641136
 30
0.0
 40
0.1026276216022009
 50
63.4170708789644735
 51
87.6492608441507031
  0
ARC
  5
2414E
  8
0
 10
3234.1391006000339985
 20
164.5597910811848976
 30
0.0
 40
0.0409702630112963
 50
223.8132246765136131
 51
287.253107046624109
  0
LINE
  5
2414F
  8
0
 10
3235.9237579534337783
 20
164.1460892325771113
 30
0.0
 11
3236.3145030697801303
 21
163.6572905050549878
 31
0.0
  0
ARC
  5
24150
  8
0
 10
3236.2394056827811255
 20
163.5972577439854945
 30
0.0
 40
0.0961433821735163
 50
24.1030833524909482
 51
38.6387983080089299
  0
ARC
  5
24151
  8
0
 10
3236.2830448917238755
 20
163.6167813239123916
 30
0.0
 40
0.0483359483330065
 50
8.0353809065820361
 51
24.1030833524879817
  0
ARC
  5
24152
  8
0
 10
3236.3120273130721216
 20
163.6208727897150084
 30
0.0
 40
0.0190661543532537
 50
344.4057081224167973
 51
8.035380906583649
  0
LINE
  5
24153
  8
0
 10
3238.7862160901968309
 20
160.3417617511603055
 30
0.0
 11
3238.9647281642091912
 21
160.1114540803550028
 31
0.0
  0
ARC
  5
24154
  8
0
 10
3238.8867062607992011
 20
160.5493320433139957
 30
0.0
 40
0.2723696639724844
 50
258.4488952730413871
 51
281.2726475808422038
  0
ARC
  5
24155
  8
0
 10
3239.3732790448270862
 20
159.6485577324689018
 30
0.0
 40
0.767658312849605
 50
101.9028416177914949
 51
124.3664376732135963
  0
ARC
  5
24156
  8
0
 10
3238.1116320004471163
 20
161.9756053440663095
 30
0.0
 40
1.923733272040691
 50
304.9966317101661275
 51
309.9108054473699099
  0
ARC
  5
24157
  8
0
 10
3240.0067266640107846
 20
160.1830036874532937
 30
0.0
 40
0.7329425309939899
 50
131.0535920837002095
 51
154.3723237439334071
  0
ARC
  5
24158
  8
0
 10
3239.2749562466128737
 20
160.8497463826950877
 30
0.0
 40
0.2751431149820807
 50
335.5151103802808734
 51
356.9068452023715281
  0
LINE
  5
24159
  8
0
 10
3238.93994853435197
 20
160.2822169105594128
 30
0.0
 11
3239.0705048719360093
 21
160.1117877094982873
 31
0.0
  0
LINE
  5
2415A
  8
0
 10
3239.214947433710222
 20
160.3997104374550133
 30
0.0
 11
3239.3468149861751044
 21
160.2275695671204971
 31
0.0
  0
LINE
  5
2415B
  8
0
 10
3239.345888303132142
 20
160.5000169593050998
 30
0.0
 11
3239.4761574252102037
 21
160.3299626917549858
 31
0.0
  0
LINE
  5
2415C
  8
0
 10
3239.5253559076090824
 20
160.7357124250544018
 30
0.0
 11
3239.6559253280438497
 21
160.5652661457988017
 31
0.0
  0
ARC
  5
2415D
  8
0
 10
3238.8592091791060739
 20
160.4232185467631098
 30
0.0
 40
0.1082755968557579
 50
228.9668571009721916
 51
239.2283569544563875
  0
ARC
  5
2415E
  8
0
 10
3238.8677916528899914
 20
160.4376319947525076
 30
0.0
 40
0.125050767173724
 50
239.2283569544580928
 51
257.2100878288222816
  0
ARC
  5
2415F
  8
0
 10
3238.8904085011017742
 20
160.537261614649708
 30
0.0
 40
0.2272152570121614
 50
257.2100878288222816
 51
274.2387904538630892
  0
ARC
  5
24160
  8
0
 10
3238.876206354516853
 20
160.7288818372292951
 30
0.0
 40
0.4193610627668261
 50
274.2387904538630892
 51
286.6486791873604716
  0
ARC
  5
24161
  8
0
 10
3238.6297134265510067
 20
161.5531673137487871
 30
0.0
 40
1.279712915405196
 50
286.6486791873604716
 51
289.0212130964928861
  0
ARC
  5
24162
  8
0
 10
3238.5960755315381903
 20
161.3581935135904928
 30
0.0
 40
1.1121781882084429
 50
296.5482237517388171
 51
303.1839699437650779
  0
ARC
  5
24163
  8
0
 10
3238.694315856601861
 20
161.2079748503153098
 30
0.0
 40
0.9326877754703202
 50
303.1839699437650779
 51
315.5866615840529903
  0
ARC
  5
24164
  8
0
 10
3238.7264922615518117
 20
161.1764507092771908
 30
0.0
 40
0.8876423261587213
 50
315.5866615840529903
 51
321.5809316315230149
  0
ARC
  5
24165
  8
0
 10
3239.0680897538500176
 20
160.9199016657541108
 30
0.0
 40
0.4607520342179377
 50
323.6295401526764977
 51
342.0731455387315236
  0
ARC
  5
24166
  8
0
 10
3239.3264775215288864
 20
160.8363109303051033
 30
0.0
 40
0.1891794849068251
 50
342.0731455387330016
 51
1.9138393743919311
  0
ARC
  5
24167
  8
0
 10
3239.3927871492151098
 20
160.8385266815670036
 30
0.0
 40
0.1228328476333732
 50
1.9138393743919311
 51
25.0209149610585584
  0
LINE
  5
24168
  8
0
 10
3243.8160656149539136
 20
162.094013876228189
 30
0.0
 11
3247.3467613290690679
 21
162.094013876228189
 31
0.0
  0
ARC
  5
24169
  8
0
 10
3244.2798613976628985
 20
164.9176052676058077
 30
0.0
 40
0.1103949809864427
 50
309.4327513565738172
 51
316.5672483589546005
  0
ARC
  5
2416A
  8
0
 10
3236.3116901841822255
 20
163.8232840291001082
 30
0.0
 40
0.2207187445180007
 50
268.1051330368297272
 51
268.5679566606664253
  0
LINE
  5
2416B
  8
0
 10
3238.4292948152519784
 20
159.2329492164473947
 30
0.0
 11
3238.4292947920907864
 21
159.3935164263469062
 31
0.0
  0
ARC
  5
2416C
  8
0
 10
3238.441105815687024
 20
159.3935164280505887
 30
0.0
 40
0.0118110235962662
 50
90.0000160822784068
 51
180.0000082648417958
  0
ARC
  5
2416D
  8
0
 10
3240.4253577826748369
 20
159.3935167120316123
 30
0.0
 40
0.011811025215227
 50
0.0000078355351266
 51
90.0000004112537511
  0
LINE
  5
2416E
  8
0
 10
3238.4411058157897969
 20
159.4053274516469116
 30
0.0
 11
3240.4253577809749913
 21
159.4053277372468926
 31
0.0
  0
LINE
  5
2416F
  8
0
 10
3240.4371688078899751
 20
159.3935167120316123
 30
0.0
 11
3240.4371688078899751
 21
159.1510545367517864
 31
0.0
  0
LINE
  5
24170
  8
0
 10
3238.846617625089948
 20
159.4053275100135068
 30
0.0
 11
3238.8466176137899311
 21
159.4840676675468956
 31
0.0
  0
ARC
  5
24171
  8
0
 10
3238.8859876925398567
 20
159.484067673196904
 30
0.0
 40
0.0393700787499971
 50
90.0000088631646946
 51
180.0000082225168967
  0
LINE
  5
24172
  8
0
 10
3238.8859876864498801
 20
159.5234377519468865
 30
0.0
 11
3239.9804758814898378
 21
159.5234379212550095
 31
0.0
  0
ARC
  5
24173
  8
0
 10
3239.9804758875811785
 20
159.4840678486451111
 30
0.0
 40
0.0393700726097906
 50
359.9999739524080837
 51
90.0000088631646946
  0
LINE
  5
24174
  8
0
 10
3240.0198459601901959
 20
159.4840678307469091
 30
0.0
 11
3240.0198459243938487
 21
159.4053276789801998
 31
0.0
  0
LINE
  5
24175
  8
0
 10
3239.8260467418908775
 20
159.5234378872468994
 30
0.0
 11
3239.8457317784909719
 21
159.5431229294468949
 31
0.0
  0
LINE
  5
24176
  8
0
 10
3239.8457317784909719
 20
159.5431229294468949
 30
0.0
 11
3239.8457317199740828
 21
159.8777686255469064
 31
0.0
  0
LINE
  5
24177
  8
0
 10
3239.8859876351912135
 20
159.8777686045469011
 30
0.0
 11
3238.9804758253899308
 21
159.8777684742468921
 31
0.0
  0
LINE
  5
24178
  8
0
 10
3238.9804758253899308
 20
159.8777684742468921
 30
0.0
 11
3238.9804758253899308
 21
160.0905175834193983
 31
0.0
  0
ARC
  5
24179
  8
0
 10
3239.4332316792961137
 20
160.2320992480487121
 30
0.0
 40
0.4527559054953246
 50
359.9999999997638724
 51
52.7415790935889817
  0
LINE
  5
2417A
  8
0
 10
3239.8859875847902003
 20
160.2320992480468931
 30
0.0
 11
3239.8859875847888361
 21
159.8777686045469011
 31
0.0
  0
LINE
  5
2417B
  8
0
 10
3239.0404168206910072
 20
159.5234377741467995
 30
0.0
 11
3239.0207317784911538
 21
159.5431228107468939
 31
0.0
  0
LINE
  5
2417C
  8
0
 10
3239.0207317784911538
 20
159.5431228107468939
 30
0.0
 11
3239.0207317784911538
 21
159.8777684812860969
 31
0.0
  0
LINE
  5
2417D
  8
0
 10
3239.0207317784911538
 20
159.5431228107468939
 30
0.0
 11
3239.8457316597909994
 21
159.5431228107468939
 31
0.0
  0
ARC
  5
2417E
  8
0
 10
3243.2636048976719394
 20
163.3628681858380105
 30
0.0
 40
0.5599068354512361
 50
59.5509024407214582
 51
85.5383201457712232
  0
ARC
  5
2417F
  8
0
 10
3243.3282030147220212
 20
163.4727571545450928
 30
0.0
 40
0.4324372227196887
 50
14.7232340060821691
 51
59.5509024407214582
  0
ARC
  5
24180
  8
0
 10
3241.780990058270163
 20
163.0661827709151055
 30
0.0
 40
2.0321780336125692
 50
4.6065960273142039
 51
14.7232340060821691
  0
ARC
  5
24181
  8
0
 10
3234.3368138648229433
 20
162.8887924068444022
 30
0.0
 40
9.4759128343133021
 50
357.9401177492243278
 51
2.059882245058565
  0
LINE
  5
24182
  8
0
 10
3243.8066034235062034
 20
162.5481903549469109
 30
0.0
 11
3243.8081867220239474
 21
162.0938350068657883
 31
0.0
  0
LINE
  5
24183
  8
0
 10
3243.8092782288690614
 20
161.9089426656339015
 30
0.0
 11
3243.8337124513968774
 21
158.9221403464489981
 31
0.0
  0
ENDSEC
  0
EOF
