  0
SECTION
  2
HEADER
  9
$ACADVER
  1
AC1009
  9
$INSBASE
 10
3318.127993582866111
 20
134.0095907543197029
 30
0.0
  9
$EXTMIN
 10
3286.4435454308481894
 20
134.0017018075284909
 30
-0.0000000349181948
  9
$EXTMAX
 10
3318.3419120115208898
 20
166.2099912548486031
 30
0.0000000814935746
  9
$LIMMIN
 10
0.0
 20
0.0
  9
$LIMMAX
 10
11.6929133858000007
 20
8.2677165353999982
  9
$ORTHOMODE
 70
     1
  9
$REGENMODE
 70
     1
  9
$FILLMODE
 70
     1
  9
$QTEXTMODE
 70
     0
  9
$MIRRTEXT
 70
     0
  9
$DRAGMODE
 70
     2
  9
$LTSCALE
 40
0.6431102362
  9
$OSMODE
 70
  4095
  9
$ATTMODE
 70
     1
  9
$TEXTSIZE
 40
0.2
  9
$TRACEWID
 40
0.05
  9
$TEXTSTYLE
  7
STANDARD
  9
$CLAYER
  8
0
  9
$CELTYPE
  6
BYLAYER
  9
$CECOLOR
 62
   256
  9
$DIMSCALE
 40
1.0
  9
$DIMASZ
 40
0.1875
  9
$DIMEXO
 40
0.0625
  9
$DIMDLI
 40
0.4443307087
  9
$DIMRND
 40
0.0
  9
$DIMDLE
 40
0.0
  9
$DIMEXE
 40
0.125
  9
$DIMTP
 40
0.01
  9
$DIMTM
 40
0.01
  9
$DIMTXT
 40
2.0
  9
$DIMCEN
 40
0.1052362205
  9
$DIMTSZ
 40
0.0
  9
$DIMTOL
 70
     1
  9
$DIMLIM
 70
     0
  9
$DIMTIH
 70
     1
  9
$DIMTOH
 70
     1
  9
$DIMSE1
 70
     0
  9
$DIMSE2
 70
     0
  9
$DIMTAD
 70
     0
  9
$DIMZIN
 70
     0
  9
$DIMBLK
  1

  9
$DIMASO
 70
     1
  9
$DIMSHO
 70
     1
  9
$DIMPOST
  1
\X
  9
$DIMAPOST
  1

  9
$DIMALT
 70
     1
  9
$DIMALTD
 70
     2
  9
$DIMALTF
 40
25.3999999999999986
  9
$DIMLFAC
 40
1.0
  9
$DIMTOFL
 70
     0
  9
$DIMTVP
 40
0.0
  9
$DIMTIX
 70
     0
  9
$DIMSOXD
 70
     0
  9
$DIMSAH
 70
     0
  9
$DIMBLK1
  1

  9
$DIMBLK2
  1

  9
$DIMSTYLE
  2
STANDARD
  9
$DIMCLRD
 70
     0
  9
$DIMCLRE
 70
     0
  9
$DIMCLRT
 70
     0
  9
$DIMTFAC
 40
1.0
  9
$DIMGAP
 40
0.09
  9
$LUNITS
 70
     2
  9
$LUPREC
 70
     4
  9
$SKETCHINC
 40
0.1
  9
$FILLETRAD
 40
0.0
  9
$AUNITS
 70
     0
  9
$AUPREC
 70
     0
  9
$MENU
  1
.
  9
$ELEVATION
 40
0.0
  9
$PELEVATION
 40
0.0
  9
$THICKNESS
 40
0.0
  9
$LIMCHECK
 70
     0
  9
$BLIPMODE
 70
     0
  9
$CHAMFERA
 40
0.0
  9
$CHAMFERB
 40
0.0
  9
$SKPOLY
 70
     0
  9
$TDCREATE
 40
2458060.468368056230247
  9
$TDUPDATE
 40
2459545.4257870367728174
  9
$TDINDWG
 40
0.3953079861
  9
$TDUSRTIMER
 40
0.3953079861
  9
$USRTIMER
 70
     1
  9
$ANGBASE
 50
0.0
  9
$ANGDIR
 70
     0
  9
$PDMODE
 70
     0
  9
$PDSIZE
 40
0.3125
  9
$PLINEWID
 40
0.0
  9
$COORDS
 70
     1
  9
$SPLFRAME
 70
     0
  9
$SPLINETYPE
 70
     6
  9
$SPLINESEGS
 70
     8
  9
$ATTDIA
 70
     1
  9
$ATTREQ
 70
     1
  9
$HANDLING
 70
     1
  9
$HANDSEED
  5
1EA15
  9
$SURFTAB1
 70
     6
  9
$SURFTAB2
 70
     6
  9
$SURFTYPE
 70
     6
  9
$SURFU
 70
     6
  9
$SURFV
 70
     6
  9
$UCSNAME
  2

  9
$UCSORG
 10
0.0
 20
0.0
 30
0.0
  9
$UCSXDIR
 10
1.0
 20
0.0
 30
0.0
  9
$UCSYDIR
 10
0.0
 20
1.0
 30
0.0
  9
$PUCSNAME
  2

  9
$PUCSORG
 10
0.0
 20
0.0
 30
0.0
  9
$PUCSXDIR
 10
1.0
 20
0.0
 30
0.0
  9
$PUCSYDIR
 10
0.0
 20
1.0
 30
0.0
  9
$USERI1
 70
     0
  9
$USERI2
 70
     0
  9
$USERI3
 70
     0
  9
$USERI4
 70
     0
  9
$USERI5
 70
     0
  9
$USERR1
 40
0.0
  9
$USERR2
 40
0.0
  9
$USERR3
 40
0.0
  9
$USERR4
 40
0.0
  9
$USERR5
 40
0.0
  9
$WORLDVIEW
 70
     1
  9
$SHADEDGE
 70
     3
  9
$SHADEDIF
 70
    70
  9
$TILEMODE
 70
     1
  9
$MAXACTVP
 70
    64
  9
$PLIMCHECK
 70
     0
  9
$PEXTMIN
 10
1.0000000000000000E+20
 20
1.0000000000000000E+20
 30
1.0000000000000000E+20
  9
$PEXTMAX
 10
-1.0000000000000000E+20
 20
-1.0000000000000000E+20
 30
-1.0000000000000000E+20
  9
$PLIMMIN
 10
0.0
 20
0.0
  9
$PLIMMAX
 10
12.0
 20
9.0
  9
$UNITMODE
 70
     0
  9
$VISRETAIN
 70
     1
  9
$PLINEGEN
 70
     0
  9
$PSLTSCALE
 70
     1
  0
ENDSEC
  0
SECTION
  2
TABLES
  0
TABLE
  2
VPORT
 70
     1
  0
VPORT
  2
*ACTIVE
 70
     0
 10
0.0
 20
0.0
 11
1.0
 21
1.0
 12
-501.1513386616279035
 22
24.1105843344386805
 13
0.0
 23
0.0
 14
1.0
 24
1.0
 15
0.0
 25
0.0
 16
0.0
 26
0.0
 36
17.1152628219792007
 17
3803.5440673828129547
 27
125.9952621967499056
 37
0.0
 40
32.4887680201559874
 41
2.7718023255813948
 42
50.0
 43
0.0
 44
0.0
 50
0.0
 51
0.0
 71
     0
 72
   100
 73
     1
 74
     1
 75
     0
 76
     0
 77
     0
 78
     0
  0
ENDTAB
  0
TABLE
  2
LTYPE
 70
     2
  0
LTYPE
  2
CONTINUOUS
 70
     0
  3
Solid line
 72
    65
 73
     0
 40
0.0
  0
LTYPE
  2
PHANTOM2
 70
     0
  3
___ _ _ ___ _ _ ___ _ _ ___ _ _
 72
    65
 73
     6
 40
1.25
 49
0.625
 49
-0.125
 49
0.125
 49
-0.125
 49
0.125
 49
-0.125
  0
ENDTAB
  0
TABLE
  2
LAYER
 70
     2
  0
LAYER
  2
0
 70
     0
 62
   255
  6
CONTINUOUS
  0
LAYER
  2
DEFPOINTS
 70
     0
 62
     7
  6
CONTINUOUS
  0
ENDTAB
  0
TABLE
  2
STYLE
 70
     1
  0
STYLE
  2
STANDARD
 70
     0
 40
0.0
 41
0.8
 50
0.0
 71
     0
 42
0.2
  3
txt
  4

  0
ENDTAB
  0
TABLE
  2
VIEW
 70
     0
  0
ENDTAB
  0
TABLE
  2
UCS
 70
     0
  0
ENDTAB
  0
TABLE
  2
APPID
 70
     9
  0
APPID
  2
ACAD
 70
     0
  0
APPID
  2
ACAD_MLEADERVER
 70
     0
  0
APPID
  2
ACAD_EXEMPT_FROM_CAD_STANDARDS
 70
     0
  0
APPID
  2
ACAD_NAV_VCDISPLAY
 70
     0
  0
APPID
  2
ACAECLAYERSTANDARD
 70
     0
  0
APPID
  2
ACCMTRANSPARENCY
 70
     0
  0
APPID
  2
ACAD_DSTYLE_DIMJAG
 70
     0
  0
APPID
  2
ACAD_DSTYLE_DIMTALN
 70
     0
  0
APPID
  2
ACDBATTR
 70
     0
  0
ENDTAB
  0
TABLE
  2
DIMSTYLE
 70
     1
  0
DIMSTYLE
  2
STANDARD
 70
     0
  3

  4

  5

  6

  7

 40
1.0
 41
0.1875
 42
0.0625
 43
0.38
 44
0.125
 45
0.0
 46
0.0
 47
0.01
 48
0.01
140
0.15625
141
0.09
142
0.0
143
25.3999999999999986
144
1.0
145
0.0
146
1.0
147
0.09
 71
     1
 72
     0
 73
     1
 74
     1
 75
     0
 76
     0
 77
     0
 78
     4
170
     0
171
     2
172
     0
173
     0
174
     0
175
     0
176
     0
177
     0
178
     0
  0
ENDTAB
  0
ENDSEC
  0
SECTION
  2
BLOCKS
  0
BLOCK
  8
0
  2
$MODEL_SPACE
 70
     0
 10
0.0
 20
0.0
 30
0.0
  3
$MODEL_SPACE
  1

  0
ENDBLK
  5
21
  8
0
  0
BLOCK
 67
     1
  8
0
  2
$PAPER_SPACE
 70
     0
 10
0.0
 20
0.0
 30
0.0
  3
$PAPER_SPACE
  1

  0
ENDBLK
  5
1D
 67
     1
  8
0
  0
BLOCK
  8
0
  2
_FILLED
 70
     0
 10
0.0
 20
0.0
 30
0.0
  3
_FILLED
  1

  0
SOLID
  5
19DA6
  8
0
  6
BYBLOCK
 62
     0
 10
0.0
 20
0.0
 30
0.0
 11
-1.0
 21
0.1666666667
 31
0.0
 12
-1.0
 22
-0.1666666667
 32
0.0
 13
-1.0
 23
-0.1666666667
 33
0.0
  0
ENDBLK
  5
19DA7
  8
0
  6
BYBLOCK
 62
     0
  0
ENDSEC
  0
SECTION
  2
ENTITIES
  0
ATTDEF
  5
1A94C
  8
DEFPOINTS
 10
3318.128703647671955
 20
134.0141915156578136
 30
0.0
 40
0.001
  1
K-76448H-NW
  3

  2
MODELNUMBER
 70
     0
1001
ACDBATTR
1070
     0
1070
     1
  0
ATTDEF
  5
1A94D
  8
DEFPOINTS
 10
3318.128703647671955
 20
134.0125248489912053
 30
0.0
 40
0.001
  1

  3

  2
TRADENAME
 70
     0
1001
ACDBATTR
1070
     0
1070
     1
  0
ATTDEF
  5
1A94E
  8
DEFPOINTS
 10
3318.128703647671955
 20
134.0108581823245117
 30
0.0
 40
0.001
  1
BATH
  3

  2
PRODUCT
 70
     0
1001
ACDBATTR
1070
     0
1070
     1
  0
LINE
  5
1E01E
  8
0
 10
3287.2224817714959499
 20
134.0095907543197029
 30
0.0
 11
3317.4126449930959097
 21
134.0095907543197029
 31
0.0
  0
LINE
  5
1E01F
  8
0
 10
3286.7893803214960826
 20
134.6001419354197139
 30
0.0
 11
3317.9705132677959227
 21
134.6001419354197139
 31
0.0
  0
LINE
  5
1E020
  8
0
 10
3286.8738229788082208
 20
158.8918627167857949
 30
0.0
 11
3317.8861286326891786
 21
158.8918627167857949
 31
0.0
  0
LINE
  5
1E021
  8
0
 10
3286.6319305910960793
 20
156.5311102426196896
 30
0.0
 11
3318.127993583197167
 21
156.5311102426196896
 31
0.0
  0
ARC
  5
1E022
  8
0
 10
3286.8779643655948348
 20
158.7225081211171016
 30
0.0
 40
0.169405224708736
 50
91.400828256485795
 51
177.9799330500123062
  0
LINE
  5
1E023
  8
0
 10
3286.7086644189957951
 20
158.7284795732196869
 30
0.0
 11
3286.6319305910960793
 21
156.5311102426196896
 31
0.0
  0
ARC
  5
1E024
  8
0
 10
3286.7904288575618921
 20
156.3732472845117059
 30
0.0
 40
0.1584987284489441
 50
95.1335773968534539
 51
179.8616780294946125
  0
LINE
  5
1E025
  8
0
 10
3286.6319305909960349
 20
156.373629927619703
 30
0.0
 11
3286.6317921784961982
 21
134.7576222504197005
 31
0.0
  0
ARC
  5
1E026
  8
0
 10
3286.7895714866540402
 20
134.7579214113835064
 30
0.0
 40
0.1577795917713471
 50
180.1086365386665022
 51
269.9305806329044231
  0
ARC
  5
1E027
  8
0
 10
3287.0618029230759021
 20
134.4418522625414028
 30
0.0
 40
0.1606808868220264
 50
0.2886030040917493
 51
80.1029719360155923
  0
LINE
  5
1E028
  8
0
 10
3287.2224817714959499
 20
134.4426616204196989
 30
0.0
 11
3287.2224817714959499
 21
134.0095907543197029
 31
0.0
  0
CIRCLE
  5
1E029
  8
0
 10
3292.093846307640888
 20
134.2360346340751107
 30
0.0
 40
0.0985979326406085
  0
CIRCLE
  5
1E02A
  8
0
 10
3312.9050360138571705
 20
134.2360346340751107
 30
0.0
 40
0.0985979326406085
  0
LINE
  5
1E02B
  8
0
 10
3317.4126449930959097
 20
134.0095907543197029
 30
0.0
 11
3317.4126449930959097
 21
134.4426616204196989
 31
0.0
  0
ARC
  5
1E02C
  8
0
 10
3317.5705581040479046
 20
134.4426616204196989
 30
0.0
 40
0.1579131109517817
 50
94.2429642291094041
 51
179.9999999999967031
  0
ARC
  5
1E02D
  8
0
 10
3317.9705132677959227
 20
134.7576222504197005
 30
0.0
 40
0.1574803149999866
 50
270.0
 51
359.9999999989448156
  0
LINE
  5
1E02E
  8
0
 10
3318.1279935827960799
 20
134.7576222504168015
 30
0.0
 11
3318.1279935831939838
 21
156.373629927616804
 31
0.0
  0
ARC
  5
1E02F
  8
0
 10
3317.9676744212151789
 20
156.373629927619703
 30
0.0
 40
0.1603191619795297
 50
359.9999999989464072
 51
79.2016139326371587
  0
LINE
  5
1E030
  8
0
 10
3318.127993583197167
 20
156.5311102426196896
 30
0.0
 11
3318.0510402407999209
 21
158.7283698591546965
 31
0.0
  0
ARC
  5
1E031
  8
0
 10
3317.881660216939963
 20
158.7224377613391937
 30
0.0
 40
0.1694838702277414
 50
2.0058168551924949
 51
88.4892306695117838
  0
LINE
  5
1E032
  8
0
 10
3317.1963919454960887
 20
158.9312384035200125
 30
0.0
 11
3315.2278880094959277
 21
158.9312384035200125
 31
0.0
  0
LINE
  5
1E033
  8
0
 10
3315.2278880094959277
 20
158.9312384035200125
 30
0.0
 11
3315.2278880094959277
 21
160.7855689556197092
 31
0.0
  0
LINE
  5
1E034
  8
0
 10
3315.2278880094959277
 20
160.7855689556197092
 30
0.0
 11
3317.1963919454960887
 21
160.7855689556197092
 31
0.0
  0
LINE
  5
1E035
  8
0
 10
3317.1963919454960887
 20
160.7855689556197092
 30
0.0
 11
3317.1963919454960887
 21
158.9312384035200125
 31
0.0
  0
LINE
  5
1E036
  8
0
 10
3317.0389116304959316
 20
158.9312384035200125
 30
0.0
 11
3317.0389116304959316
 21
158.8918626388336861
 31
0.0
  0
LINE
  5
1E037
  8
0
 10
3315.3853683234970049
 20
158.9312384035200125
 30
0.0
 11
3315.3853683234970049
 21
158.8918626388336861
 31
0.0
  0
ARC
  5
1E038
  8
0
 10
3313.1792920013572257
 20
162.1931591419906908
 30
0.0
 40
0.023030140332729
 50
93.6478751268814449
 51
137.4339254436841884
  0
ARC
  5
1E039
  8
0
 10
3313.1760614371341944
 20
162.196126269700386
 30
0.0
 40
0.0186437532042592
 50
137.4339254436854105
 51
199.3433172531563002
  0
ARC
  5
1E03A
  8
0
 10
3313.5709774952229054
 20
162.2932840695320067
 30
0.0
 40
0.4252529595153001
 50
194.0632068848885865
 51
199.1751098474283879
  0
ARC
  5
1E03B
  8
0
 10
3313.2753666883118058
 20
162.2111901792430046
 30
0.0
 40
0.1206737656448096
 50
208.5014081230974057
 51
245.5774041422754976
  0
ARC
  5
1E03C
  8
0
 10
3313.4717244708649559
 20
162.5576463105176117
 30
0.0
 40
0.5185354533755078
 50
241.647223691964399
 51
252.4196446584469982
  0
ARC
  5
1E03D
  8
0
 10
3313.7994847598370143
 20
163.8128659940477121
 30
0.0
 40
1.815351893378792
 50
254.5246081318765903
 51
266.1023345857711888
  0
ARC
  5
1E03E
  8
0
 10
3316.3130023262019677
 20
230.8162289814746941
 30
0.0
 40
68.8650197407853994
 50
267.8055466829706006
 51
268.7924723248999044
  0
ARC
  5
1E03F
  8
0
 10
3314.8387716492738946
 20
161.2462480224334911
 30
0.0
 40
0.7206211835592436
 50
74.4170989576887507
 51
88.1721910869253946
  0
ARC
  5
1E040
  8
0
 10
3314.9536337385211482
 20
161.7344717842570958
 30
0.0
 40
0.2204439352788036
 50
25.9528758794953589
 51
69.0779196758035425
  0
ARC
  5
1E041
  8
0
 10
3314.0407088491351715
 20
161.4251914620722914
 30
0.0
 40
1.1829047427641579
 50
356.0815076882511789
 51
20.0606462772947687
  0
ARC
  5
1E042
  8
0
 10
3304.5672375692711285
 20
161.5509156115662108
 30
0.0
 40
10.6556130091889205
 50
356.8739629523176973
 51
358.8892431496386166
  0
ARC
  5
1E043
  8
0
 10
3440.6767472331998761
 20
160.9056929868197017
 30
0.0
 40
125.4697686879090952
 50
179.9707083561318086
 51
180.0099087744000883
  0
LINE
  5
1E044
  8
0
 10
3315.2069804215961994
 20
160.8839941525197048
 30
0.0
 11
3316.8738905607151537
 21
160.8839941525197048
 31
0.0
  0
ARC
  5
1E045
  8
0
 10
3316.8986419221810138
 20
161.2260825750070978
 30
0.0
 40
0.2854143122137871
 50
310.176870140612607
 51
353.1678210461781759
  0
ARC
  5
1E046
  8
0
 10
3316.6755825389559504
 20
161.3838488980811121
 30
0.0
 40
0.5541318310799103
 50
301.5843018375981046
 51
317.2930869154832862
  0
ARC
  5
1E047
  8
0
 10
3316.8310351014579282
 20
161.191497444816406
 30
0.0
 40
0.3104752247142862
 50
277.933971918939676
 51
295.7276477986961822
  0
ARC
  5
1E048
  8
0
 10
3316.1968068994938221
 20
160.6635217100377986
 30
0.0
 40
0.9251968551357137
 50
11.2910773831413902
 51
20.5254815586100392
  0
ARC
  5
1E049
  8
0
 10
3316.795232103089802
 20
160.7830019551456076
 30
0.0
 40
0.3149606277043721
 50
0.4670575610617359
 51
11.2910773831429907
  0
ARC
  5
1E04A
  8
0
 10
3316.1968069039940019
 20
160.6635217115201897
 30
0.0
 40
0.9251968503973239
 50
166.2138988344150903
 51
168.7089225960019121
  0
ARC
  5
1E04B
  8
0
 10
3315.5983817094620463
 20
160.7830019550447957
 30
0.0
 40
0.3149606321643193
 50
168.7089225960002921
 51
179.5329424272244125
  0
ARC
  5
1E04C
  8
0
 10
3313.4350241511419881
 20
156.6294531706425062
 30
0.0
 40
5.5925460028646361
 50
90.0369029344680314
 51
92.6440220677778541
  0
ARC
  5
1E04D
  8
0
 10
3316.9382529216240982
 20
159.5193520817298918
 30
0.0
 40
2.7045250869279189
 50
85.2020278301670544
 51
87.864013067478993
  0
ARC
  5
1E04E
  8
0
 10
3317.1619940027449047
 20
162.1946542784936867
 30
0.0
 40
0.0198999279595293
 50
358.0557025293621791
 51
82.863147087087043
  0
LINE
  5
1E04F
  8
0
 10
3317.1818824739930278
 20
162.1939791161246944
 30
0.0
 11
3317.1820294652479788
 21
161.1921292239073011
 31
0.0
  0
ARC
  5
1E050
  8
0
 10
3315.4029390167688689
 20
161.4075075221340114
 30
0.0
 40
0.1144593899543637
 50
38.5045038168889704
 51
86.8088470694021765
  0
ARC
  5
1E051
  8
0
 10
3315.3434657400798642
 20
161.3601927083666965
 30
0.0
 40
0.1904578257413656
 50
7.7628216697243966
 51
38.5045038168889704
  0
ARC
  5
1E052
  8
0
 10
3315.3820769000130895
 20
161.3654562573337898
 30
0.0
 40
0.1514895486539583
 50
329.3804013736581169
 51
7.7628216697227819
  0
ARC
  5
1E053
  8
0
 10
3315.4400743139240149
 20
161.3377378417212071
 30
0.0
 40
0.0876455287771827
 50
271.8067342288020996
 51
325.6603461856298054
  0
ARC
  5
1E054
  8
0
 10
3315.4458041351717839
 20
161.3389372198560068
 30
0.0
 40
0.0888508710459741
 50
207.8066455709580964
 51
268.086679040771628
  0
ARC
  5
1E055
  8
0
 10
3315.4085769562661881
 20
161.4599214745763902
 30
0.0
 40
0.0618723040261189
 50
89.3205449027687024
 51
145.0586690459005013
  0
ARC
  5
1E056
  8
0
 10
3315.4441693406029117
 20
161.4350536941963128
 30
0.0
 40
0.1052914740296589
 50
145.0586690458854946
 51
169.5093924178001998
  0
ARC
  5
1E057
  8
0
 10
3315.5500855337359098
 20
161.4154412466859867
 30
0.0
 40
0.2130081768439737
 50
169.5093924178001998
 51
190.9027634813726024
  0
ARC
  5
1E058
  8
0
 10
3315.524759286301105
 20
161.3941042009782052
 30
0.0
 40
0.1848113476434474
 50
185.8858785339737096
 51
211.5186519230693136
  0
ARC
  5
1E059
  8
0
 10
3315.4577592950749931
 20
161.4376546899069922
 30
0.0
 40
0.0825197868978483
 50
105.4963193953470011
 51
128.5663751484462978
  0
ARC
  5
1E05A
  8
0
 10
3315.4790626095059451
 20
161.4109363446291923
 30
0.0
 40
0.116691429821885
 50
128.5663751484462978
 51
169.6394154077740097
  0
ARC
  5
1E05B
  8
0
 10
3315.552145604171983
 20
161.3975750679713883
 30
0.0
 40
0.1909857621980997
 50
169.6394154077740097
 51
196.2237633207261922
  0
ARC
  5
1E05C
  8
0
 10
3315.4702479018819758
 20
161.3737447475799058
 30
0.0
 40
0.1056914610389539
 50
196.2237633207278122
 51
245.0509873539047021
  0
ARC
  5
1E05D
  8
0
 10
3315.4507620420831699
 20
161.3318599133224041
 30
0.0
 40
0.0594958111042858
 50
245.0509873538804015
 51
298.1654522012652819
  0
ARC
  5
1E05E
  8
0
 10
3315.4343906859139679
 20
161.3624366197522875
 30
0.0
 40
0.0941794712185545
 50
298.1654522012652819
 51
336.6683221539204283
  0
ARC
  5
1E05F
  8
0
 10
3315.3371090012710738
 20
161.4043965085620016
 30
0.0
 40
0.2001245439494979
 50
336.6683221539204283
 51
349.0115192742381964
  0
LINE
  5
1E060
  8
0
 10
3315.5382192000961368
 20
164.6477737982696965
 30
0.0
 11
3308.9285117233380333
 21
164.6477737982696965
 31
0.0
  0
ARC
  5
1E061
  8
0
 10
3308.9285115509969728
 20
164.615832336096986
 30
0.0
 40
0.0319414621731648
 50
89.9996908593442839
 51
193.4515966158764115
  0
ARC
  5
1E062
  8
0
 10
3309.7888634349837957
 20
164.8356803099406136
 30
0.0
 40
0.9199347048846153
 50
194.3035579140106108
 51
206.4531512633541865
  0
ARC
  5
1E063
  8
0
 10
3310.1152189331701265
 20
165.0925847431720968
 30
0.0
 40
1.3292591428225511
 50
210.1033007134323043
 51
231.4712549891171989
  0
ARC
  5
1E064
  8
0
 10
3310.585764246583949
 20
162.9957610597016071
 30
0.0
 40
0.974110874407961
 50
106.1843020465734071
 51
111.4902642496274012
  0
ARC
  5
1E065
  8
0
 10
3310.1476866801308461
 20
164.1084401660997969
 30
0.0
 40
0.2217012964805084
 50
281.0500993676411099
 51
291.490264249627387
  0
ARC
  5
1E066
  8
0
 10
3310.0912644629370334
 20
164.6306473255874039
 30
0.0
 40
0.746381560725811
 50
269.3408937167137083
 51
277.615595034122407
  0
ARC
  5
1E067
  8
0
 10
3309.5455267834418009
 20
162.5695967138923947
 30
0.0
 40
1.5097812543589819
 50
72.9469739125592724
 51
79.467617456358397
  0
ARC
  5
1E068
  8
0
 10
3309.8366818418348885
 20
163.5187792618386027
 30
0.0
 40
0.5169475435324661
 50
61.440120080664542
 51
72.9469739125592724
  0
ARC
  5
1E069
  8
0
 10
3310.0503727121467819
 20
163.9113698829962118
 30
0.0
 40
0.0699674725275538
 50
41.6459346625652813
 51
61.4401200806637604
  0
ARC
  5
1E06A
  8
0
 10
3310.0817353859711147
 20
163.9392010853931083
 30
0.0
 40
0.0280367164487124
 50
11.7977745956507096
 51
41.7358481767454208
  0
ARC
  5
1E06B
  8
0
 10
3310.048021478418832
 20
163.9479015503914923
 30
0.0
 40
0.0612303398937707
 50
348.7177240210689888
 51
357.2215053102225966
  0
ARC
  5
1E06C
  8
0
 10
3309.8074625475160246
 20
163.9782720822485942
 30
0.0
 40
0.3035745021160963
 50
347.6239515025486071
 51
351.9808638328997858
  0
ARC
  5
1E06D
  8
0
 10
3310.0531559519868097
 20
163.9287992675295982
 30
0.0
 40
0.0531642487498388
 50
317.9381967030938085
 51
342.9462546317153055
  0
ARC
  5
1E06E
  8
0
 10
3310.0480970087887727
 20
163.9331219084579061
 30
0.0
 40
0.0598162679418061
 50
305.3191339161392079
 51
318.1105362594635722
  0
ARC
  5
1E06F
  8
0
 10
3310.0329629548978119
 20
163.9430800922064861
 30
0.0
 40
0.0769737843997341
 50
280.9719330193004794
 51
310.2315050672301027
  0
ARC
  5
1E070
  8
0
 10
3309.9663092977561973
 20
164.2913873575301125
 30
0.0
 40
0.4316010957845045
 50
270.0
 51
280.8581116348439082
  0
ARC
  5
1E071
  8
0
 10
3309.9775376979491739
 20
165.2708606305170065
 30
0.0
 40
1.4111190421698441
 50
261.4172954861249991
 51
269.5440875563471081
  0
ARC
  5
1E072
  8
0
 10
3309.9990269636728044
 20
165.5059617978749884
 30
0.0
 40
1.646852546061677
 50
255.2217762925002091
 51
261.8987103453134182
  0
ARC
  5
1E073
  8
0
 10
3309.7404063479771139
 20
164.5583123466911104
 30
0.0
 40
0.6646347901240288
 50
244.7009436115712901
 51
255.9408219520960017
  0
ARC
  5
1E074
  8
0
 10
3309.4916365928470441
 20
164.040607771201195
 30
0.0
 40
0.0903481477098028
 50
204.7476700280404884
 51
247.0307099121060048
  0
ARC
  5
1E075
  8
0
 10
3309.4570877809669582
 20
164.0238617553881966
 30
0.0
 40
0.0519673701970014
 50
171.1502369622955939
 51
203.9260949877599103
  0
ARC
  5
1E076
  8
0
 10
3813.3861859666099008
 20
83.2786703017406751
 30
0.0
 40
510.4090202481157235
 50
170.8942861642065907
 51
170.8968301868715116
  0
ARC
  5
1E077
  8
0
 10
3309.4730888568769842
 20
162.2101415220801925
 30
0.0
 40
1.876429369745902
 50
79.2993043796646759
 51
84.4640281796091017
  0
ARC
  5
1E078
  8
0
 10
3309.5316040785619407
 20
162.8138721343580073
 30
0.0
 40
1.2698696584476099
 50
84.4640281796091017
 51
90.4958458192768234
  0
ARC
  5
1E079
  8
0
 10
3309.5244020739592088
 20
163.6460545389456911
 30
0.0
 40
0.4376560900796997
 50
90.4958458192768234
 51
98.0580436869571201
  0
ARC
  5
1E07A
  8
0
 10
3309.4883839883909786
 20
163.9004661828743963
 30
0.0
 40
0.1807074822717665
 50
98.0580436869571201
 51
110.1085708728788006
  0
ARC
  5
1E07B
  8
0
 10
3309.4383551091659683
 20
164.0371131791054893
 30
0.0
 40
0.0351901625619072
 50
110.1085708728793975
 51
135.4717330507398003
  0
ARC
  5
1E07C
  8
0
 10
3309.4236745065031755
 20
164.0515540109919925
 30
0.0
 40
0.0145975007586917
 50
135.4717330507455983
 51
169.4206718076493132
  0
ARC
  5
1E07D
  8
0
 10
3309.9067846933489818
 20
163.7052196173960965
 30
0.0
 40
0.250364968161845
 50
56.4354407623632497
 51
70.6617880514041872
  0
ARC
  5
1E07E
  8
0
 10
3309.6294831096579401
 20
162.9607991075851885
 30
0.0
 40
1.0447219940895061
 50
69.8310997115421515
 51
80.7649633695823894
  0
ARC
  5
1E07F
  8
0
 10
3309.5065639220970297
 20
162.4235003143182894
 30
0.0
 40
1.5951693133199909
 50
79.50421313413473
 51
85.8890344551691669
  0
ARC
  5
1E080
  8
0
 10
3309.559589417503048
 20
163.3623301612142029
 30
0.0
 40
0.6551122817318499
 50
84.6282842197088456
 51
93.9240815799722242
  0
ARC
  5
1E081
  8
0
 10
3309.539798436700039
 20
163.6508476480410081
 30
0.0
 40
0.365916806099892
 50
93.9240815799722242
 51
100.0364951082570002
  0
ARC
  5
1E082
  8
0
 10
3309.4942779694488308
 20
163.9080489431088097
 30
0.0
 40
0.1047183774612042
 50
100.0364951082570002
 51
114.6708705644517039
  0
ARC
  5
1E083
  8
0
 10
3309.4613489902881156
 20
163.9797376609373032
 30
0.0
 40
0.0258286447167887
 50
114.6708705644517039
 51
137.3031357482298915
  0
ARC
  5
1E084
  8
0
 10
3309.4516993989291223
 20
163.9886410698015879
 30
0.0
 40
0.0126990863541969
 50
137.3031357482250883
 51
210.5117493736375138
  0
ARC
  5
1E085
  8
0
 10
3310.0138370258559917
 20
163.868117818862487
 30
0.0
 40
0.0554478367843099
 50
37.6282252614989972
 51
55.5469966338227223
  0
ARC
  5
1E086
  8
0
 10
3310.0446344419010529
 20
163.8918592003979029
 30
0.0
 40
0.0165616691631174
 50
5.9645369776705781
 51
37.6282252614989972
  0
ARC
  5
1E087
  8
0
 10
3310.0506669311898804
 20
163.8924894657814093
 30
0.0
 40
0.0104963446484086
 50
319.1068613450827911
 51
5.9645369776738164
  0
ARC
  5
1E088
  8
0
 10
3310.0339048560681476
 20
163.9070057175960926
 30
0.0
 40
0.032670399963511
 50
285.1537696821472991
 51
319.1068613450839848
  0
ARC
  5
1E089
  8
0
 10
3309.9509169361767817
 20
164.2550273468065996
 30
0.0
 40
0.3904358994361329
 50
268.8313255067351975
 51
283.5577864919886792
  0
ARC
  5
1E08A
  8
0
 10
3309.9774363724441173
 20
165.4366099337055971
 30
0.0
 40
1.5723154235048371
 50
261.7906169435113952
 51
268.7436660001470727
  0
ARC
  5
1E08B
  8
0
 10
3309.9682988021950223
 20
165.2760483352695928
 30
0.0
 40
1.4121626011462021
 50
256.4802869126644964
 51
261.2273392275496917
  0
ARC
  5
1E08C
  8
0
 10
3310.0479666875107796
 20
165.6073867062796126
 30
0.0
 40
1.75294418523531
 50
253.270105093404311
 51
256.4802869126644964
  0
ARC
  5
1E08D
  8
0
 10
3309.6676267302332235
 20
164.3420466476985098
 30
0.0
 40
0.4316781458048376
 50
243.7448935451486136
 51
253.270105093404311
  0
ARC
  5
1E08E
  8
0
 10
3309.5433994274781071
 20
164.0901951853859941
 30
0.0
 40
0.1508551022012974
 50
230.878279692714699
 51
243.7448935451479031
  0
ARC
  5
1E08F
  8
0
 10
3309.4670020652501989
 20
163.9962610313654068
 30
0.0
 40
0.0297758626639266
 50
208.1931707467248032
 51
230.878279692714699
  0
ARC
  5
1E090
  8
0
 10
3309.8164757602021382
 20
164.5200345051796091
 30
0.0
 40
0.6479117212027132
 50
286.4486337212235867
 51
290.6725194347739034
  0
ARC
  5
1E091
  8
0
 10
3309.8382212725700811
 20
164.4463804715377933
 30
0.0
 40
0.5711146901411492
 50
280.5628890727743965
 51
286.4486337212235867
  0
ARC
  5
1E092
  8
0
 10
3309.8321800019621151
 20
164.4787777554213903
 30
0.0
 40
0.604070432487479
 50
273.9860754013952828
 51
280.5628890727743965
  0
ARC
  5
1E093
  8
0
 10
3309.834734929519982
 20
164.4421125385105995
 30
0.0
 40
0.5673163063798153
 50
269.3110119150103969
 51
273.9860754013952828
  0
ARC
  5
1E094
  8
0
 10
3309.8525498018098006
 20
165.9235137657468044
 30
0.0
 40
2.048824647811474
 50
268.2076033776659756
 51
269.3110119150103969
  0
ARC
  5
1E095
  8
0
 10
3309.9022929641291739
 20
164.5573501552362927
 30
0.0
 40
0.7050430955093282
 50
231.2648799753168021
 51
234.4572591819542993
  0
ARC
  5
1E096
  8
0
 10
3309.8048005149430537
 20
164.4208862238104132
 30
0.0
 40
0.5373314911743267
 50
234.4572591819542993
 51
244.4739403049952102
  0
ARC
  5
1E097
  8
0
 10
3309.7070221333301561
 20
164.2321645532755952
 30
0.0
 40
0.3249697177682278
 50
245.6923304868556102
 51
258.1083212364596875
  0
ARC
  5
1E098
  8
0
 10
3309.7113466932150914
 20
164.2582175042821859
 30
0.0
 40
0.3513565110993958
 50
258.2936956769493122
 51
277.8280769771084238
  0
ARC
  5
1E099
  8
0
 10
3309.7035609946801742
 20
164.319966551718494
 30
0.0
 40
0.413591140422752
 50
277.7315004026552856
 51
290.0427582932347264
  0
ARC
  5
1E09A
  8
0
 10
3309.6844316069700653
 20
164.3748991459993078
 30
0.0
 40
0.4717536835256172
 50
289.9388294118739964
 51
296.6447515160091939
  0
LINE
  5
1E09B
  8
0
 10
3309.8959930092360082
 20
163.9532437049203963
 30
0.0
 11
3309.8780974193809925
 21
163.9584557527363131
 31
0.0
  0
LINE
  5
1E09C
  8
0
 10
3309.8780974193809925
 20
163.9584557527363131
 30
0.0
 11
3309.883201498049857
 21
163.9609882716578113
 31
0.0
  0
LINE
  5
1E09D
  8
0
 10
3309.883201498049857
 20
163.9609882716578113
 30
0.0
 11
3309.9017339338379315
 21
163.9591106498197064
 31
0.0
  0
LINE
  5
1E09E
  8
0
 10
3309.9017339338379315
 20
163.9591106498197064
 30
0.0
 11
3309.9039196755379635
 21
163.9493268757196915
 31
0.0
  0
LINE
  5
1E09F
  8
0
 10
3309.9039196755379635
 20
163.9493268757196915
 30
0.0
 11
3309.8878320781382172
 21
163.941638571319686
 31
0.0
  0
LINE
  5
1E0A0
  8
0
 10
3309.8878320781382172
 20
163.941638571319686
 30
0.0
 11
3309.8889100784490438
 21
163.9497637644774102
 31
0.0
  0
LINE
  5
1E0A1
  8
0
 10
3309.8800748171029227
 20
163.945632323212493
 30
0.0
 11
3309.8878320781450384
 21
163.9416385713728062
 31
0.0
  0
LINE
  5
1E0A2
  8
0
 10
3309.8878320781450384
 20
163.9416385713728062
 30
0.0
 11
3309.8942134737208107
 21
163.9390166134791968
 31
0.0
  0
LINE
  5
1E0A3
  8
0
 10
3309.8942134737208107
 20
163.9390166134791968
 30
0.0
 11
3309.8956148666948138
 21
163.9389218731460005
 31
0.0
  0
LINE
  5
1E0A4
  8
0
 10
3309.8956148666948138
 20
163.9389218731460005
 30
0.0
 11
3309.895760864183103
 21
163.9383865848548965
 31
0.0
  0
LINE
  5
1E0A5
  8
0
 10
3309.895760864183103
 20
163.9383865848548965
 30
0.0
 11
3309.9021320499377907
 21
163.9358175726196976
 31
0.0
  0
LINE
  5
1E0A6
  8
0
 10
3309.9021320499377907
 20
163.9358175726196976
 30
0.0
 11
3309.9172079951968044
 21
163.9430300886488965
 31
0.0
  0
LINE
  5
1E0A7
  8
0
 10
3309.9172079951968044
 20
163.9430300886488965
 30
0.0
 11
3309.9360109925441975
 21
163.9428406809007868
 31
0.0
  0
LINE
  5
1E0A8
  8
0
 10
3309.9360109925441975
 20
163.9428406809007868
 30
0.0
 11
3309.9384731490381455
 21
163.9347816435196989
 31
0.0
  0
LINE
  5
1E0A9
  8
0
 10
3309.9384731490381455
 20
163.9347816435196989
 30
0.0
 11
3309.9233972038709908
 21
163.9275691274260112
 31
0.0
  0
LINE
  5
1E0AA
  8
0
 10
3309.9048622248401443
 20
163.9371237215814858
 30
0.0
 11
3309.9233972038150569
 21
163.9275691274519886
 31
0.0
  0
LINE
  5
1E0AB
  8
0
 10
3309.9233972038150569
 20
163.9275691274519886
 30
0.0
 11
3309.9291736366039913
 21
163.9254262544156973
 31
0.0
  0
LINE
  5
1E0AC
  8
0
 10
3309.9291736366039913
 20
163.9254262544156973
 30
0.0
 11
3309.9357948205379216
 21
163.9230277237197129
 31
0.0
  0
LINE
  5
1E0AD
  8
0
 10
3309.9357948205379216
 20
163.9230277237197129
 30
0.0
 11
3309.9521062234698547
 21
163.9306360118501971
 31
0.0
  0
LINE
  5
1E0AE
  8
0
 10
3309.9521062234698547
 20
163.9306360118501971
 30
0.0
 11
3309.9711856357521356
 21
163.9321713406874892
 31
0.0
  0
LINE
  5
1E0AF
  8
0
 10
3309.9711856357521356
 20
163.9321713406874892
 30
0.0
 11
3309.9739183537308236
 21
163.9258005173361994
 31
0.0
  0
LINE
  5
1E0B0
  8
0
 10
3309.9739183537308236
 20
163.9258005173361994
 30
0.0
 11
3309.9688142752379463
 21
163.9232679984197034
 31
0.0
  0
LINE
  5
1E0B1
  8
0
 10
3309.9688142752379463
 20
163.9232679984197034
 30
0.0
 11
3309.9598357093382219
 21
163.9284800463196063
 31
0.0
  0
LINE
  5
1E0B2
  8
0
 10
3309.9598357093382219
 20
163.9284800463196063
 30
0.0
 11
3309.9463249879740943
 21
163.9279394133060066
 31
0.0
  0
ARC
  5
1E0B3
  8
0
 10
3309.7437912609570958
 20
164.3598058195385931
 30
0.0
 40
0.4824076350132608
 50
292.849498328773393
 51
296.6055850725692267
  0
ARC
  5
1E0B4
  8
0
 10
3309.7571244748260142
 20
164.3281639049683918
 30
0.0
 40
0.4480712789203653
 50
284.6296978056802232
 51
292.849498328773393
  0
ARC
  5
1E0B5
  8
0
 10
3309.7723705847029123
 20
164.2697573121469077
 30
0.0
 40
0.3877075981892719
 50
273.0419083086077876
 51
284.6296978056802232
  0
ARC
  5
1E0B6
  8
0
 10
3309.7745025677800186
 20
164.2296381410878894
 30
0.0
 40
0.3475318189397025
 50
263.0034836937959994
 51
273.0419083086077876
  0
ARC
  5
1E0B7
  8
0
 10
3310.4403972724608138
 20
169.6556427020607885
 30
0.0
 40
5.8142439252629341
 50
262.8261937747236061
 51
263.0034836937959994
  0
LINE
  5
1E0B8
  8
0
 10
3309.9216301102228499
 20
163.9284800463196916
 30
0.0
 11
3309.8967931240381404
 21
163.9284800463196916
 31
0.0
  0
LINE
  5
1E0B9
  8
0
 10
3309.8967931240381404
 20
163.9284800463196916
 30
0.0
 11
3309.8982214921770719
 21
163.9373944016622886
 31
0.0
  0
LINE
  5
1E0BA
  8
0
 10
3309.8991572783188531
 20
163.9370170706376086
 30
0.0
 11
3309.8977832283380849
 21
163.9284800463196916
 31
0.0
  0
LINE
  5
1E0BB
  8
0
 10
3309.8828437316778945
 20
163.9442067739601043
 30
0.0
 11
3309.8803232884379213
 21
163.9284800463196916
 31
0.0
  0
LINE
  5
1E0BC
  8
0
 10
3309.8803232884379213
 20
163.9284800463196916
 30
0.0
 11
3309.8541415318381951
 21
163.9284800463196916
 31
0.0
  0
LINE
  5
1E0BD
  8
0
 10
3309.8541415318381951
 20
163.9284800463196916
 30
0.0
 11
3309.8551578078308921
 21
163.9351218134098076
 31
0.0
  0
LINE
  5
1E0BE
  8
0
 10
3309.922942124966994
 20
163.9634584970432911
 30
0.0
 11
3309.9068951567378463
 21
163.9547810216197092
 31
0.0
  0
LINE
  5
1E0BF
  8
0
 10
3309.9068951567378463
 20
163.9547810216197092
 30
0.0
 11
3309.9091412973380102
 21
163.9453741170196963
 31
0.0
  0
LINE
  5
1E0C0
  8
0
 10
3309.9091412973380102
 20
163.9453741170196963
 30
0.0
 11
3309.9278861004809187
 21
163.9448215968888007
 31
0.0
  0
LINE
  5
1E0C1
  8
0
 10
3309.9278861004809187
 20
163.9448215968888007
 30
0.0
 11
3309.9444004994497845
 21
163.9537741714721051
 31
0.0
  0
LINE
  5
1E0C2
  8
0
 10
3309.9444004994497845
 20
163.9537741714721051
 30
0.0
 11
3309.9435401317969081
 21
163.9571987421593917
 31
0.0
  0
LINE
  5
1E0C3
  8
0
 10
3309.9482987263281757
 20
163.9556863612486097
 30
0.0
 11
3309.9496916494381367
 21
163.9502552449197026
 31
0.0
  0
LINE
  5
1E0C4
  8
0
 10
3309.9496916494381367
 20
163.9502552449197026
 30
0.0
 11
3309.9631064338432225
 21
163.9508190682396958
 31
0.0
  0
LINE
  5
1E0C5
  8
0
 10
3309.9680298895168562
 20
163.9491462747189132
 30
0.0
 11
3309.9578611965371238
 21
163.9485529621192939
 31
0.0
  0
LINE
  5
1E0C6
  8
0
 10
3309.9578611965371238
 20
163.9485529621192939
 30
0.0
 11
3309.9413467975377898
 21
163.9396003875197039
 31
0.0
  0
LINE
  5
1E0C7
  8
0
 10
3309.9413467975377898
 20
163.9396003875197039
 30
0.0
 11
3309.9438671482448626
 21
163.9319044624315893
 31
0.0
  0
LINE
  5
1E0C8
  8
0
 10
3309.9438671482448626
 20
163.9319044624315893
 30
0.0
 11
3309.9628861615451569
 21
163.9330629219637956
 31
0.0
  0
LINE
  5
1E0C9
  8
0
 10
3309.9628861615451569
 20
163.9330629219637956
 30
0.0
 11
3309.9794053508458092
 21
163.9420453865361935
 31
0.0
  0
LINE
  5
1E0CA
  8
0
 10
3309.9794053508458092
 20
163.9420453865361935
 30
0.0
 11
3309.9779629186841703
 21
163.9456878666009061
 31
0.0
  0
LINE
  5
1E0CB
  8
0
 10
3309.995830399227998
 20
163.9392142317510093
 30
0.0
 11
3309.9932206237840546
 21
163.9390366136902912
 31
0.0
  0
LINE
  5
1E0CC
  8
0
 10
3309.9932206237840546
 20
163.9390366136902912
 30
0.0
 11
3309.9766953007388111
 21
163.9300158756196879
 31
0.0
  0
LINE
  5
1E0CD
  8
0
 10
3309.9766953007388111
 20
163.9300158756196879
 30
0.0
 11
3309.9794857589258754
 21
163.9240053314634906
 31
0.0
  0
LINE
  5
1E0CE
  8
0
 10
3309.9794857589258754
 20
163.9240053314634906
 30
0.0
 11
3309.9987920393891727
 21
163.9269562426273126
 31
0.0
  0
LINE
  5
1E0CF
  8
0
 10
3309.9987920393891727
 20
163.9269562426273126
 30
0.0
 11
3310.0103231199368565
 21
163.9331722692830056
 31
0.0
  0
LINE
  5
1E0D0
  8
0
 10
3310.007272612037923
 20
163.9271946562197115
 30
0.0
 11
3310.0102787497380632
 21
163.9225298799196935
 31
0.0
  0
LINE
  5
1E0D1
  8
0
 10
3310.0102787497380632
 20
163.9225298799196935
 30
0.0
 11
3309.9939165882638008
 21
163.9145272171109013
 31
0.0
  0
LINE
  5
1E0D2
  8
0
 10
3309.9939165882638008
 20
163.9145272171109013
 30
0.0
 11
3309.9745651284501946
 21
163.9112944015008111
 31
0.0
  0
LINE
  5
1E0D3
  8
0
 10
3309.9745651284501946
 20
163.9112944015008111
 30
0.0
 11
3309.9715564639382137
 21
163.9159434108196933
 31
0.0
  0
LINE
  5
1E0D4
  8
0
 10
3309.9715564639382137
 20
163.9159434108196933
 30
0.0
 11
3309.9879017301159365
 21
163.9238406530145937
 31
0.0
  0
LINE
  5
1E0D5
  8
0
 10
3309.9879017301159365
 20
163.9238406530145937
 30
0.0
 11
3310.0072726120670268
 21
163.9271946561918867
 31
0.0
  0
LINE
  5
1E0D6
  8
0
 10
3310.0186544839771159
 20
163.9292012399180862
 30
0.0
 11
3310.0129611742509042
 21
163.9261554500012892
 31
0.0
  0
LINE
  5
1E0D7
  8
0
 10
3310.0129611742509042
 20
163.9261554500012892
 30
0.0
 11
3310.0160263878751721
 21
163.921859288595499
 31
0.0
  0
LINE
  5
1E0D8
  8
0
 10
3310.0160263878751721
 20
163.921859288595499
 30
0.0
 11
3310.0274293110069266
 21
163.9245994102502095
 31
0.0
  0
LINE
  5
1E0D9
  8
0
 10
3310.0286974599712266
 20
163.9238972216843138
 30
0.0
 11
3310.0246299989098588
 21
163.9228654202003952
 31
0.0
  0
LINE
  5
1E0DA
  8
0
 10
3310.0246299989098588
 20
163.9228654202003952
 30
0.0
 11
3310.0082539789377734
 21
163.9147762845196894
 31
0.0
  0
LINE
  5
1E0DB
  8
0
 10
3310.0082539789377734
 20
163.9147762845196894
 30
0.0
 11
3310.0115392861339387
 21
163.9118534332951072
 31
0.0
  0
LINE
  5
1E0DC
  8
0
 10
3310.0115392861339387
 20
163.9118534332951072
 30
0.0
 11
3310.0312072554470433
 21
163.9170611629027974
 31
0.0
  0
LINE
  5
1E0DD
  8
0
 10
3310.0312072554470433
 20
163.9170611629027974
 30
0.0
 11
3310.0362465670359597
 21
163.9195143689514111
 31
0.0
  0
LINE
  5
1E0DE
  8
0
 10
3310.038085272708031
 20
163.9183927281358137
 30
0.0
 11
3310.020214253137965
 21
163.9133048023196864
 31
0.0
  0
LINE
  5
1E0DF
  8
0
 10
3310.020214253137965
 20
163.9133048023196864
 30
0.0
 11
3310.0040053835377876
 21
163.9062586293196944
 31
0.0
  0
LINE
  5
1E0E0
  8
0
 10
3310.0040053835377876
 20
163.9062586293196944
 30
0.0
 11
3310.0075096908940395
 21
163.9047022670391982
 31
0.0
  0
LINE
  5
1E0E1
  8
0
 10
3310.0075096908940395
 20
163.9047022670391982
 30
0.0
 11
3310.0272364756851857
 21
163.9102769854360986
 31
0.0
  0
LINE
  5
1E0E2
  8
0
 10
3310.0272364756851857
 20
163.9102769854360986
 30
0.0
 11
3310.0411326914058918
 21
163.916408527170006
 31
0.0
  0
LINE
  5
1E0E3
  8
0
 10
3310.0398073429378201
 20
163.912615401019707
 30
0.0
 11
3310.0360607418379004
 21
163.9126599312197072
 31
0.0
  0
LINE
  5
1E0E4
  8
0
 10
3310.0360607418379004
 20
163.9126599312197072
 30
0.0
 11
3310.0241350445380704
 21
163.908917253819709
 31
0.0
  0
LINE
  5
1E0E5
  8
0
 10
3310.0241350445380704
 20
163.908917253819709
 30
0.0
 11
3310.0162592104379655
 21
163.9066188191197
 31
0.0
  0
LINE
  5
1E0E6
  8
0
 10
3310.0162592104379655
 20
163.9066188191197
 30
0.0
 11
3310.0002106252381964
 21
163.9005727674197033
 31
0.0
  0
LINE
  5
1E0E7
  8
0
 10
3310.0002106252381964
 20
163.9005727674197033
 30
0.0
 11
3310.0039364843350995
 21
163.9003988133044061
 31
0.0
  0
LINE
  5
1E0E8
  8
0
 10
3310.0039364843350995
 20
163.9003988133044061
 30
0.0
 11
3310.0237311997379948
 21
163.9063973963197043
 31
0.0
  0
LINE
  5
1E0E9
  8
0
 10
3310.0237311997379948
 20
163.9063973963197043
 30
0.0
 11
3310.039807342694985
 21
163.9126154010224923
 31
0.0
  0
LINE
  5
1E0EA
  8
0
 10
3310.0056919009898593
 20
163.9119016370244992
 30
0.0
 11
3310.0024661262377776
 21
163.9151959503197133
 31
0.0
  0
LINE
  5
1E0EB
  8
0
 10
3310.0024661262377776
 20
163.9151959503197133
 30
0.0
 11
3309.9830495350361161
 21
163.9115567360032912
 31
0.0
  0
LINE
  5
1E0EC
  8
0
 10
3309.9830495350361161
 20
163.9115567360032912
 30
0.0
 11
3309.9668730163380133
 21
163.9047124224196921
 31
0.0
  0
LINE
  5
1E0ED
  8
0
 10
3309.9668730163380133
 20
163.9047124224196921
 30
0.0
 11
3309.970095127112927
 21
163.9013952472448921
 31
0.0
  0
LINE
  5
1E0EE
  8
0
 10
3309.970095127112927
 20
163.9013952472448921
 30
0.0
 11
3309.9894973440800641
 21
163.9049447700533051
 31
0.0
  0
LINE
  5
1E0EF
  8
0
 10
3309.9894973440800641
 20
163.9049447700533051
 30
0.0
 11
3310.0056919009898593
 21
163.9119016370244992
 31
0.0
  0
LINE
  5
1E0F0
  8
0
 10
3310.0015611221028848
 20
163.9041191175772099
 30
0.0
 11
3309.9981176521378075
 21
163.9060550860197054
 31
0.0
  0
LINE
  5
1E0F1
  8
0
 10
3309.9981176521378075
 20
163.9060550860197054
 30
0.0
 11
3309.9786492939551863
 21
163.9020928630257004
 31
0.0
  0
LINE
  5
1E0F2
  8
0
 10
3309.9786492939551863
 20
163.9020928630257004
 30
0.0
 11
3309.962633428638128
 21
163.8962509730197041
 31
0.0
  0
LINE
  5
1E0F3
  8
0
 10
3309.962633428638128
 20
163.8962509730197041
 30
0.0
 11
3309.9660676936450727
 21
163.894257569157304
 31
0.0
  0
LINE
  5
1E0F4
  8
0
 10
3309.9660676936450727
 20
163.894257569157304
 30
0.0
 11
3309.9855268495380187
 21
163.8981623725196926
 31
0.0
  0
LINE
  5
1E0F5
  8
0
 10
3309.9855268495380187
 20
163.8981623725196926
 30
0.0
 11
3310.0015611221028848
 21
163.9041191175772099
 31
0.0
  0
LINE
  5
1E0F6
  8
0
 10
3309.9978836289610626
 20
163.8991649511116009
 30
0.0
 11
3309.9942208134611974
 21
163.8997322760079953
 31
0.0
  0
LINE
  5
1E0F7
  8
0
 10
3309.9942208134611974
 20
163.8997322760079953
 30
0.0
 11
3309.9746939846381792
 21
163.8954052162197002
 31
0.0
  0
LINE
  5
1E0F8
  8
0
 10
3309.9746939846381792
 20
163.8954052162197002
 30
0.0
 11
3309.9588333776378022
 21
163.8905320861196913
 31
0.0
  0
LINE
  5
1E0F9
  8
0
 10
3309.9588333776378022
 20
163.8905320861196913
 30
0.0
 11
3309.962481815638057
 21
163.8898750505196915
 31
0.0
  0
LINE
  5
1E0FA
  8
0
 10
3309.962481815638057
 20
163.8898750505196915
 30
0.0
 11
3309.9820049817071776
 21
163.8941792556713892
 31
0.0
  0
LINE
  5
1E0FB
  8
0
 10
3309.9820049817071776
 20
163.8941792556713892
 30
0.0
 11
3309.9978836290038089
 21
163.8991649510520858
 31
0.0
  0
LINE
  5
1E0FC
  8
0
 10
3309.9688999650379628
 20
163.9124796082197122
 30
0.0
 11
3309.9659484109379264
 21
163.9174849675196981
 31
0.0
  0
LINE
  5
1E0FD
  8
0
 10
3309.9659484109379264
 20
163.9174849675196981
 30
0.0
 11
3309.9336552666381976
 21
163.9041700516197011
 31
0.0
  0
LINE
  5
1E0FE
  8
0
 10
3309.9336552666381976
 20
163.9041700516197011
 30
0.0
 11
3309.952732253267186
 21
163.9056902461896925
 31
0.0
  0
LINE
  5
1E0FF
  8
0
 10
3309.952732253267186
 20
163.9056902461896925
 30
0.0
 11
3309.9688999650379628
 21
163.9124796082197122
 31
0.0
  0
LINE
  5
1E100
  8
0
 10
3309.9611679603381162
 20
163.9056487126196942
 30
0.0
 11
3309.9643327894377762
 21
163.9019741184197017
 31
0.0
  0
LINE
  5
1E101
  8
0
 10
3309.9643327894377762
 20
163.9019741184197017
 30
0.0
 11
3309.9483262147209643
 21
163.8961901983460905
 31
0.0
  0
LINE
  5
1E102
  8
0
 10
3309.9483262147209643
 20
163.8961901983460905
 30
0.0
 11
3309.9291661925390144
 21
163.8941518901197014
 31
0.0
  0
LINE
  5
1E103
  8
0
 10
3309.9291661925390144
 20
163.8941518901197014
 30
0.0
 11
3309.9260029438378297
 21
163.8978363454197051
 31
0.0
  0
LINE
  5
1E104
  8
0
 10
3309.9260029438378297
 20
163.8978363454197051
 30
0.0
 11
3309.9419981631390328
 21
163.9035494116197071
 31
0.0
  0
LINE
  5
1E105
  8
0
 10
3309.9419981631390328
 20
163.9035494116197071
 30
0.0
 11
3309.9611679603381162
 21
163.9056487126196942
 31
0.0
  0
LINE
  5
1E106
  8
0
 10
3309.9568312186379444
 20
163.8965810542196948
 30
0.0
 11
3309.9602072560292072
 21
163.8942243299086954
 31
0.0
  0
LINE
  5
1E107
  8
0
 10
3309.9602072560292072
 20
163.8942243299086954
 30
0.0
 11
3309.9443559397341232
 21
163.8894091700261981
 31
0.0
  0
LINE
  5
1E108
  8
0
 10
3309.9443559397341232
 20
163.8894091700261981
 30
0.0
 11
3309.9251404159817866
 21
163.8870245506915069
 31
0.0
  0
LINE
  5
1E109
  8
0
 10
3309.9251404159817866
 20
163.8870245506915069
 30
0.0
 11
3309.9217702491378077
 21
163.8894179056196947
 31
0.0
  0
LINE
  5
1E10A
  8
0
 10
3309.9217702491378077
 20
163.8894179056196947
 30
0.0
 11
3309.9376098253378586
 21
163.8941598107197137
 31
0.0
  0
LINE
  5
1E10B
  8
0
 10
3309.9376098253378586
 20
163.8941598107197137
 30
0.0
 11
3309.9568312186379444
 21
163.8965810542196948
 31
0.0
  0
LINE
  5
1E10C
  8
0
 10
3309.9565208354702008
 20
163.8892144584675066
 30
0.0
 11
3309.9529323783481232
 21
163.8902457541871058
 31
0.0
  0
LINE
  5
1E10D
  8
0
 10
3309.9529323783481232
 20
163.8902457541871058
 30
0.0
 11
3309.9336543113849984
 21
163.8874708861661134
 31
0.0
  0
LINE
  5
1E10E
  8
0
 10
3309.9336543113849984
 20
163.8874708861661134
 30
0.0
 11
3309.9179661476377987
 21
163.8836737445197116
 31
0.0
  0
LINE
  5
1E10F
  8
0
 10
3309.9179661476377987
 20
163.8836737445197116
 30
0.0
 11
3309.9215448286081482
 21
163.8825814484899865
 31
0.0
  0
LINE
  5
1E110
  8
0
 10
3309.9215448286081482
 20
163.8825814484899865
 30
0.0
 11
3309.9408213153560609
 21
163.8853464572659107
 31
0.0
  0
LINE
  5
1E111
  8
0
 10
3309.9408213153560609
 20
163.8853464572659107
 30
0.0
 11
3309.9565208354702008
 21
163.8892144584675066
 31
0.0
  0
LINE
  5
1E112
  8
0
 10
3309.9193606891640229
 20
163.8874949192137933
 30
0.0
 11
3309.9160467980382236
 21
163.8902394166196927
 31
0.0
  0
LINE
  5
1E113
  8
0
 10
3309.9160467980382236
 20
163.8902394166196927
 30
0.0
 11
3309.8970540454279217
 21
163.8892448142941873
 31
0.0
  0
LINE
  5
1E114
  8
0
 10
3309.8970540454279217
 20
163.8892448142941873
 30
0.0
 11
3309.8813786585378693
 21
163.8855273963197021
 31
0.0
  0
LINE
  5
1E115
  8
0
 10
3309.8813786585378693
 20
163.8855273963197021
 30
0.0
 11
3309.884689033135146
 21
163.882760957622196
 31
0.0
  0
LINE
  5
1E116
  8
0
 10
3309.884689033135146
 20
163.882760957622196
 30
0.0
 11
3309.9036782697307899
 21
163.8837336206759119
 31
0.0
  0
LINE
  5
1E117
  8
0
 10
3309.9036782697307899
 20
163.8837336206759119
 30
0.0
 11
3309.9193606891640229
 21
163.8874949192137933
 31
0.0
  0
LINE
  5
1E118
  8
0
 10
3309.9156674399769145
 20
163.8824424401034889
 30
0.0
 11
3309.9121464291379198
 21
163.8838945792197137
 31
0.0
  0
LINE
  5
1E119
  8
0
 10
3309.9121464291379198
 20
163.8838945792197137
 30
0.0
 11
3309.8930983764439588
 21
163.8825549231995922
 31
0.0
  0
LINE
  5
1E11A
  8
0
 10
3309.8930983764439588
 20
163.8825549231995922
 30
0.0
 11
3309.8775715230381138
 21
163.8797643044196946
 31
0.0
  0
LINE
  5
1E11B
  8
0
 10
3309.8775715230381138
 20
163.8797643044196946
 30
0.0
 11
3309.8810861460378874
 21
163.8782723078197137
 31
0.0
  0
LINE
  5
1E11C
  8
0
 10
3309.8810861460378874
 20
163.8782723078197137
 30
0.0
 11
3309.900133945662219
 21
163.8796103844960044
 31
0.0
  0
LINE
  5
1E11D
  8
0
 10
3309.900133945662219
 20
163.8796103844960044
 30
0.0
 11
3309.9156674399810072
 21
163.8824424401040858
 31
0.0
  0
LINE
  5
1E11E
  8
0
 10
3309.9122968176948234
 20
163.8800437717169132
 30
0.0
 11
3309.9086743949378615
 21
163.8802224075197103
 31
0.0
  0
LINE
  5
1E11F
  8
0
 10
3309.9086743949378615
 20
163.8802224075197103
 30
0.0
 11
3309.8971694265360384
 21
163.8791049382786866
 31
0.0
  0
LINE
  5
1E120
  8
0
 10
3309.8971694265360384
 20
163.8791049382786866
 30
0.0
 11
3309.8895664790888986
 21
163.8785092253463915
 31
0.0
  0
LINE
  5
1E121
  8
0
 10
3309.8895664790888986
 20
163.8785092253463915
 30
0.0
 11
3309.8741870027379264
 21
163.87663819031971
 31
0.0
  0
LINE
  5
1E122
  8
0
 10
3309.8741870027379264
 20
163.87663819031971
 30
0.0
 11
3309.8770776735809704
 21
163.8763781484420861
 31
0.0
  0
LINE
  5
1E123
  8
0
 10
3309.8789846465770097
 20
163.8837014248753974
 30
0.0
 11
3309.8757291118381545
 21
163.8868100461197059
 31
0.0
  0
LINE
  5
1E124
  8
0
 10
3309.8757291118381545
 20
163.8868100461197059
 30
0.0
 11
3309.8445230585389254
 21
163.8814314551196958
 31
0.0
  0
LINE
  5
1E125
  8
0
 10
3309.8445230585389254
 20
163.8814314551196958
 30
0.0
 11
3309.863461046806151
 21
163.8809311075210928
 31
0.0
  0
LINE
  5
1E126
  8
0
 10
3309.863461046806151
 20
163.8809311075210928
 30
0.0
 11
3309.8789846386698628
 21
163.8837014324253119
 31
0.0
  0
LINE
  5
1E127
  8
0
 10
3309.8752862888050004
 20
163.8786170695641999
 30
0.0
 11
3309.871873330238941
 21
163.8804289982197133
 31
0.0
  0
LINE
  5
1E128
  8
0
 10
3309.871873330238941
 20
163.8804289982197133
 30
0.0
 11
3309.8529960938381009
 21
163.8804695990197047
 31
0.0
  0
LINE
  5
1E129
  8
0
 10
3309.8529960938381009
 20
163.8804695990197047
 30
0.0
 11
3309.8376227374378686
 21
163.8786367505196893
 31
0.0
  0
LINE
  5
1E12A
  8
0
 10
3309.8376227374378686
 20
163.8786367505196893
 30
0.0
 11
3309.8410775481979726
 21
163.8767715455174141
 31
0.0
  0
LINE
  5
1E12B
  8
0
 10
3309.8410775481979726
 20
163.8767715455174141
 30
0.0
 11
3309.8599095625381779
 21
163.8767631944197092
 31
0.0
  0
LINE
  5
1E12C
  8
0
 10
3309.8599095625381779
 20
163.8767631944197092
 30
0.0
 11
3309.8752862888050004
 21
163.8786170695641999
 31
0.0
  0
LINE
  5
1E12D
  8
0
 10
3309.8720118645328512
 20
163.8761779182412965
 30
0.0
 11
3309.8683465734829952
 21
163.8767297965673038
 31
0.0
  0
LINE
  5
1E12E
  8
0
 10
3309.8683465734829952
 20
163.8767297965673038
 30
0.0
 11
3309.849457401230211
 21
163.8763815015483942
 31
0.0
  0
LINE
  5
1E12F
  8
0
 10
3309.849457401230211
 20
163.8763815015483942
 30
0.0
 11
3309.8342301016418787
 21
163.8754599992834073
 31
0.0
  0
LINE
  5
1E130
  8
0
 10
3309.8342301016418787
 20
163.8754599992834073
 30
0.0
 11
3309.8378898395449141
 21
163.8748734713597912
 31
0.0
  0
LINE
  5
1E131
  8
0
 10
3309.8378898395449141
 20
163.8748734713597912
 30
0.0
 11
3309.838669301741902
 21
163.8748098748471875
 31
0.0
  0
LINE
  5
1E132
  8
0
 10
3309.8720118645328512
 20
163.8761779182412965
 30
0.0
 11
3309.8699768806231987
 21
163.8758919133414906
 31
0.0
  0
LINE
  5
1E133
  8
0
 10
3309.8353508259710907
 20
163.8775726454994981
 30
0.0
 11
3309.8319506890029515
 21
163.8797789973799013
 31
0.0
  0
LINE
  5
1E134
  8
0
 10
3309.8319506890029515
 20
163.8797789973799013
 30
0.0
 11
3309.8204873318381942
 21
163.8789211680197013
 31
0.0
  0
LINE
  5
1E135
  8
0
 10
3309.8204873318381942
 20
163.8789211680197013
 30
0.0
 11
3309.8014145521387945
 21
163.8780038428697026
 31
0.0
  0
LINE
  5
1E136
  8
0
 10
3309.8014145521387945
 20
163.8780038428697026
 30
0.0
 11
3309.8201245809382272
 21
163.8766577234196973
 31
0.0
  0
LINE
  5
1E137
  8
0
 10
3309.8201245809382272
 20
163.8766577234196973
 30
0.0
 11
3309.8353508259378941
 21
163.8775726455197059
 31
0.0
  0
LINE
  5
1E138
  8
0
 10
3309.8320668242167812
 20
163.875073734110714
 30
0.0
 11
3309.8284633060379747
 21
163.8760110548197133
 31
0.0
  0
LINE
  5
1E139
  8
0
 10
3309.8284633060379747
 20
163.8760110548197133
 30
0.0
 11
3309.8097830508600055
 21
163.8769663327215085
 31
0.0
  0
LINE
  5
1E13A
  8
0
 10
3309.8097830508600055
 20
163.8769663327215085
 30
0.0
 11
3309.7947034358389828
 21
163.8769663327196895
 31
0.0
  0
LINE
  5
1E13B
  8
0
 10
3309.7947034358389828
 20
163.8769663327196895
 30
0.0
 11
3309.798304076038221
 21
163.8760110548197133
 31
0.0
  0
LINE
  5
1E13C
  8
0
 10
3309.798304076038221
 20
163.8760110548197133
 30
0.0
 11
3309.8169872091280013
 21
163.8750737341241006
 31
0.0
  0
LINE
  5
1E13D
  8
0
 10
3309.8169872091280013
 20
163.8750737341241006
 30
0.0
 11
3309.8320668241390194
 21
163.8750737341196952
 31
0.0
  0
LINE
  5
1E13E
  8
0
 10
3309.7925526038038697
 20
163.8766577235435875
 30
0.0
 11
3309.7890070651378664
 21
163.8779568163197098
 31
0.0
  0
LINE
  5
1E13F
  8
0
 10
3309.7890070651378664
 20
163.8779568163197098
 30
0.0
 11
3309.7589628610380714
 21
163.8798277777196972
 31
0.0
  0
LINE
  5
1E140
  8
0
 10
3309.7589628610380714
 20
163.8798277777196972
 30
0.0
 11
3309.7776196187378446
 21
163.8775726455197059
 31
0.0
  0
LINE
  5
1E141
  8
0
 10
3309.7776196187378446
 20
163.8775726455197059
 30
0.0
 11
3309.7925526145941149
 21
163.8766577195899004
 31
0.0
  0
LINE
  5
1E142
  8
0
 10
3309.9053106917767764
 20
163.9684514235538018
 30
0.0
 11
3309.8937829018382217
 21
163.9621763941196946
 31
0.0
  0
LINE
  5
1E143
  8
0
 10
3309.8937829018382217
 20
163.9621763941196946
 30
0.0
 11
3309.8753082061198256
 21
163.9644142951449055
 31
0.0
  0
LINE
  5
1E144
  8
0
 10
3309.8753082061198256
 20
163.9644142951449055
 30
0.0
 11
3309.8733493326380994
 21
163.9756136515196943
 31
0.0
  0
LINE
  5
1E145
  8
0
 10
3309.8733493326380994
 20
163.9756136515196943
 30
0.0
 11
3309.8748291108781814
 21
163.9763036051724896
 31
0.0
  0
LINE
  5
1E146
  8
0
 10
3309.8753082061230089
 20
163.9644142951268009
 30
0.0
 11
3309.8771569582117991
 21
163.9757383716186894
 31
0.0
  0
LINE
  5
1E147
  8
0
 10
3309.8937829010651512
 20
163.9621763942132873
 30
0.0
 11
3309.8951705406420842
 21
163.9711724217380038
 31
0.0
  0
LINE
  5
1E148
  8
0
 10
3309.8687532731760257
 20
163.9777523187923975
 30
0.0
 11
3309.8702634803380533
 21
163.9694708261197036
 31
0.0
  0
LINE
  5
1E149
  8
0
 10
3309.8702634803380533
 20
163.9694708261197036
 30
0.0
 11
3309.8539182141380479
 21
163.9615735838196997
 31
0.0
  0
LINE
  5
1E14A
  8
0
 10
3309.8539182141380479
 20
163.9615735838196997
 30
0.0
 11
3309.8356617248209659
 21
163.9651730197371933
 31
0.0
  0
LINE
  5
1E14B
  8
0
 10
3309.8356617248209659
 20
163.9651730197371933
 30
0.0
 11
3309.8337480307382066
 21
163.9766542804196945
 31
0.0
  0
LINE
  5
1E14C
  8
0
 10
3309.8337480307382066
 20
163.9766542804196945
 30
0.0
 11
3309.8466625696150913
 21
163.9826978927430048
 31
0.0
  0
LINE
  5
1E14D
  8
0
 10
3309.8617708582378327
 20
163.9578939312197008
 30
0.0
 11
3309.8434572584378657
 21
163.9611370170196949
 31
0.0
  0
LINE
  5
1E14E
  8
0
 10
3309.8434572584378657
 20
163.9611370170196949
 30
0.0
 11
3309.827289546637985
 21
163.9543476551197045
 31
0.0
  0
LINE
  5
1E14F
  8
0
 10
3309.827289546637985
 20
163.9543476551197045
 30
0.0
 11
3309.8298950485382193
 21
163.9442900172197142
 31
0.0
  0
LINE
  5
1E150
  8
0
 10
3309.8298950485382193
 20
163.9442900172197142
 30
0.0
 11
3309.8617708582041814
 21
163.9578939312038983
 31
0.0
  0
LINE
  5
1E151
  8
0
 10
3309.8288368715489014
 20
163.9825442231413888
 30
0.0
 11
3309.8306854342058614
 21
163.9706565636060134
 31
0.0
  0
LINE
  5
1E152
  8
0
 10
3309.8306854342058614
 20
163.9706565636060134
 30
0.0
 11
3309.8145089156378162
 21
163.9638122500197142
 31
0.0
  0
LINE
  5
1E153
  8
0
 10
3309.8145089156378162
 20
163.9638122500197142
 30
0.0
 11
3309.7964658725559275
 21
163.9687435200069103
 31
0.0
  0
LINE
  5
1E154
  8
0
 10
3309.7964658725559275
 20
163.9687435200069103
 30
0.0
 11
3309.7946029355362043
 21
163.9805414880306955
 31
0.0
  0
LINE
  5
1E155
  8
0
 10
3309.7946029355362043
 20
163.9805414880306955
 30
0.0
 11
3309.810797492454185
 21
163.9874983550097056
 31
0.0
  0
LINE
  5
1E156
  8
0
 10
3309.810797492454185
 20
163.9874983550097056
 30
0.0
 11
3309.8288368701460058
 21
163.9825442321613878
 31
0.0
  0
LINE
  5
1E157
  8
0
 10
3309.822264556637947
 20
163.9595273308196965
 30
0.0
 11
3309.824359913338867
 21
163.9491795846197135
 31
0.0
  0
LINE
  5
1E158
  8
0
 10
3309.824359913338867
 20
163.9491795846197135
 30
0.0
 11
3309.808364694105876
 21
163.9434665184438131
 31
0.0
  0
LINE
  5
1E159
  8
0
 10
3309.808364694105876
 20
163.9434665184438131
 30
0.0
 11
3309.79026278891115
 21
163.9480305082358882
 31
0.0
  0
LINE
  5
1E15A
  8
0
 10
3309.79026278891115
 20
163.9480305082358882
 30
0.0
 11
3309.7881576571608093
 21
163.9583172617072933
 31
0.0
  0
LINE
  5
1E15B
  8
0
 10
3309.7881576571608093
 20
163.9583172617072933
 30
0.0
 11
3309.8041642318721642
 21
163.9641011818980019
 31
0.0
  0
LINE
  5
1E15C
  8
0
 10
3309.8041642318721642
 20
163.9641011818980019
 30
0.0
 11
3309.8222645566229403
 21
163.9595273308397907
 31
0.0
  0
LINE
  5
1E15D
  8
0
 10
3309.8163087919378995
 20
163.9392042694196903
 30
0.0
 11
3309.7974582784368067
 21
163.9436924349197113
 31
0.0
  0
LINE
  5
1E15E
  8
0
 10
3309.7974582784368067
 20
163.9436924349197113
 30
0.0
 11
3309.782205671237989
 21
163.9391710164196923
 31
0.0
  0
LINE
  5
1E15F
  8
0
 10
3309.782205671237989
 20
163.9391710164196923
 30
0.0
 11
3309.7845360109381545
 21
163.9302894859197011
 31
0.0
  0
LINE
  5
1E160
  8
0
 10
3309.7845360109381545
 20
163.9302894859197011
 30
0.0
 11
3309.8163087919378995
 21
163.9392042694196903
 31
0.0
  0
LINE
  5
1E161
  8
0
 10
3309.7915593422972051
 20
163.9746623452222991
 30
0.0
 11
3309.7898583730639075
 21
163.9861766213437875
 31
0.0
  0
LINE
  5
1E162
  8
0
 10
3309.7898583730639075
 20
163.9861766213437875
 30
0.0
 11
3309.77194086262989
 21
163.9931854900293047
 31
0.0
  0
LINE
  5
1E163
  8
0
 10
3309.77194086262989
 20
163.9931854900293047
 30
0.0
 11
3309.7559065901750728
 21
163.9872287450253907
 31
0.0
  0
LINE
  5
1E164
  8
0
 10
3309.7559065901750728
 20
163.9872287450253907
 30
0.0
 11
3309.7574532778071443
 21
163.9768204945141861
 31
0.0
  0
LINE
  5
1E165
  8
0
 10
3309.7574532778071443
 20
163.9768204945141861
 30
0.0
 11
3309.7755434770429019
 21
163.9688204552502953
 31
0.0
  0
LINE
  5
1E166
  8
0
 10
3309.7755434770429019
 20
163.9688204552502953
 30
0.0
 11
3309.791559342238088
 21
163.9746623452197127
 31
0.0
  0
LINE
  5
1E167
  8
0
 10
3309.7832019640618455
 20
163.9639293269964924
 30
0.0
 11
3309.7852457246390259
 21
163.9532596383197074
 31
0.0
  0
LINE
  5
1E168
  8
0
 10
3309.7852457246390259
 20
163.9532596383197074
 30
0.0
 11
3309.7694061484389749
 21
163.9485177332196884
 31
0.0
  0
LINE
  5
1E169
  8
0
 10
3309.7694061484389749
 20
163.9485177332196884
 30
0.0
 11
3309.7515111614379748
 21
163.9543728235196909
 31
0.0
  0
LINE
  5
1E16A
  8
0
 10
3309.7515111614379748
 20
163.9543728235196909
 30
0.0
 11
3309.74838087119997
 21
163.9646776154739882
 31
0.0
  0
LINE
  5
1E16B
  8
0
 10
3309.74838087119997
 20
163.9646776154739882
 30
0.0
 11
3309.7653128475380981
 21
163.9698210478196927
 31
0.0
  0
LINE
  5
1E16C
  8
0
 10
3309.7653128475380981
 20
163.9698210478196927
 30
0.0
 11
3309.7832019640381986
 21
163.9639293270197129
 31
0.0
  0
LINE
  5
1E16D
  8
0
 10
3309.7771433944380988
 20
163.9441180349197111
 30
0.0
 11
3309.7793396648157795
 21
163.9348569329949044
 31
0.0
  0
LINE
  5
1E16E
  8
0
 10
3309.7793396648157795
 20
163.9348569329949044
 30
0.0
 11
3309.763740408781814
 21
163.9311575693238012
 31
0.0
  0
LINE
  5
1E16F
  8
0
 10
3309.763740408781814
 20
163.9311575693238012
 30
0.0
 11
3309.7457856294931844
 21
163.9366395758185035
 31
0.0
  0
LINE
  5
1E170
  8
0
 10
3309.7457856294931844
 20
163.9366395758185035
 30
0.0
 11
3309.7435097121378931
 21
163.9458606841197081
 31
0.0
  0
LINE
  5
1E171
  8
0
 10
3309.7435097121378931
 20
163.9458606841197081
 30
0.0
 11
3309.7591921315561194
 21
163.949621982701899
 31
0.0
  0
LINE
  5
1E172
  8
0
 10
3309.7591921315561194
 20
163.949621982701899
 30
0.0
 11
3309.7771433944308228
 21
163.9441180349265892
 31
0.0
  0
LINE
  5
1E173
  8
0
 10
3309.771671511437944
 20
163.9268142342197052
 30
0.0
 11
3309.7535419400278442
 21
163.932358833737311
 31
0.0
  0
LINE
  5
1E174
  8
0
 10
3309.7535419400278442
 20
163.932358833737311
 30
0.0
 11
3309.7380183401378417
 21
163.9295885163197113
 31
0.0
  0
LINE
  5
1E175
  8
0
 10
3309.7380183401378417
 20
163.9295885163197113
 30
0.0
 11
3309.7405081401379903
 21
163.9217019650197074
 31
0.0
  0
LINE
  5
1E176
  8
0
 10
3309.7405081401379903
 20
163.9217019650197074
 30
0.0
 11
3309.771671511437944
 21
163.9268142342197052
 31
0.0
  0
LINE
  5
1E177
  8
0
 10
3309.7407342757378501
 20
163.9416547508197084
 30
0.0
 11
3309.738517174538174
 21
163.9512428520197034
 31
0.0
  0
LINE
  5
1E178
  8
0
 10
3309.738517174538174
 20
163.9512428520197034
 30
0.0
 11
3309.7207730315581102
 21
163.9580391580416006
 31
0.0
  0
LINE
  5
1E179
  8
0
 10
3309.7207730315581102
 20
163.9580391580416006
 30
0.0
 11
3309.7052395371379134
 21
163.9552071024197062
 31
0.0
  0
LINE
  5
1E17A
  8
0
 10
3309.7052395371379134
 20
163.9552071024197062
 30
0.0
 11
3309.7074568914458723
 21
163.9456205806667981
 31
0.0
  0
LINE
  5
1E17B
  8
0
 10
3309.7074568914458723
 20
163.9456205806667981
 30
0.0
 11
3309.7252074222860756
 21
163.9388641320103943
 31
0.0
  0
LINE
  5
1E17C
  8
0
 10
3309.7252074222860756
 20
163.9388641320103943
 30
0.0
 11
3309.7407342757378501
 21
163.9416547508197084
 31
0.0
  0
LINE
  5
1E17D
  8
0
 10
3309.7329242007381254
 20
163.9343367225197028
 30
0.0
 11
3309.7353578439901867
 21
163.9260997721139859
 31
0.0
  0
LINE
  5
1E17E
  8
0
 10
3309.7353578439901867
 20
163.9260997721139859
 30
0.0
 11
3309.7199844876358839
 21
163.9242669236037102
 31
0.0
  0
LINE
  5
1E17F
  8
0
 10
3309.7199844876358839
 20
163.9242669236037102
 30
0.0
 11
3309.7021741444377767
 21
163.9306501637196902
 31
0.0
  0
LINE
  5
1E180
  8
0
 10
3309.7021741444377767
 20
163.9306501637196902
 30
0.0
 11
3309.6997410050380495
 21
163.9388902578197076
 31
0.0
  0
LINE
  5
1E181
  8
0
 10
3309.6997410050380495
 20
163.9388902578197076
 30
0.0
 11
3309.7151177311839092
 21
163.9407441329412904
 31
0.0
  0
LINE
  5
1E182
  8
0
 10
3309.7151177311839092
 20
163.9407441329412904
 30
0.0
 11
3309.7329242007381254
 21
163.9343367225197028
 31
0.0
  0
LINE
  5
1E183
  8
0
 10
3309.7279006892381403
 20
163.9198306109196892
 30
0.0
 11
3309.7099081192282028
 21
163.9262300543045967
 31
0.0
  0
LINE
  5
1E184
  8
0
 10
3309.7099081192282028
 20
163.9262300543045967
 30
0.0
 11
3309.6946818743390395
 21
163.925315132319696
 31
0.0
  0
LINE
  5
1E185
  8
0
 10
3309.6946818743390395
 20
163.925315132319696
 30
0.0
 11
3309.6973218744378755
 21
163.9183657800197125
 31
0.0
  0
LINE
  5
1E186
  8
0
 10
3309.6973218744378755
 20
163.9183657800197125
 30
0.0
 11
3309.7279006892381403
 21
163.9198306109196892
 31
0.0
  0
LINE
  5
1E187
  8
0
 10
3309.7465643597379312
 20
163.9600403683197101
 30
0.0
 11
3309.7445772727378426
 21
163.9710636815196949
 31
0.0
  0
LINE
  5
1E188
  8
0
 10
3309.7445772727378426
 20
163.9710636815196949
 30
0.0
 11
3309.7269005759330867
 21
163.9782808309938105
 31
0.0
  0
LINE
  5
1E189
  8
0
 10
3309.7269005759330867
 20
163.9782808309938105
 30
0.0
 11
3309.7112010559380906
 21
163.9744128298196983
 31
0.0
  0
LINE
  5
1E18A
  8
0
 10
3309.7112010559380906
 20
163.9744128298196983
 30
0.0
 11
3309.7131897230219693
 21
163.963399375719888
 31
0.0
  0
LINE
  5
1E18B
  8
0
 10
3309.7131897230219693
 20
163.963399375719888
 30
0.0
 11
3309.7308761959379808
 21
163.9562432267196925
 31
0.0
  0
LINE
  5
1E18C
  8
0
 10
3309.7308761959379808
 20
163.9562432267196925
 30
0.0
 11
3309.7465643597379312
 21
163.9600403683197101
 31
0.0
  0
LINE
  5
1E18D
  8
0
 10
3309.7528781820919903
 20
163.981444352905612
 30
0.0
 11
3309.75130770661508
 21
163.9927239313379062
 31
0.0
  0
LINE
  5
1E18E
  8
0
 10
3309.75130770661508
 20
163.9927239313379062
 30
0.0
 11
3309.7335375186157762
 21
164.00170097814879
 31
0.0
  0
LINE
  5
1E18F
  8
0
 10
3309.7335375186157762
 20
164.00170097814879
 30
0.0
 11
3309.7176588713377896
 21
163.9967152827196912
 31
0.0
  0
LINE
  5
1E190
  8
0
 10
3309.7176588713377896
 20
163.9967152827196912
 30
0.0
 11
3309.7194008592277896
 21
163.9841626324904951
 31
0.0
  0
LINE
  5
1E191
  8
0
 10
3309.7194008592277896
 20
163.9841626324904951
 30
0.0
 11
3309.7370175751161696
 21
163.9765712229443011
 31
0.0
  0
LINE
  5
1E192
  8
0
 10
3309.7370175751161696
 20
163.9765712229443011
 30
0.0
 11
3309.7528781820919903
 21
163.9814443529054131
 31
0.0
  0
LINE
  5
1E193
  8
0
 10
3309.7094359051411629
 20
164.005716512141305
 30
0.0
 11
3309.7129698861381257
 21
164.0039915168196956
 31
0.0
  0
LINE
  5
1E194
  8
0
 10
3309.7129698861381257
 20
164.0039915168196956
 30
0.0
 11
3309.7145720084881759
 21
163.9915122432196881
 31
0.0
  0
LINE
  5
1E195
  8
0
 10
3309.7145720084881759
 20
163.9915122432196881
 30
0.0
 11
3309.6989337468239682
 21
163.9870803830910972
 31
0.0
  0
LINE
  5
1E196
  8
0
 10
3309.6989337468239682
 20
163.9870803830910972
 30
0.0
 11
3309.6815366413379707
 21
163.9960420885196868
 31
0.0
  0
LINE
  5
1E197
  8
0
 10
3309.6815366413379707
 20
163.9960420885196868
 30
0.0
 11
3309.6796397328339481
 21
164.0092524708342978
 31
0.0
  0
LINE
  5
1E198
  8
0
 10
3309.6889317279378702
 20
163.9895074291196977
 30
0.0
 11
3309.7063914700379428
 21
163.9809365553196869
 31
0.0
  0
LINE
  5
1E199
  8
0
 10
3309.7063914700379428
 20
163.9809365553196869
 30
0.0
 11
3309.7084899109468097
 21
163.9695545409119859
 31
0.0
  0
LINE
  5
1E19A
  8
0
 10
3309.7084899109468097
 20
163.9695545409119859
 30
0.0
 11
3309.6927771880377804
 21
163.9666576705197087
 31
0.0
  0
LINE
  5
1E19B
  8
0
 10
3309.6927771880377804
 20
163.9666576705197087
 30
0.0
 11
3309.6753039777349841
 21
163.9751445073021898
 31
0.0
  0
LINE
  5
1E19C
  8
0
 10
3309.6753039777349841
 20
163.9751445073021898
 30
0.0
 11
3309.6731585071797781
 21
163.98653695385471
 31
0.0
  0
LINE
  5
1E19D
  8
0
 10
3309.6731585071797781
 20
163.98653695385471
 30
0.0
 11
3309.6889317278551061
 21
163.989507429142094
 31
0.0
  0
LINE
  5
1E19E
  8
0
 10
3309.7003192893839696
 20
163.9610403348341947
 30
0.0
 11
3309.7024765274381934
 21
163.9510787076197005
 31
0.0
  0
LINE
  5
1E19F
  8
0
 10
3309.7024765274381934
 20
163.9510787076197005
 30
0.0
 11
3309.6870970511249652
 21
163.9492076725302923
 31
0.0
  0
LINE
  5
1E1A0
  8
0
 10
3309.6870970511249652
 20
163.9492076725302923
 30
0.0
 11
3309.6695549768378442
 21
163.9572648212196952
 31
0.0
  0
LINE
  5
1E1A1
  8
0
 10
3309.6695549768378442
 20
163.9572648212196952
 30
0.0
 11
3309.6674012934381608
 21
163.9672486286197
 31
0.0
  0
LINE
  5
1E1A2
  8
0
 10
3309.6674012934381608
 20
163.9672486286197
 30
0.0
 11
3309.6827862000291134
 21
163.9691535463252023
 31
0.0
  0
LINE
  5
1E1A3
  8
0
 10
3309.6827862000291134
 20
163.9691535463252023
 30
0.0
 11
3309.7003192893839696
 21
163.9610403348341947
 31
0.0
  0
LINE
  5
1E1A4
  8
0
 10
3309.6947173188218585
 20
163.9440780694773991
 30
0.0
 11
3309.6970933005381994
 21
163.935481329219698
 31
0.0
  0
LINE
  5
1E1A5
  8
0
 10
3309.6970933005381994
 20
163.935481329219698
 30
0.0
 11
3309.6818660009489577
 21
163.9345598269202924
 31
0.0
  0
LINE
  5
1E1A6
  8
0
 10
3309.6818660009489577
 20
163.9345598269202924
 30
0.0
 11
3309.663904274872948
 21
163.942384368554201
 31
0.0
  0
LINE
  5
1E1A7
  8
0
 10
3309.663904274872948
 20
163.942384368554201
 30
0.0
 11
3309.6618880052378699
 21
163.9508397114196896
 31
0.0
  0
LINE
  5
1E1A8
  8
0
 10
3309.6618880052378699
 20
163.9508397114196896
 30
0.0
 11
3309.6771174559380597
 21
163.9517746362197101
 31
0.0
  0
LINE
  5
1E1A9
  8
0
 10
3309.6771174559380597
 20
163.9517746362197101
 30
0.0
 11
3309.6947173188218585
 21
163.9440780694773991
 31
0.0
  0
LINE
  5
1E1AA
  8
0
 10
3309.6895599023850991
 20
163.929889673040492
 30
0.0
 11
3309.6921448010380118
 21
163.9225965058197119
 31
0.0
  0
LINE
  5
1E1AB
  8
0
 10
3309.6921448010380118
 20
163.9225965058197119
 30
0.0
 11
3309.6770651860269936
 21
163.9225965057208896
 31
0.0
  0
LINE
  5
1E1AC
  8
0
 10
3309.6770651860269936
 20
163.9225965057208896
 30
0.0
 11
3309.6594006723380517
 21
163.9298896730196873
 31
0.0
  0
LINE
  5
1E1AD
  8
0
 10
3309.6594006723380517
 20
163.9298896730196873
 30
0.0
 11
3309.6568186515378329
 21
163.9372007975196937
 31
0.0
  0
LINE
  5
1E1AE
  8
0
 10
3309.6568186515378329
 20
163.9372007975196937
 30
0.0
 11
3309.6706158888600839
 21
163.937175596490107
 31
0.0
  0
LINE
  5
1E1AF
  8
0
 10
3309.6706158888600839
 20
163.937175596490107
 30
0.0
 11
3309.689559902325982
 21
163.9298896730635136
 31
0.0
  0
LINE
  5
1E1B0
  8
0
 10
3309.6848932449879612
 20
163.9180550510697003
 30
0.0
 11
3309.6671098971378342
 21
163.925315132319696
 31
0.0
  0
LINE
  5
1E1B1
  8
0
 10
3309.6671098971378342
 20
163.925315132319696
 30
0.0
 11
3309.6521769120381578
 21
163.9262300543196886
 31
0.0
  0
LINE
  5
1E1B2
  8
0
 10
3309.6521769120381578
 20
163.9262300543196886
 30
0.0
 11
3309.65496231403813
 21
163.9201879611196944
 31
0.0
  0
LINE
  5
1E1B3
  8
0
 10
3309.65496231403813
 20
163.9201879611196944
 30
0.0
 11
3309.6848932993380004
 21
163.9180553667196989
 31
0.0
  0
LINE
  5
1E1B4
  8
0
 10
3309.6760858197299058
 20
164.0096363313043923
 30
0.0
 11
3309.6768582900381261
 21
164.0033846744196921
 31
0.0
  0
LINE
  5
1E1B5
  8
0
 10
3309.6768582900381261
 20
164.0033846744196921
 30
0.0
 11
3309.6613015913389972
 21
164.0004078308197109
 31
0.0
  0
LINE
  5
1E1B6
  8
0
 10
3309.6613015913389972
 20
164.0004078308197109
 30
0.0
 11
3309.6441333403558929
 21
164.0107975125316102
 31
0.0
  0
LINE
  5
1E1B7
  8
0
 10
3309.6441333403558929
 20
164.0107975125316102
 30
0.0
 11
3309.6438888837810737
 21
164.0127476182505859
 31
0.0
  0
LINE
  5
1E1B8
  8
0
 10
3309.6686524160641056
 20
163.9935969926341954
 30
0.0
 11
3309.6514177981348439
 21
164.0035725662609138
 31
0.0
  0
LINE
  5
1E1B9
  8
0
 10
3309.6514177981348439
 20
164.0035725662609138
 30
0.0
 11
3309.6360820180220799
 21
164.0011951826668053
 31
0.0
  0
LINE
  5
1E1BA
  8
0
 10
3309.6360820180220799
 20
164.0011951826668053
 30
0.0
 11
3309.6378662911779429
 21
163.989685377575114
 31
0.0
  0
LINE
  5
1E1BB
  8
0
 10
3309.6378662911779429
 20
163.989685377575114
 30
0.0
 11
3309.6551180110500354
 21
163.9798165132337999
 31
0.0
  0
LINE
  5
1E1BC
  8
0
 10
3309.6551180110500354
 20
163.9798165132337999
 30
0.0
 11
3309.670507122636991
 21
163.9817476690778904
 31
0.0
  0
LINE
  5
1E1BD
  8
0
 10
3309.670507122636991
 20
163.9817476690778904
 30
0.0
 11
3309.6686524141209702
 21
163.993596993759013
 31
0.0
  0
LINE
  5
1E1BE
  8
0
 10
3309.6625570407381929
 20
163.9735560452197092
 30
0.0
 11
3309.6644448553179245
 21
163.9641399138608051
 31
0.0
  0
LINE
  5
1E1BF
  8
0
 10
3309.6644448553179245
 20
163.9641399138608051
 30
0.0
 11
3309.6494176720389078
 21
163.9622404616197002
 31
0.0
  0
LINE
  5
1E1C0
  8
0
 10
3309.6494176720389078
 20
163.9622404616197002
 30
0.0
 11
3309.632091507729001
 21
163.9716448163611062
 31
0.0
  0
LINE
  5
1E1C1
  8
0
 10
3309.632091507729001
 20
163.9716448163611062
 30
0.0
 11
3309.6300078438380297
 21
163.9820655218196919
 31
0.0
  0
LINE
  5
1E1C2
  8
0
 10
3309.6300078438380297
 20
163.9820655218196919
 30
0.0
 11
3309.6436131801510783
 21
163.9829282535042125
 31
0.0
  0
LINE
  5
1E1C3
  8
0
 10
3309.6436131801510783
 20
163.9829282535042125
 30
0.0
 11
3309.6625570407350097
 21
163.9735560452350001
 31
0.0
  0
LINE
  5
1E1C4
  8
0
 10
3309.6569378179610794
 20
163.9564861306309922
 30
0.0
 11
3309.659251822547958
 21
163.9475026747059019
 31
0.0
  0
LINE
  5
1E1C5
  8
0
 10
3309.659251822547958
 20
163.9475026747059019
 30
0.0
 11
3309.6441722075278449
 21
163.9475026747059019
 31
0.0
  0
LINE
  5
1E1C6
  8
0
 10
3309.6441722075278449
 20
163.9475026747059019
 30
0.0
 11
3309.6267785878280847
 21
163.9564861307615047
 31
0.0
  0
LINE
  5
1E1C7
  8
0
 10
3309.6267785878280847
 20
163.9564861307615047
 30
0.0
 11
3309.624471534346867
 21
163.9655129595849985
 31
0.0
  0
LINE
  5
1E1C8
  8
0
 10
3309.624471534346867
 20
163.9655129595849985
 30
0.0
 11
3309.6395511493801678
 21
163.9655129596667109
 31
0.0
  0
LINE
  5
1E1C9
  8
0
 10
3309.6395511493801678
 20
163.9655129596667109
 30
0.0
 11
3309.6569378179378873
 21
163.9564861307196963
 31
0.0
  0
LINE
  5
1E1CA
  8
0
 10
3309.6517682295248051
 20
163.9422217859614079
 30
0.0
 11
3309.6542940238377923
 21
163.9345598269196955
 31
0.0
  0
LINE
  5
1E1CB
  8
0
 10
3309.6542940238377923
 20
163.9345598269196955
 30
0.0
 11
3309.6393620933358761
 21
163.9354813292075903
 31
0.0
  0
LINE
  5
1E1CC
  8
0
 10
3309.6393620933358761
 20
163.9354813292075903
 30
0.0
 11
3309.6219064966389851
 21
163.9440780694197031
 31
0.0
  0
LINE
  5
1E1CD
  8
0
 10
3309.6219064966389851
 20
163.9440780694197031
 30
0.0
 11
3309.6193862488389641
 21
163.9517746362197101
 31
0.0
  0
LINE
  5
1E1CE
  8
0
 10
3309.6193862488389641
 20
163.9517746362197101
 30
0.0
 11
3309.6343160281057862
 21
163.9508397114217075
 31
0.0
  0
LINE
  5
1E1CF
  8
0
 10
3309.6343160281057862
 20
163.9508397114217075
 30
0.0
 11
3309.6517682295379927
 21
163.9422217859197133
 31
0.0
  0
LINE
  5
1E1D0
  8
0
 10
3309.6470301902668325
 20
163.9306501636918085
 30
0.0
 11
3309.6497609183788882
 21
163.9242669235258063
 31
0.0
  0
LINE
  5
1E1D1
  8
0
 10
3309.6497609183788882
 20
163.9242669235258063
 30
0.0
 11
3309.6349750447188853
 21
163.9260997720730018
 31
0.0
  0
LINE
  5
1E1D2
  8
0
 10
3309.6349750447188853
 20
163.9260997720730018
 30
0.0
 11
3309.6174617863380263
 21
163.9343367225197028
 31
0.0
  0
LINE
  5
1E1D3
  8
0
 10
3309.6174617863380263
 20
163.9343367225197028
 30
0.0
 11
3309.6147349318380293
 21
163.9407441330197059
 31
0.0
  0
LINE
  5
1E1D4
  8
0
 10
3309.6147349318380293
 20
163.9407441330197059
 30
0.0
 11
3309.629517435650996
 21
163.9388902578982083
 31
0.0
  0
LINE
  5
1E1D5
  8
0
 10
3309.629517435650996
 20
163.9388902578982083
 30
0.0
 11
3309.6470301901840685
 21
163.9306501637294105
 31
0.0
  0
LINE
  5
1E1D6
  8
0
 10
3309.6427835559379673
 20
163.9215681266196896
 30
0.0
 11
3309.62514317867317
 21
163.9295885163149933
 31
0.0
  0
LINE
  5
1E1D7
  8
0
 10
3309.62514317867317
 20
163.9295885163149933
 30
0.0
 11
3309.610507548482019
 21
163.9323588337742876
 31
0.0
  0
LINE
  5
1E1D8
  8
0
 10
3309.610507548482019
 20
163.9323588337742876
 30
0.0
 11
3309.6134375526380609
 21
163.9272190098197086
 31
0.0
  0
LINE
  5
1E1D9
  8
0
 10
3309.6134375526380609
 20
163.9272190098197086
 30
0.0
 11
3309.6428545181329355
 21
163.9214342882287099
 31
0.0
  0
LINE
  5
1E1DA
  8
0
 10
3309.6082136551381154
 20
163.9311575693197085
 30
0.0
 11
3309.6051418805382127
 21
163.9367401824696913
 31
0.0
  0
LINE
  5
1E1DB
  8
0
 10
3309.6051418805382127
 20
163.9367401824696913
 30
0.0
 11
3309.5879829586219785
 21
163.9458606841776032
 31
0.0
  0
LINE
  5
1E1DC
  8
0
 10
3309.5879829586219785
 20
163.9458606841776032
 30
0.0
 11
3309.5735061478908392
 21
163.949621982728388
 31
0.0
  0
LINE
  5
1E1DD
  8
0
 10
3309.5735061478908392
 20
163.949621982728388
 30
0.0
 11
3309.5763777956999547
 21
163.9441180348865998
 31
0.0
  0
LINE
  5
1E1DE
  8
0
 10
3309.5763777956999547
 20
163.9441180348865998
 30
0.0
 11
3309.5937298119679326
 21
163.9348749873938118
 31
0.0
  0
LINE
  5
1E1DF
  8
0
 10
3309.5937298119679326
 20
163.9348749873938118
 30
0.0
 11
3309.6082136551381154
 21
163.9311575693197085
 31
0.0
  0
LINE
  5
1E1E0
  8
0
 10
3309.6015863758671003
 20
163.9300665556710044
 30
0.0
 11
3309.5830023763569443
 21
163.9394832083985989
 31
0.0
  0
LINE
  5
1E1E1
  8
0
 10
3309.5830023763569443
 20
163.9394832083985989
 30
0.0
 11
3309.5697019272379293
 21
163.9438770786196926
 31
0.0
  0
LINE
  5
1E1E2
  8
0
 10
3309.5697019272379293
 20
163.9438770786196926
 30
0.0
 11
3309.5727798400380379
 21
163.9396601553197002
 31
0.0
  0
LINE
  5
1E1E3
  8
0
 10
3309.5727798400380379
 20
163.9396601553197002
 30
0.0
 11
3309.6015863759330387
 21
163.9300665556525871
 31
0.0
  0
LINE
  5
1E1E4
  8
0
 10
3309.6123322609068964
 20
163.9388641320009867
 30
0.0
 11
3309.5976998842888861
 21
163.9416547508236022
 31
0.0
  0
LINE
  5
1E1E5
  8
0
 10
3309.5976998842888861
 20
163.9416547508236022
 30
0.0
 11
3309.5804031680218031
 21
163.9512428519715002
 31
0.0
  0
LINE
  5
1E1E6
  8
0
 10
3309.5804031680218031
 20
163.9512428519715002
 30
0.0
 11
3309.5777386399381612
 21
163.9580391580196874
 31
0.0
  0
LINE
  5
1E1E7
  8
0
 10
3309.5777386399381612
 20
163.9580391580196874
 30
0.0
 11
3309.5907762993952019
 21
163.955480738466207
 31
0.0
  0
LINE
  5
1E1E8
  8
0
 10
3309.5907762993952019
 20
163.955480738466207
 30
0.0
 11
3309.6096613450258701
 21
163.9456205806521893
 31
0.0
  0
LINE
  5
1E1E9
  8
0
 10
3309.6096613450258701
 20
163.9456205806521893
 30
0.0
 11
3309.6123322609068964
 21
163.9388641320009867
 31
0.0
  0
LINE
  5
1E1EA
  8
0
 10
3309.6168734817388213
 20
163.949207672519691
 30
0.0
 11
3309.6145774065380465
 21
163.9566864769197139
 31
0.0
  0
LINE
  5
1E1EB
  8
0
 10
3309.6145774065380465
 20
163.9566864769197139
 30
0.0
 11
3309.5971777241989003
 21
163.9672486286195863
 31
0.0
  0
LINE
  5
1E1EC
  8
0
 10
3309.5971777241989003
 20
163.9672486286195863
 30
0.0
 11
3309.5824034006218426
 21
163.9691535463722118
 31
0.0
  0
LINE
  5
1E1ED
  8
0
 10
3309.5824034006218426
 20
163.9691535463722118
 30
0.0
 11
3309.5848568750388949
 21
163.9610403348196996
 31
0.0
  0
LINE
  5
1E1EE
  8
0
 10
3309.5848568750388949
 20
163.9610403348196996
 30
0.0
 11
3309.6020937281377883
 21
163.9510787076197005
 31
0.0
  0
LINE
  5
1E1EF
  8
0
 10
3309.6020937281377883
 20
163.9510787076197005
 30
0.0
 11
3309.6168734817329096
 21
163.9492076725375114
 31
0.0
  0
LINE
  5
1E1F0
  8
0
 10
3309.6216271352950571
 20
163.9631036494411092
 30
0.0
 11
3309.6195991456379488
 21
163.9716448164197118
 31
0.0
  0
LINE
  5
1E1F1
  8
0
 10
3309.6195991456379488
 20
163.9716448164197118
 30
0.0
 11
3309.6024358666381886
 21
163.9820655218196919
 31
0.0
  0
LINE
  5
1E1F2
  8
0
 10
3309.6024358666381886
 20
163.9820655218196919
 30
0.0
 11
3309.5875110732381472
 21
163.9830315568196966
 31
0.0
  0
LINE
  5
1E1F3
  8
0
 10
3309.5875110732381472
 20
163.9830315568196966
 30
0.0
 11
3309.5897462185121185
 21
163.9735560453295022
 31
0.0
  0
LINE
  5
1E1F4
  8
0
 10
3309.5897462185121185
 20
163.9735560453295022
 30
0.0
 11
3309.6069176139380943
 21
163.9631859834196916
 31
0.0
  0
LINE
  5
1E1F5
  8
0
 10
3309.6069176139039882
 20
163.9631859834219085
 30
0.0
 11
3309.6216271352950571
 21
163.9631036494411092
 31
0.0
  0
LINE
  5
1E1F6
  8
0
 10
3309.6272640616361969
 20
163.9780571004289129
 30
0.0
 11
3309.6252446728949508
 21
163.9888788618355022
 31
0.0
  0
LINE
  5
1E1F7
  8
0
 10
3309.6252446728949508
 20
163.9888788618355022
 30
0.0
 11
3309.60815939870281
 21
163.999786291031711
 31
0.0
  0
LINE
  5
1E1F8
  8
0
 10
3309.60815939870281
 20
163.999786291031711
 30
0.0
 11
3309.5930797837281716
 21
163.9997862910039998
 31
0.0
  0
LINE
  5
1E1F9
  8
0
 10
3309.5930797837281716
 20
163.9997862910039998
 30
0.0
 11
3309.5950854428378989
 21
163.9888788618196998
 31
0.0
  0
LINE
  5
1E1FA
  8
0
 10
3309.5950854428378989
 20
163.9888788618196998
 30
0.0
 11
3309.6121844466370021
 21
163.9780571004098988
 31
0.0
  0
LINE
  5
1E1FB
  8
0
 10
3309.6121844466370021
 20
163.9780571004098988
 30
0.0
 11
3309.6272640616389253
 21
163.9780571004197043
 31
0.0
  0
LINE
  5
1E1FC
  8
0
 10
3309.6331517304379304
 20
163.9968020280196868
 30
0.0
 11
3309.6313754758380128
 21
164.0091408657197007
 31
0.0
  0
LINE
  5
1E1FD
  8
0
 10
3309.6313754758380128
 20
164.0091408657197007
 30
0.0
 11
3309.6234327704128191
 21
164.0143827142620978
 31
0.0
  0
LINE
  5
1E1FE
  8
0
 10
3309.6331517304379304
 20
163.9968020280196868
 30
0.0
 11
3309.6179147774728335
 21
163.9958202922155124
 31
0.0
  0
LINE
  5
1E1FF
  8
0
 10
3309.6179147774728335
 20
163.9958202922155124
 30
0.0
 11
3309.6008968853379884
 21
164.007148162919691
 31
0.0
  0
LINE
  5
1E200
  8
0
 10
3309.6008968853379884
 20
164.007148162919691
 30
0.0
 11
3309.5995230962957976
 21
164.0162241915998891
 31
0.0
  0
LINE
  5
1E201
  8
0
 10
3309.5960339321081847
 20
164.0164279360392925
 30
0.0
 11
3309.5962717766378773
 21
164.0148229650197038
 31
0.0
  0
LINE
  5
1E202
  8
0
 10
3309.5962717766378773
 20
164.0148229650197038
 30
0.0
 11
3309.5811921616191285
 21
164.0148229650199028
 31
0.0
  0
LINE
  5
1E203
  8
0
 10
3309.5811921616191285
 20
164.0148229650199028
 30
0.0
 11
3309.5778776603369806
 21
164.0171871241076076
 31
0.0
  0
LINE
  5
1E204
  8
0
 10
3309.5745537434818289
 20
164.0172715102096106
 30
0.0
 11
3309.5884045232241988
 21
164.0071481630023129
 31
0.0
  0
LINE
  5
1E205
  8
0
 10
3309.5884045232241988
 20
164.0071481630023129
 30
0.0
 11
3309.5903428004389752
 21
163.9958202922196904
 31
0.0
  0
LINE
  5
1E206
  8
0
 10
3309.5903428004389752
 20
163.9958202922196904
 30
0.0
 11
3309.5754205232378808
 21
163.9968020280196868
 31
0.0
  0
LINE
  5
1E207
  8
0
 10
3309.5754205232378808
 20
163.9968020280196868
 30
0.0
 11
3309.558564653637859
 21
164.0091408657197007
 31
0.0
  0
LINE
  5
1E208
  8
0
 10
3309.558564653637859
 20
164.0091408657197007
 30
0.0
 11
3309.557145933395077
 21
164.0174378859902902
 31
0.0
  0
LINE
  5
1E209
  8
0
 10
3309.5657970636380014
 20
164.0015911592197142
 30
0.0
 11
3309.5510349987380323
 21
164.0035725663196899
 31
0.0
  0
LINE
  5
1E20A
  8
0
 10
3309.5510349987380323
 20
164.0035725663196899
 30
0.0
 11
3309.5531900017508633
 21
163.9935969927026065
 31
0.0
  0
LINE
  5
1E20B
  8
0
 10
3309.5531900017508633
 20
163.9935969927026065
 30
0.0
 11
3309.570335032030016
 21
163.983062421896193
 31
0.0
  0
LINE
  5
1E20C
  8
0
 10
3309.570335032030016
 20
163.983062421896193
 30
0.0
 11
3309.5848944416379709
 21
163.9798165132197028
 31
0.0
  0
LINE
  5
1E20D
  8
0
 10
3309.5848944416379709
 20
163.9798165132197028
 30
0.0
 11
3309.5827223369378771
 21
163.9896853776197077
 31
0.0
  0
LINE
  5
1E20E
  8
0
 10
3309.5827223369378771
 20
163.9896853776197077
 30
0.0
 11
3309.5657970636380014
 21
164.0015911592197142
 31
0.0
  0
LINE
  5
1E20F
  8
0
 10
3309.5775084312381296
 20
163.9751445073196976
 30
0.0
 11
3309.5799020265490071
 21
163.966657670482391
 31
0.0
  0
LINE
  5
1E210
  8
0
 10
3309.5799020265490071
 20
163.966657670482391
 30
0.0
 11
3309.5652815376311082
 21
163.9695224648257863
 31
0.0
  0
LINE
  5
1E211
  8
0
 10
3309.5652815376311082
 20
163.9695224648257863
 30
0.0
 11
3309.5482774635352143
 21
163.9809365553032023
 31
0.0
  0
LINE
  5
1E212
  8
0
 10
3309.5482774635352143
 20
163.9809365553032023
 30
0.0
 11
3309.5458973364270605
 21
163.9895074291866877
 31
0.0
  0
LINE
  5
1E213
  8
0
 10
3309.5458973364270605
 20
163.9895074291866877
 30
0.0
 11
3309.5605076585229654
 21
163.9865791973797968
 31
0.0
  0
LINE
  5
1E214
  8
0
 10
3309.5605076585229654
 20
163.9865791973797968
 30
0.0
 11
3309.5775084312567742
 21
163.9751445073310947
 31
0.0
  0
LINE
  5
1E215
  8
0
 10
3309.5727425844229401
 20
163.9633993758633892
 30
0.0
 11
3309.5753494423379379
 21
163.9562432267196925
 31
0.0
  0
LINE
  5
1E216
  8
0
 10
3309.5753494423379379
 20
163.9562432267196925
 30
0.0
 11
3309.5608783761208542
 21
163.9600403683687091
 31
0.0
  0
LINE
  5
1E217
  8
0
 10
3309.5608783761208542
 20
163.9600403683687091
 30
0.0
 11
3309.5438116740560872
 21
163.9710636814702127
 31
0.0
  0
LINE
  5
1E218
  8
0
 10
3309.5438116740560872
 20
163.9710636814702127
 30
0.0
 11
3309.541214592301003
 21
163.9782808309869893
 31
0.0
  0
LINE
  5
1E219
  8
0
 10
3309.541214592301003
 20
163.9782808309869893
 30
0.0
 11
3309.5556743023089439
 21
163.9744128298501948
 31
0.0
  0
LINE
  5
1E21A
  8
0
 10
3309.5556743023089439
 20
163.9744128298501948
 30
0.0
 11
3309.5727425844229401
 21
163.9633993758633892
 31
0.0
  0
LINE
  5
1E21B
  8
0
 10
3309.5684124306808371
 20
163.9543728234708055
 30
0.0
 11
3309.5712278026671811
 21
163.9485177332693127
 31
0.0
  0
LINE
  5
1E21C
  8
0
 10
3309.5712278026671811
 20
163.9485177332693127
 30
0.0
 11
3309.5569081488379197
 21
163.9532596383197074
 31
0.0
  0
LINE
  5
1E21D
  8
0
 10
3309.5569081488379197
 20
163.9532596383197074
 30
0.0
 11
3309.5397847731378533
 21
163.9639293270197129
 31
0.0
  0
LINE
  5
1E21E
  8
0
 10
3309.5397847731378533
 20
163.9639293270197129
 30
0.0
 11
3309.5369752717379015
 21
163.9698210478196927
 31
0.0
  0
LINE
  5
1E21F
  8
0
 10
3309.5369752717379015
 20
163.9698210478196927
 30
0.0
 11
3309.5512831853939133
 21
163.9650058879086885
 31
0.0
  0
LINE
  5
1E220
  8
0
 10
3309.5512831853939133
 20
163.9650058879086885
 30
0.0
 11
3309.5684124298700226
 21
163.9543728251580035
 31
0.0
  0
LINE
  5
1E221
  8
0
 10
3309.5645124659508838
 20
163.9480305083536962
 30
0.0
 11
3309.567534756103214
 21
163.9434665184722064
 31
0.0
  0
LINE
  5
1E222
  8
0
 10
3309.567534756103214
 20
163.9434665184722064
 30
0.0
 11
3309.5533707454069372
 21
163.9491795846581113
 31
0.0
  0
LINE
  5
1E223
  8
0
 10
3309.5533707454069372
 20
163.9491795846581113
 30
0.0
 11
3309.5361957736349723
 21
163.9595273308015067
 31
0.0
  0
LINE
  5
1E224
  8
0
 10
3309.5361957736349723
 20
163.9595273308015067
 30
0.0
 11
3309.53317506379517
 21
163.964101181885809
 31
0.0
  0
LINE
  5
1E225
  8
0
 10
3309.53317506379517
 20
163.964101181885809
 30
0.0
 11
3309.5468450681428294
 21
163.958501569414608
 31
0.0
  0
LINE
  5
1E226
  8
0
 10
3309.5468450681428294
 20
163.958501569414608
 30
0.0
 11
3309.564512466342876
 21
163.9480305077620983
 31
0.0
  0
LINE
  5
1E227
  8
0
 10
3309.5310273854961451
 20
163.9638122499702035
 30
0.0
 11
3309.5280639574261841
 21
163.9687435200409027
 31
0.0
  0
LINE
  5
1E228
  8
0
 10
3309.5280639574261841
 20
163.9687435200409027
 30
0.0
 11
3309.5111214054031734
 21
163.9805414880096066
 31
0.0
  0
LINE
  5
1E229
  8
0
 10
3309.5111214054031734
 20
163.9805414880096066
 30
0.0
 11
3309.4971567323018462
 21
163.9874983549808007
 31
0.0
  0
LINE
  5
1E22A
  8
0
 10
3309.4971567323018462
 20
163.9874983549808007
 30
0.0
 11
3309.5001164964378404
 21
163.982544223119703
 31
0.0
  0
LINE
  5
1E22B
  8
0
 10
3309.5001164964378404
 20
163.982544223119703
 30
0.0
 11
3309.5170446740439729
 21
163.9706565636521987
 31
0.0
  0
LINE
  5
1E22C
  8
0
 10
3309.5170446740439729
 20
163.9706565636521987
 30
0.0
 11
3309.5310273854961451
 21
163.9638122499702035
 31
0.0
  0
LINE
  5
1E22D
  8
0
 10
3309.5277850919178491
 20
163.9615735837801935
 30
0.0
 11
3309.5246082175822266
 21
163.9651730197464872
 31
0.0
  0
LINE
  5
1E22E
  8
0
 10
3309.5246082175822266
 20
163.9651730197464872
 30
0.0
 11
3309.5076149083929522
 21
163.9766542804520952
 31
0.0
  0
LINE
  5
1E22F
  8
0
 10
3309.5076149083929522
 20
163.9766542804520952
 30
0.0
 11
3309.4938178398379023
 21
163.9846569433196919
 31
0.0
  0
LINE
  5
1E230
  8
0
 10
3309.4938178398379023
 20
163.9846569433196919
 30
0.0
 11
3309.4969972410731316
 21
163.9810732744032862
 31
0.0
  0
LINE
  5
1E231
  8
0
 10
3309.4969972410731316
 20
163.9810732744032862
 30
0.0
 11
3309.513971128067169
 21
163.9694708260840059
 31
0.0
  0
LINE
  5
1E232
  8
0
 10
3309.513971128067169
 20
163.9694708260840059
 30
0.0
 11
3309.5277850919378579
 21
163.9615735838196997
 31
0.0
  0
LINE
  5
1E233
  8
0
 10
3309.5298164982827984
 20
163.9611370170387943
 30
0.0
 11
3309.5438080164658459
 21
163.9543476550632874
 31
0.0
  0
LINE
  5
1E234
  8
0
 10
3309.5438080164658459
 20
163.9543476550632874
 30
0.0
 11
3309.5612001621170748
 21
163.9442017638154141
 31
0.0
  0
LINE
  5
1E235
  8
0
 10
3309.5612001621170748
 20
163.9442017638154141
 30
0.0
 11
3309.5338956117379894
 21
163.9573811967196946
 31
0.0
  0
LINE
  5
1E236
  8
0
 10
3309.5338956117379894
 20
163.9573811967196946
 30
0.0
 11
3309.533050483038096
 21
163.9578939312197008
 31
0.0
  0
LINE
  5
1E237
  8
0
 10
3309.533050483038096
 20
163.9578939312197008
 30
0.0
 11
3309.5298164982377784
 21
163.9611370170196949
 31
0.0
  0
LINE
  5
1E238
  8
0
 10
3309.5385100418161528
 20
164.0171032223557006
 30
0.0
 11
3309.546337793956809
 21
164.0107975123248991
 31
0.0
  0
LINE
  5
1E239
  8
0
 10
3309.546337793956809
 20
164.0107975123248991
 30
0.0
 11
3309.5484264298838752
 21
164.0004078308027999
 31
0.0
  0
LINE
  5
1E23A
  8
0
 10
3309.5484264298838752
 20
164.0004078308027999
 30
0.0
 11
3309.5338238985768839
 21
164.0033846744655079
 31
0.0
  0
LINE
  5
1E23B
  8
0
 10
3309.5338238985768839
 20
164.0033846744655079
 30
0.0
 11
3309.5179725546709051
 21
164.0161192238360002
 31
0.0
  0
LINE
  5
1E23C
  8
0
 10
3309.5243402259588947
 20
164.0090460300181121
 30
0.0
 11
3309.5410895027130209
 21
163.996042088541401
 31
0.0
  0
LINE
  5
1E23D
  8
0
 10
3309.5410895027130209
 20
163.996042088541401
 30
0.0
 11
3309.5434069932380226
 21
163.9870803831196895
 31
0.0
  0
LINE
  5
1E23E
  8
0
 10
3309.5434069932380226
 20
163.9870803831196895
 30
0.0
 11
3309.5289560901628647
 21
163.9910033366145115
 31
0.0
  0
LINE
  5
1E23F
  8
0
 10
3309.5289560901628647
 20
163.9910033366145115
 30
0.0
 11
3309.5122042874641011
 21
164.003991516810288
 31
0.0
  0
LINE
  5
1E240
  8
0
 10
3309.5122042874641011
 20
164.003991516810288
 30
0.0
 11
3309.5099062219451298
 21
164.0130744273924961
 31
0.0
  0
LINE
  5
1E241
  8
0
 10
3309.5099062219451298
 20
164.0130744273924961
 30
0.0
 11
3309.5243402259588947
 21
164.0090460300181121
 31
0.0
  0
LINE
  5
1E242
  8
0
 10
3309.5388392293380093
 20
163.9765712229196879
 30
0.0
 11
3309.5363021285038485
 21
163.9841626324021036
 31
0.0
  0
LINE
  5
1E243
  8
0
 10
3309.5363021285038485
 20
163.9841626324021036
 30
0.0
 11
3309.5194805256028303
 21
163.9967152827572079
 31
0.0
  0
LINE
  5
1E244
  8
0
 10
3309.5194805256028303
 20
163.9967152827572079
 30
0.0
 11
3309.5051999427478222
 21
164.0017009781911952
 31
0.0
  0
LINE
  5
1E245
  8
0
 10
3309.5051999427478222
 20
164.0017009781911952
 30
0.0
 11
3309.5077226661119312
 21
163.9940198577745889
 31
0.0
  0
LINE
  5
1E246
  8
0
 10
3309.5077226661119312
 20
163.9940198577745889
 30
0.0
 11
3309.5245406063440896
 21
163.9814443529591017
 31
0.0
  0
LINE
  5
1E247
  8
0
 10
3309.5245406063440896
 20
163.9814443529591017
 30
0.0
 11
3309.5388392293330071
 21
163.9765712229373094
 31
0.0
  0
LINE
  5
1E248
  8
0
 10
3309.5319622652377802
 20
163.9750754965197075
 30
0.0
 11
3309.5347135391139091
 21
163.9688204552749085
 31
0.0
  0
LINE
  5
1E249
  8
0
 10
3309.5347135391139091
 20
163.9688204552749085
 30
0.0
 11
3309.520570174326167
 21
163.9746623451470953
 31
0.0
  0
LINE
  5
1E24A
  8
0
 10
3309.520570174326167
 20
163.9746623451470953
 30
0.0
 11
3309.503693763593219
 21
163.9868730133111114
 31
0.0
  0
LINE
  5
1E24B
  8
0
 10
3309.503693763593219
 20
163.9868730133111114
 30
0.0
 11
3309.5009516946379335
 21
163.9931854900196981
 31
0.0
  0
LINE
  5
1E24C
  8
0
 10
3309.5009516946379335
 20
163.9931854900196981
 30
0.0
 11
3309.5150766522251615
 21
163.9872287450363899
 31
0.0
  0
LINE
  5
1E24D
  8
0
 10
3309.5150766522251615
 20
163.9872287450363899
 30
0.0
 11
3309.53196226522914
 21
163.9750754965419901
 31
0.0
  0
LINE
  5
1E24E
  8
0
 10
3309.5063271556900872
 20
164.0152303895833086
 30
0.0
 11
3309.5074266481829
 21
164.0107145789459082
 31
0.0
  0
LINE
  5
1E24F
  8
0
 10
3309.5074266481829
 20
164.0107145789459082
 30
0.0
 11
3309.4971819973061429
 21
164.014274323010909
 31
0.0
  0
LINE
  5
1E250
  8
0
 10
3309.4936294576900764
 20
164.0138401195380027
 30
0.0
 11
3309.5003793540390689
 21
164.0081560498196893
 31
0.0
  0
LINE
  5
1E251
  8
0
 10
3309.5003793540390689
 20
164.0081560498196893
 30
0.0
 11
3309.5028390339380167
 21
164.0000815587196996
 31
0.0
  0
LINE
  5
1E252
  8
0
 10
3309.5028390339380167
 20
164.0000815587196996
 30
0.0
 11
3309.4887283890379877
 21
164.0061276104196963
 31
0.0
  0
LINE
  5
1E253
  8
0
 10
3309.4887283890379877
 20
164.0061276104196963
 30
0.0
 11
3309.481647905050977
 21
164.0121143426798938
 31
0.0
  0
LINE
  5
1E254
  8
0
 10
3309.4804471389179525
 20
164.0119190155542981
 30
0.0
 11
3309.496026819394956
 21
163.9989898490271116
 31
0.0
  0
LINE
  5
1E255
  8
0
 10
3309.496026819394956
 20
163.9989898490271116
 30
0.0
 11
3309.4987080508381041
 21
163.992297766119691
 31
0.0
  0
LINE
  5
1E256
  8
0
 10
3309.4987080508381041
 20
163.992297766119691
 30
0.0
 11
3309.484757690438073
 21
163.999343939020207
 31
0.0
  0
LINE
  5
1E257
  8
0
 10
3309.484757690438073
 20
163.999343939020207
 30
0.0
 11
3309.4715973046531872
 21
164.0102832732702041
 31
0.0
  0
LINE
  5
1E258
  8
0
 10
3309.4692518963897783
 20
164.0097329351889925
 30
0.0
 11
3309.4754538737229268
 21
164.0061275354730981
 31
0.0
  0
LINE
  5
1E259
  8
0
 10
3309.4754538737229268
 20
164.0061275354730981
 30
0.0
 11
3309.4921306733158417
 21
163.9926713606596138
 31
0.0
  0
LINE
  5
1E25A
  8
0
 10
3309.4921306733158417
 20
163.9926713606596138
 30
0.0
 11
3309.4950309050532269
 21
163.9873457666284082
 31
0.0
  0
LINE
  5
1E25B
  8
0
 10
3309.4950309050532269
 20
163.9873457666284082
 30
0.0
 11
3309.4812476950201017
 21
163.9954349022023052
 31
0.0
  0
LINE
  5
1E25C
  8
0
 10
3309.4812476950201017
 20
163.9954349022023052
 30
0.0
 11
3309.4650738842810824
 21
164.0086126541960141
 31
0.0
  0
LINE
  5
1E25D
  8
0
 10
3309.4634204599838085
 20
164.0081176829216076
 30
0.0
 11
3309.471964553566977
 21
164.0023475056106861
 31
0.0
  0
LINE
  5
1E25E
  8
0
 10
3309.471964553566977
 20
164.0023475056106861
 30
0.0
 11
3309.4886920338522032
 21
163.9892075614147018
 31
0.0
  0
LINE
  5
1E25F
  8
0
 10
3309.4886920338522032
 20
163.9892075614147018
 30
0.0
 11
3309.4918123591151016
 21
163.9852552776353036
 31
0.0
  0
LINE
  5
1E260
  8
0
 10
3309.4918123591151016
 20
163.9852552776353036
 30
0.0
 11
3309.4782062063500234
 21
163.9944491920147129
 31
0.0
  0
LINE
  5
1E261
  8
0
 10
3309.4782062063500234
 20
163.9944491920147129
 30
0.0
 11
3309.4617257683530624
 21
164.007579304214886
 31
0.0
  0
ARC
  5
1E262
  8
0
 10
3309.7489384769469325
 20
165.0191119087953098
 30
0.0
 40
1.077086371549921
 50
248.3941348721407962
 51
251.8408671374749019
  0
ARC
  5
1E263
  8
0
 10
3309.4876820906729336
 20
164.3594508967892978
 30
0.0
 40
0.3675741798789228
 50
239.489908827341992
 51
248.3941348721407962
  0
ARC
  5
1E264
  8
0
 10
3309.3650748639079211
 20
164.1466107191193089
 30
0.0
 40
0.1219815524719024
 50
230.3347177825339998
 51
238.3503899844176885
  0
LINE
  5
1E265
  8
0
 10
3309.9234822097378128
 20
163.8952196697196939
 30
0.0
 11
3309.9203745835798145
 21
163.8992511916291903
 31
0.0
  0
LINE
  5
1E266
  8
0
 10
3309.9203745835798145
 20
163.8992511916291903
 30
0.0
 11
3309.8885581006379653
 21
163.8900637226196864
 31
0.0
  0
LINE
  5
1E267
  8
0
 10
3309.8885581006379653
 20
163.8900637226196864
 30
0.0
 11
3309.9076483779440423
 21
163.8905136076579936
 31
0.0
  0
LINE
  5
1E268
  8
0
 10
3309.9076483779440423
 20
163.8905136076579936
 30
0.0
 11
3309.9234822097378128
 21
163.8952196697196939
 31
0.0
  0
LINE
  5
1E269
  8
0
 10
3309.4860304552489652
 20
164.0072855683710031
 30
0.0
 11
3309.484757690438073
 21
163.999343939020207
 31
0.0
  0
LINE
  5
1E26A
  8
0
 10
3309.4821016898158632
 20
164.0007635461194013
 30
0.0
 11
3309.4812476950201017
 21
163.9954349022023052
 31
0.0
  0
LINE
  5
1E26B
  8
0
 10
3309.4786325723139271
 20
163.9971095742108957
 30
0.0
 11
3309.4782062063382
 21
163.9944491920226142
 31
0.0
  0
LINE
  5
1E26C
  8
0
 10
3309.4898849561632233
 20
164.0133442045033121
 30
0.0
 11
3309.4887283890379877
 21
164.0061276104196963
 31
0.0
  0
LINE
  5
1E26D
  8
0
 10
3309.5134992491261983
 20
164.0120716466500994
 30
0.0
 11
3309.5122042874468207
 21
164.0039915168767095
 31
0.0
  0
LINE
  5
1E26E
  8
0
 10
3309.5310169334461534
 20
164.0038623128525899
 30
0.0
 11
3309.5289560902338053
 21
163.9910033365950994
 31
0.0
  0
LINE
  5
1E26F
  8
0
 10
3309.5360088294842171
 20
164.0170179169761013
 30
0.0
 11
3309.5338238985491444
 21
164.0033846744877906
 31
0.0
  0
LINE
  5
1E270
  8
0
 10
3309.5725439279649436
 20
163.9968451978552935
 30
0.0
 11
3309.570335032030016
 21
163.983062421896193
 31
0.0
  0
LINE
  5
1E271
  8
0
 10
3309.5782662030210304
 20
164.0145581238436137
 30
0.0
 11
3309.5754205232378808
 21
163.9968020280196868
 31
0.0
  0
LINE
  5
1E272
  8
0
 10
3309.5547096894379138
 20
164.003079338692487
 30
0.0
 11
3309.5531900017422231
 21
163.9935969927456085
 31
0.0
  0
LINE
  5
1E273
  8
0
 10
3309.5495342540712045
 20
163.9887785104228044
 30
0.0
 11
3309.5482774635352143
 21
163.9809365553032023
 31
0.0
  0
LINE
  5
1E274
  8
0
 10
3309.5672846188658696
 20
163.9820210256891926
 30
0.0
 11
3309.5652815376388389
 21
163.9695224648243936
 31
0.0
  0
LINE
  5
1E275
  8
0
 10
3309.562478173746058
 20
163.9700225740230053
 30
0.0
 11
3309.5608783760530969
 21
163.9600403684123933
 31
0.0
  0
LINE
  5
1E276
  8
0
 10
3309.5448140184021213
 20
163.9773179773584104
 30
0.0
 11
3309.5438116740378973
 21
163.9710636815196949
 31
0.0
  0
LINE
  5
1E277
  8
0
 10
3309.5581113584448758
 20
163.9607672659059006
 30
0.0
 11
3309.5569081488379197
 21
163.9532596383197074
 31
0.0
  0
LINE
  5
1E278
  8
0
 10
3309.5405369114769201
 20
163.968622419892597
 30
0.0
 11
3309.5397847731378533
 21
163.9639293270197129
 31
0.0
  0
LINE
  5
1E279
  8
0
 10
3309.5366975538131555
 20
163.9626582723932984
 30
0.0
 11
3309.5361957736349723
 21
163.9595273308015067
 31
0.0
  0
LINE
  5
1E27A
  8
0
 10
3309.5541690607287819
 20
163.9541608070088898
 30
0.0
 11
3309.5533707453500938
 21
163.9491795846927005
 31
0.0
  0
LINE
  5
1E27B
  8
0
 10
3309.5341597692381583
 20
163.959029451706698
 30
0.0
 11
3309.5338956117379894
 21
163.9573811967196946
 31
0.0
  0
LINE
  5
1E27C
  8
0
 10
3309.5771098308441651
 20
163.9486856903556884
 30
0.0
 11
3309.5763777957299681
 21
163.9441180348705132
 31
0.0
  0
LINE
  5
1E27D
  8
0
 10
3309.5949011061011333
 20
163.9421834732077059
 30
0.0
 11
3309.5937298119370098
 21
163.934874987410609
 31
0.0
  0
LINE
  5
1E27E
  8
0
 10
3309.5992100013731942
 20
163.951077379634711
 30
0.0
 11
3309.5976998842429566
 21
163.9416547508488975
 31
0.0
  0
LINE
  5
1E27F
  8
0
 10
3309.5813779248351238
 20
163.9573250100800124
 30
0.0
 11
3309.5804031680299886
 21
163.9512428519672937
 31
0.0
  0
LINE
  5
1E280
  8
0
 10
3309.604019583635818
 20
163.9630954058264933
 30
0.0
 11
3309.6020937281377883
 21
163.9510787076197005
 31
0.0
  0
LINE
  5
1E281
  8
0
 10
3309.5860811428851775
 20
163.9686793590776119
 30
0.0
 11
3309.5848568750388949
 21
163.9610403348196996
 31
0.0
  0
LINE
  5
1E282
  8
0
 10
3309.6092776063469501
 20
163.9779115513615864
 30
0.0
 11
3309.6069176139380943
 21
163.9631859834196916
 31
0.0
  0
LINE
  5
1E283
  8
0
 10
3309.5912262715501129
 20
163.9827910837018976
 30
0.0
 11
3309.5897462185521363
 21
163.9735560453055996
 31
0.0
  0
LINE
  5
1E284
  8
0
 10
3309.6149700436230887
 20
163.9954382995150013
 30
0.0
 11
3309.6121844466370021
 21
163.9780571004098988
 31
0.0
  0
LINE
  5
1E285
  8
0
 10
3309.5968335214702165
 20
163.9997862910109063
 30
0.0
 11
3309.5950854428378989
 21
163.9888788618196998
 31
0.0
  0
LINE
  5
1E286
  8
0
 10
3309.6209189591381801
 20
164.0145653864196902
 30
0.0
 11
3309.6179147775378624
 21
163.9958202922196904
 31
0.0
  0
LINE
  5
1E287
  8
0
 10
3309.6023230852738379
 20
164.0160471759191978
 30
0.0
 11
3309.6008968853379884
 21
164.007148162919691
 31
0.0
  0
LINE
  5
1E288
  8
0
 10
3309.5087547790440112
 20
164.000459899218896
 30
0.0
 11
3309.5077226661119312
 21
163.9940198577745889
 31
0.0
  0
LINE
  5
1E289
  8
0
 10
3309.5261860641307976
 20
163.9917114623081034
 30
0.0
 11
3309.5245406063440896
 21
163.9814443529591017
 31
0.0
  0
LINE
  5
1E28A
  8
0
 10
3309.8569448002199351
 20
163.9804584743646103
 30
0.0
 11
3309.8539182141380479
 21
163.9615735838196997
 31
0.0
  0
LINE
  5
1E28B
  8
0
 10
3309.8378061217449613
 20
163.9785533438742959
 30
0.0
 11
3309.8356617248400653
 21
163.9651730197334132
 31
0.0
  0
LINE
  5
1E28C
  8
0
 10
3309.8323083552759272
 20
163.9564552204057861
 30
0.0
 11
3309.8303927405299873
 21
163.9445024215200135
 31
0.0
  0
LINE
  5
1E28D
  8
0
 10
3309.8179884695268811
 20
163.9855235095118928
 30
0.0
 11
3309.8145089156378162
 21
163.9638122500197142
 31
0.0
  0
LINE
  5
1E28E
  8
0
 10
3309.7986342135491213
 20
163.982273246734195
 30
0.0
 11
3309.7964658725368281
 21
163.9687435200121115
 31
0.0
  0
LINE
  5
1E28F
  8
0
 10
3309.8113795029480571
 20
163.9622779231609115
 30
0.0
 11
3309.8083646940449398
 21
163.943466518459303
 31
0.0
  0
LINE
  5
1E290
  8
0
 10
3309.7921421411201663
 20
163.9597570411503114
 30
0.0
 11
3309.7902627888620373
 21
163.9480305084726126
 31
0.0
  0
LINE
  5
1E291
  8
0
 10
3309.7790054484889879
 20
163.9904220059626141
 30
0.0
 11
3309.7755434770429019
 21
163.9688204552502953
 31
0.0
  0
LINE
  5
1E292
  8
0
 10
3309.7598979688241343
 20
163.9887115453765034
 30
0.0
 11
3309.7579565791438654
 21
163.9765979192731038
 31
0.0
  0
LINE
  5
1E293
  8
0
 10
3309.7404826999340912
 20
163.9981924492687995
 30
0.0
 11
3309.7370175751439092
 21
163.9765712229527992
 31
0.0
  0
LINE
  5
1E294
  8
0
 10
3309.7216115105711651
 20
163.9979563616988969
 30
0.0
 11
3309.7194008592477985
 21
163.9841626324819117
 31
0.0
  0
LINE
  5
1E295
  8
0
 10
3309.7020690559361356
 20
164.0066436687876035
 30
0.0
 11
3309.6989337469390193
 21
163.9870803831236969
 31
0.0
  0
LINE
  5
1E296
  8
0
 10
3309.6835840135490798
 20
164.0088170099282934
 30
0.0
 11
3309.6815366413379707
 21
163.9960420885196868
 31
0.0
  0
LINE
  5
1E297
  8
0
 10
3309.6629960592458701
 20
164.0109807471503132
 30
0.0
 11
3309.6613015913389972
 21
164.0004078308197109
 31
0.0
  0
LINE
  5
1E298
  8
0
 10
3309.658287975391886
 20
163.9995960371994101
 30
0.0
 11
3309.655118010949991
 21
163.9798165132916097
 31
0.0
  0
LINE
  5
1E299
  8
0
 10
3309.6398033649911667
 20
164.0017720733868032
 30
0.0
 11
3309.6378662912270556
 21
163.9896853775470902
 31
0.0
  0
LINE
  5
1E29A
  8
0
 10
3309.6958916456951556
 20
163.9860908507756108
 30
0.0
 11
3309.6927771880377804
 21
163.9666576705197087
 31
0.0
  0
LINE
  5
1E29B
  8
0
 10
3309.6772533778189427
 20
163.9873081160851029
 30
0.0
 11
3309.6753039777349841
 21
163.9751445073021898
 31
0.0
  0
LINE
  5
1E29C
  8
0
 10
3309.7339469776929946
 20
163.975403883150193
 30
0.0
 11
3309.7308761959379808
 21
163.9562432267196925
 31
0.0
  0
LINE
  5
1E29D
  8
0
 10
3309.7151091054038261
 20
163.9753756834562921
 30
0.0
 11
3309.7131897230219693
 21
163.963399375719888
 31
0.0
  0
LINE
  5
1E29E
  8
0
 10
3309.7724439254047866
 20
163.9674724511299075
 30
0.0
 11
3309.7694061484389749
 21
163.9485177332196884
 31
0.0
  0
LINE
  5
1E29F
  8
0
 10
3309.7534073670240105
 20
163.9662045158601131
 30
0.0
 11
3309.7515111614379748
 21
163.9543728235196909
 31
0.0
  0
LINE
  5
1E2A0
  8
0
 10
3309.7663479825978357
 20
163.9474279626658131
 30
0.0
 11
3309.7637404087408868
 21
163.9311575693365057
 31
0.0
  0
LINE
  5
1E2A1
  8
0
 10
3309.7474135047827986
 20
163.94679697649579
 30
0.0
 11
3309.7457856294599878
 21
163.936639575953194
 31
0.0
  0
LINE
  5
1E2A2
  8
0
 10
3309.7278463190391449
 20
163.9553299696430884
 30
0.0
 11
3309.7252074223379168
 21
163.9388641320196882
 31
0.0
  0
LINE
  5
1E2A3
  8
0
 10
3309.7091062581757797
 20
163.9559120802410064
 30
0.0
 11
3309.7074568914458723
 21
163.9456205806667981
 31
0.0
  0
LINE
  5
1E2A4
  8
0
 10
3309.7222158637800931
 20
163.9381899686457018
 30
0.0
 11
3309.7199844876358839
 21
163.9242669236037102
 31
0.0
  0
LINE
  5
1E2A5
  8
0
 10
3309.7035687020152182
 20
163.9393517391604007
 30
0.0
 11
3309.7021741444377767
 21
163.9306501637196902
 31
0.0
  0
LINE
  5
1E2A6
  8
0
 10
3309.7428372024519376
 20
163.9304484829702915
 30
0.0
 11
3309.7414604801629139
 21
163.9218581938991122
 31
0.0
  0
LINE
  5
1E2A7
  8
0
 10
3309.6994084311791084
 20
163.9255991439586921
 30
0.0
 11
3309.6982563507240229
 21
163.9184105446630895
 31
0.0
  0
LINE
  5
1E2A8
  8
0
 10
3309.6841332296589826
 20
163.9487065798921037
 30
0.0
 11
3309.6818660009380437
 21
163.9345598269196955
 31
0.0
  0
LINE
  5
1E2A9
  8
0
 10
3309.6656790413589988
 20
163.9510724403444897
 30
0.0
 11
3309.6642616946378439
 21
163.942228668271099
 31
0.0
  0
LINE
  5
1E2AA
  8
0
 10
3309.6788916018040254
 20
163.9339927328950921
 30
0.0
 11
3309.6770651860219914
 21
163.9225965057208896
 31
0.0
  0
LINE
  5
1E2AB
  8
0
 10
3309.6605712907980887
 20
163.9371939432218994
 30
0.0
 11
3309.6594006723380517
 21
163.9298896730196873
 31
0.0
  0
LINE
  5
1E2AC
  8
0
 10
3309.6568124347340927
 20
163.925946042672507
 30
0.0
 11
3309.6558791467928131
 21
163.9201226364276067
 31
0.0
  0
LINE
  5
1E2AD
  8
0
 10
3309.6897753559751436
 20
163.965919404344703
 30
0.0
 11
3309.6870970510449297
 21
163.9492076725668142
 31
0.0
  0
LINE
  5
1E2AE
  8
0
 10
3309.6712310267871544
 20
163.9677228158901983
 30
0.0
 11
3309.6695549768378442
 21
163.9572648212196952
 31
0.0
  0
LINE
  5
1E2AF
  8
0
 10
3309.6520632073170418
 20
163.9787477215512013
 30
0.0
 11
3309.6494176720389078
 21
163.9622404616197002
 31
0.0
  0
LINE
  5
1E2B0
  8
0
 10
3309.6338001209787762
 20
163.9823059949378035
 30
0.0
 11
3309.632091507729001
 21
163.9716448163611062
 31
0.0
  0
LINE
  5
1E2B1
  8
0
 10
3309.628225272113923
 20
163.9655129596054053
 30
0.0
 11
3309.6267785878430914
 21
163.9564861307532055
 31
0.0
  0
LINE
  5
1E2B2
  8
0
 10
3309.646481938063971
 20
163.9619146254767088
 30
0.0
 11
3309.6441722075360303
 21
163.9475026747059019
 31
0.0
  0
LINE
  5
1E2B3
  8
0
 10
3309.6412729400308308
 20
163.9474043769783123
 30
0.0
 11
3309.6393620933358761
 21
163.9354813292075903
 31
0.0
  0
LINE
  5
1E2B4
  8
0
 10
3309.6231026883251616
 20
163.9515419072976101
 30
0.0
 11
3309.6219064966389851
 21
163.9440780694197031
 31
0.0
  0
LINE
  5
1E2B5
  8
0
 10
3309.6184147103508622
 20
163.9402826516682978
 30
0.0
 11
3309.6174617863380263
 21
163.9343367225197028
 31
0.0
  0
LINE
  5
1E2B6
  8
0
 10
3309.636498485599077
 20
163.9356055371044079
 30
0.0
 11
3309.6349750446361213
 21
163.9260997721115984
 31
0.0
  0
LINE
  5
1E2B7
  8
0
 10
3309.6150507657048365
 20
163.9314988671154936
 30
0.0
 11
3309.6143365231441749
 21
163.927042231079696
 31
0.0
  0
LINE
  5
1E2B8
  8
0
 10
3309.8905890201099282
 20
163.9602398016288021
 30
0.0
 11
3309.8897587845240196
 21
163.9550594079821906
 31
0.0
  0
LINE
  5
1E2B9
  8
0
 10
3309.9110050767508255
 20
163.9570034806783951
 30
0.0
 11
3309.9091412973380102
 21
163.9453741170196963
 31
0.0
  0
LINE
  5
1E2BA
  8
0
 10
3309.9305128427631644
 20
163.9612115948727933
 30
0.0
 11
3309.9278861005382169
 21
163.9448215969196951
 31
0.0
  0
LINE
  5
1E2BB
  8
0
 10
3309.9247033702072258
 20
163.9429545856812069
 30
0.0
 11
3309.9223261090301094
 21
163.9281212659765004
 31
0.0
  0
LINE
  5
1E2BC
  8
0
 10
3309.9654395369170743
 20
163.9489951354487971
 30
0.0
 11
3309.9628861615451569
 21
163.9330629219637956
 31
0.0
  0
LINE
  5
1E2BD
  8
0
 10
3309.9454576931639167
 20
163.9418289336364012
 30
0.0
 11
3309.9438671482421341
 21
163.9319044624425885
 31
0.0
  0
LINE
  5
1E2BE
  8
0
 10
3309.980808915669968
 20
163.932261389533096
 30
0.0
 11
3309.9794857589281492
 21
163.9240053314584031
 31
0.0
  0
LINE
  5
1E2BF
  8
0
 10
3310.0004653978321585
 20
163.9373974434049046
 30
0.0
 11
3309.9987920393377863
 21
163.9269562426196103
 31
0.0
  0
LINE
  5
1E2C0
  8
0
 10
3309.9956234790820417
 20
163.9251776479243858
 30
0.0
 11
3309.9939165883611167
 21
163.9145272171579109
 31
0.0
  0
LINE
  5
1E2C1
  8
0
 10
3309.9756252576580664
 20
163.9179092551867996
 30
0.0
 11
3309.9745651284351879
 21
163.9112944014981963
 31
0.0
  0
LINE
  5
1E2C2
  8
0
 10
3309.9907895047731472
 20
163.913007423633502
 30
0.0
 11
3309.9894973440418653
 21
163.9049447700463134
 31
0.0
  0
LINE
  5
1E2C3
  8
0
 10
3309.9708998040209735
 20
163.9064161633887124
 30
0.0
 11
3309.9700951271429403
 21
163.9013952472502069
 31
0.0
  0
LINE
  5
1E2C4
  8
0
 10
3309.9864098995121822
 20
163.9036723105321016
 30
0.0
 11
3309.9855268495380187
 21
163.8981623725196926
 31
0.0
  0
LINE
  5
1E2C5
  8
0
 10
3309.9666202253260963
 20
163.897705182784108
 30
0.0
 11
3309.9660676936450727
 21
163.894257569157304
 31
0.0
  0
LINE
  5
1E2C6
  8
0
 10
3309.9627815262001604
 20
163.8917451444592928
 30
0.0
 11
3309.962481815638057
 21
163.8898750505196915
 31
0.0
  0
LINE
  5
1E2C7
  8
0
 10
3309.9824778981787858
 20
163.8971300973863947
 30
0.0
 11
3309.9820049817308245
 21
163.8941792556790915
 31
0.0
  0
LINE
  5
1E2C8
  8
0
 10
3310.0320022680029979
 20
163.9220217767033887
 30
0.0
 11
3310.0312072554338556
 21
163.9170611628993868
 31
0.0
  0
LINE
  5
1E2C9
  8
0
 10
3310.0280806557038886
 20
163.9155443876180129
 30
0.0
 11
3310.0272364757452124
 21
163.9102769854621044
 31
0.0
  0
LINE
  5
1E2CA
  8
0
 10
3310.0123304281328274
 20
163.9167898965382051
 30
0.0
 11
3310.0115392861339387
 21
163.9118534332951072
 31
0.0
  0
LINE
  5
1E2CB
  8
0
 10
3310.0241350445380704
 20
163.908917253819709
 30
0.0
 11
3310.0237311997379948
 21
163.9063973963197043
 31
0.0
  0
LINE
  5
1E2CC
  8
0
 10
3310.0080402242651871
 20
163.9080126187398889
 30
0.0
 11
3310.0075096909440617
 21
163.9047022670532101
 31
0.0
  0
LINE
  5
1E2CD
  8
0
 10
3310.0042055668291141
 20
163.9020777987416011
 30
0.0
 11
3310.0039364843350995
 21
163.9003988133044061
 31
0.0
  0
LINE
  5
1E2CE
  8
0
 10
3309.9598357093391314
 20
163.9284800463196916
 30
0.0
 11
3309.9604728162589709
 21
163.9313092753129979
 31
0.0
  0
LINE
  5
1E2CF
  8
0
 10
3309.7855069742658998
 20
163.9305619180954068
 30
0.0
 11
3309.7871201913358163
 21
163.9406278560144017
 31
0.0
  0
LINE
  5
1E2D0
  8
0
 10
3309.9538211720000618
 20
163.9124847369737097
 30
0.0
 11
3309.9527322533381266
 21
163.9056902462197058
 31
0.0
  0
LINE
  5
1E2D1
  8
0
 10
3309.9496397543521198
 20
163.9043862488543084
 30
0.0
 11
3309.9483262147441565
 21
163.8961901983543896
 31
0.0
  0
LINE
  5
1E2D2
  8
0
 10
3309.9299846011631416
 20
163.8992584873392957
 30
0.0
 11
3309.9291661925390144
 21
163.8941518901197014
 31
0.0
  0
LINE
  5
1E2D3
  8
0
 10
3309.9452719841387989
 20
163.8951249828018035
 30
0.0
 11
3309.944355939740035
 21
163.8894091700277045
 31
0.0
  0
LINE
  5
1E2D4
  8
0
 10
3309.9257131624599424
 20
163.8905982983623062
 30
0.0
 11
3309.9251404160349921
 21
163.887024550697987
 31
0.0
  0
LINE
  5
1E2D5
  8
0
 10
3309.9413390617828554
 20
163.8885770223864995
 30
0.0
 11
3309.9408213154329133
 21
163.8853464572846121
 31
0.0
  0
LINE
  5
1E2D6
  8
0
 10
3309.9218713701411616
 20
163.8846189592204894
 30
0.0
 11
3309.921544828649985
 21
163.8825814484960972
 31
0.0
  0
LINE
  5
1E2D7
  8
0
 10
3309.9046250619421699
 20
163.8896412892437127
 30
0.0
 11
3309.9036782697307899
 21
163.8837336206759119
 31
0.0
  0
LINE
  5
1E2D8
  8
0
 10
3309.8852807005878276
 20
163.8864527655850907
 30
0.0
 11
3309.8846890331378745
 21
163.8827609576196949
 31
0.0
  0
LINE
  5
1E2D9
  8
0
 10
3309.8814365909652224
 20
163.8804589674568035
 30
0.0
 11
3309.8810861460378874
 21
163.8782723078197137
 31
0.0
  0
LINE
  5
1E2DA
  8
0
 10
3309.9006914370929735
 20
163.8830889457358069
 30
0.0
 11
3309.9001339456499409
 21
163.8796103844952086
 31
0.0
  0
LINE
  5
1E2DB
  8
0
 10
3309.8971694265360384
 20
163.8791049382786866
 30
0.0
 11
3309.8970240365429163
 21
163.878197753602393
 31
0.0
  0
LINE
  5
1E2DC
  8
0
 10
3309.8779815908469573
 20
163.8768930833684863
 30
0.0
 11
3309.87793316481293
 21
163.876590920930397
 31
0.0
  0
LINE
  5
1E2DD
  8
0
 10
3309.8634610468398023
 20
163.8809311075270898
 30
0.0
 11
3309.8640814944051272
 21
163.8848024942612085
 31
0.0
  0
LINE
  5
1E2DE
  8
0
 10
3309.8599095625381779
 20
163.8767631944197092
 30
0.0
 11
3309.8605009824150329
 21
163.8804534576484002
 31
0.0
  0
LINE
  5
1E2DF
  8
0
 10
3309.8567794809441693
 20
163.8752246931329921
 30
0.0
 11
3309.856987127874163
 21
163.8765203412100107
 31
0.0
  0
LINE
  5
1E2E0
  8
0
 10
3309.8410775481429482
 20
163.8767715455473137
 30
0.0
 11
3309.8414495955598795
 21
163.8790929977429016
 31
0.0
  0
LINE
  5
1E2E1
  8
0
 10
3309.8378788569489188
 20
163.8748049436339898
 30
0.0
 11
3309.8380206022661696
 21
163.8756893869623923
 31
0.0
  0
LINE
  5
1E2E2
  8
0
 10
3309.8170143513061703
 20
163.8752430922147028
 30
0.0
 11
3309.8171532704009223
 21
163.8761099011234137
 31
0.0
  0
LINE
  5
1E2E3
  8
0
 10
3309.8201870255848007
 20
163.8770473571792934
 30
0.0
 11
3309.8204113682231764
 21
163.8784471804046063
 31
0.0
  0
LINE
  5
1E2E4
  8
0
 10
3309.7983422246870759
 20
163.876249089703208
 30
0.0
 11
3309.7984072380409089
 21
163.8766547514040894
 31
0.0
  0
LINE
  5
1E2E5
  8
0
 10
3309.9076483779440423
 20
163.8905136076579936
 30
0.0
 11
3309.9084991241161333
 21
163.8958219811790116
 31
0.0
  0
ARC
  5
1E2E6
  8
0
 10
3310.1956174323800042
 20
163.9499127112366068
 30
0.0
 40
0.0572893031270899
 50
300.4582605056961029
 51
321.2139610593849852
  0
ARC
  5
1E2E7
  8
0
 10
3310.2236350038219825
 20
163.9245178770028986
 30
0.0
 40
0.0196706575953585
 50
327.7657284151540011
 51
13.4153109089100795
  0
ARC
  5
1E2E8
  8
0
 10
3310.1897246327530411
 20
163.9112590916961096
 30
0.0
 40
0.0559583748750553
 50
18.5720084352505914
 51
52.7062405707398085
  0
ARC
  5
1E2E9
  8
0
 10
3310.0273823333709515
 20
163.6983168060671971
 30
0.0
 40
0.3237258791817736
 50
52.6836561570943118
 51
72.6506094323026872
  0
ARC
  5
1E2EA
  8
0
 10
3309.5151298670830329
 20
162.1350939561843916
 30
0.0
 40
1.9687130534952439
 50
71.9871159855511848
 51
80.6583949531126336
  0
ARC
  5
1E2EB
  8
0
 10
3309.3848293428709439
 20
161.6695203723739951
 30
0.0
 40
2.4498360610555969
 50
79.4187459339187853
 51
86.8946167952460797
  0
ARC
  5
1E2EC
  8
0
 10
3309.4579354447560036
 20
162.9732695997309122
 30
0.0
 40
1.144043386258716
 50
87.0133722736504467
 51
93.7094983447064038
  0
ARC
  5
1E2ED
  8
0
 10
3309.4056720798321294
 20
163.7042102118535922
 30
0.0
 40
0.4112816004029382
 50
93.0319239797572237
 51
102.619888021885302
  0
ARC
  5
1E2EE
  8
0
 10
3309.3390481837282096
 20
164.0017831660709078
 30
0.0
 40
0.1063415954612783
 50
102.619888021885302
 51
119.2022126186034967
  0
ARC
  5
1E2EF
  8
0
 10
3309.3038876691198311
 20
164.0645806098463879
 30
0.0
 40
0.0343709628927491
 50
119.1134114344229005
 51
141.0570804950513093
  0
ARC
  5
1E2F0
  8
0
 10
3309.2919800232939451
 20
164.0748250721034083
 30
0.0
 40
0.0186766646131083
 50
142.5400849624195985
 51
187.611141533080712
  0
ARC
  5
1E2F1
  8
0
 10
3309.2998857123611742
 20
164.0758814809595947
 30
0.0
 40
0.0266526234463038
 50
187.611141533080712
 51
218.5553367037568933
  0
ARC
  5
1E2F2
  8
0
 10
3315.5382204873490082
 20
164.6162773834477946
 30
0.0
 40
0.0314964148481628
 50
0.000424895407108
 51
90.002341668049425
  0
LINE
  5
1E2F3
  8
0
 10
3315.569716902195978
 20
164.6162776170197048
 30
0.0
 11
3315.569728306998968
 21
162.2219980135118931
 31
0.0
  0
ARC
  5
1E2F4
  8
0
 10
3304.7005675336340573
 20
-27.5525069421594004
 30
0.0
 40
186.9740595926436981
 50
92.8140644566792332
 51
94.3137817399174025
  0
ARC
  5
1E2F5
  8
0
 10
3300.7310763933901399
 20
53.2033486032899106
 30
0.0
 40
106.1207042832321008
 50
89.7881303270396813
 51
92.8140644566792332
  0
ARC
  5
1E2F6
  8
0
 10
3297.6918120487111992
 20
-768.6992089069777876
 30
0.0
 40
928.0288811312760799
 50
89.4970260267473776
 51
89.7881303270396813
  0
ARC
  5
1E2F7
  8
0
 10
3303.0477503829351917
 20
4.0473958436167257
 30
0.0
 40
155.2715990816870999
 50
87.3875113934623187
 51
88.9701637172476296
  0
ARC
  5
1E2F8
  8
0
 10
3302.0181922658939584
 20
11.3470754629986299
 30
0.0
 40
148.0326928813458096
 50
85.3468863937713564
 51
86.860649083968255
  0
LINE
  5
1E2F9
  8
0
 10
3308.1172782899429876
 20
159.2362142816222104
 30
0.0
 11
3308.1172782695771275
 21
159.3918680369208971
 31
0.0
  0
ARC
  5
1E2FA
  8
0
 10
3308.1308095712411159
 20
159.3900487237129937
 30
0.0
 40
0.0136530591902152
 50
93.2964811432134269
 51
172.3423796008096929
  0
LINE
  5
1E2FB
  8
0
 10
3308.1300244832959834
 20
159.4036791918697133
 30
0.0
 11
3310.1123878621961012
 21
159.4036791918697133
 31
0.0
  0
ARC
  5
1E2FC
  8
0
 10
3310.110418490669872
 20
159.3887592652085914
 30
0.0
 40
0.0150493400446778
 50
11.9225581164789407
 51
82.4806515861240257
  0
LINE
  5
1E2FD
  8
0
 10
3310.1251431821960978
 20
159.3918682996624909
 30
0.0
 11
3310.125143212796047
 21
159.1576146949741997
 31
0.0
  0
LINE
  5
1E2FE
  8
0
 10
3309.7078203459959695
 20
159.4036792646355991
 30
0.0
 11
3309.7078203355958976
 21
159.4824194209197117
 31
0.0
  0
ARC
  5
1E2FF
  8
0
 10
3309.6684504155891773
 20
159.4824194836062929
 30
0.0
 40
0.0393699200073245
 50
359.9999087710123717
 51
90.0002309484810468
  0
LINE
  5
1E300
  8
0
 10
3309.6684502568959942
 20
159.5217894036132975
 30
0.0
 11
3308.5739620628442026
 21
159.5217894036132975
 31
0.0
  0
ARC
  5
1E301
  8
0
 10
3308.573961646978205
 20
159.4824197459305992
 30
0.0
 40
0.0393696576849196
 50
89.9993947776629994
 51
180.0006888975819095
  0
LINE
  5
1E302
  8
0
 10
3308.5345919892961319
 20
159.4824192725683076
 30
0.0
 11
3308.5345925958190492
 21
159.4036791204875101
 31
0.0
  0
LINE
  5
1E303
  8
0
 10
3308.6849566372120535
 20
159.5217894036132975
 30
0.0
 11
3308.6684502105958927
 21
159.8367500287604059
 31
0.0
  0
LINE
  5
1E304
  8
0
 10
3308.6684502105958927
 20
159.8367500287604059
 30
0.0
 11
3309.5739620186959655
 21
159.8367500287604059
 31
0.0
  0
LINE
  5
1E305
  8
0
 10
3309.5739620186959655
 20
159.8367500287604059
 30
0.0
 11
3309.5574556713431775
 21
159.5217894036132975
 31
0.0
  0
LINE
  5
1E306
  8
0
 10
3309.5739620160961749
 20
159.8761201074603946
 30
0.0
 11
3308.6684502057969439
 21
159.8761201074603946
 31
0.0
  0
LINE
  5
1E307
  8
0
 10
3308.6684502057969439
 20
159.8761201074603946
 30
0.0
 11
3308.6684501803961211
 21
160.0675311705196862
 31
0.0
  0
LINE
  5
1E308
  8
0
 10
3308.708706110895946
 20
159.8761201074603946
 30
0.0
 11
3308.708706110895946
 21
159.8367500287604059
 31
0.0
  0
LINE
  5
1E309
  8
0
 10
3309.5337061160958001
 20
159.8367500287604059
 30
0.0
 11
3309.5337061160958001
 21
159.8761202198197111
 31
0.0
  0
LINE
  5
1E30A
  8
0
 10
3309.5739620180738711
 20
159.8761201074603946
 30
0.0
 11
3309.5739620378831205
 21
160.230450904619687
 31
0.0
  0
ARC
  5
1E30B
  8
0
 10
3309.1212065086619987
 20
160.2304509299308108
 30
0.0
 40
0.4527555292205115
 50
359.9999967969027921
 51
44.4280387152989533
  0
ARC
  5
1E30C
  8
0
 10
3309.1212048591391977
 20
160.2304493130164929
 30
0.0
 40
0.4527578390555624
 50
44.4280387152989533
 51
59.1915880010081707
  0
LINE
  5
1E30D
  8
0
 10
3309.1544433663439122
 20
160.8916128611028
 30
0.0
 11
3309.3304810655599795
 21
160.6643118702112929
 31
0.0
  0
ARC
  5
1E30E
  8
0
 10
3309.1164448281110708
 20
160.6676032834074874
 30
0.0
 40
0.2140615435115386
 50
343.6757196790356943
 51
359.1189792415161719
  0
ARC
  5
1E30F
  8
0
 10
3308.9784736732908641
 20
160.7080123482550107
 30
0.0
 40
0.3578284801983311
 50
335.0691527508428749
 51
343.6757196790356943
  0
ARC
  5
1E310
  8
0
 10
3308.6313123329869086
 20
160.8934151711422942
 30
0.0
 40
0.7511082363798615
 50
311.2046066654801848
 51
333.4067727348000858
  0
ARC
  5
1E311
  8
0
 10
3308.5235886897889941
 20
160.9565161605690946
 30
0.0
 40
0.8704417310711901
 50
299.6676883432418208
 51
313.804182202855884
  0
ARC
  5
1E312
  8
0
 10
3308.5600438069818665
 20
160.8774747275583081
 30
0.0
 40
0.783753012697424
 50
286.4504111610556834
 51
300.2120897392924235
  0
ARC
  5
1E313
  8
0
 10
3308.6533917643719178
 20
160.5021764210993922
 30
0.0
 40
0.3977356440224821
 50
272.8088404091652137
 51
288.8643652900076972
  0
ARC
  5
1E314
  8
0
 10
3308.6632698658918343
 20
160.3397121139691137
 30
0.0
 40
0.2349901787155795
 50
258.0655316591813744
 51
272.3443903273188766
  0
LINE
  5
1E315
  8
0
 10
3308.4329605418961364
 20
160.3405081438197044
 30
0.0
 11
3308.6179199949251597
 21
160.1022644522942926
 31
0.0
  0
ARC
  5
1E316
  8
0
 10
3308.6978728930089346
 20
160.1643355367500874
 30
0.0
 40
0.1012189974146393
 50
217.8238215769908095
 51
253.1011074703621944
  0
ARC
  5
1E317
  8
0
 10
3308.7332684438911201
 20
160.2808441089968881
 30
0.0
 40
0.2229855463073539
 50
253.1011074703621944
 51
275.041391248547427
  0
ARC
  5
1E318
  8
0
 10
3308.7124322032859709
 20
160.5170380695304004
 30
0.0
 40
0.4600967774100648
 50
275.041391248547427
 51
292.7301644192091885
  0
ARC
  5
1E319
  8
0
 10
3308.5139042382470507
 20
160.9909335004159914
 30
0.0
 40
0.9738965753046255
 50
292.7301644192091885
 51
307.3878411368831962
  0
ARC
  5
1E31A
  8
0
 10
3308.5524934104128079
 20
160.9404387539277934
 30
0.0
 40
0.9103446781550836
 50
307.3878411368831962
 51
319.2862847577367802
  0
ARC
  5
1E31B
  8
0
 10
3308.7428734585460006
 20
160.7766067742140024
 30
0.0
 40
0.6591764470750108
 50
319.2862847577379739
 51
331.4190579642126977
  0
ARC
  5
1E31C
  8
0
 10
3309.0402999887060105
 20
160.6145728822544925
 30
0.0
 40
0.3204766936252781
 50
331.4190579642126977
 51
348.0754774741818096
  0
ARC
  5
1E31D
  8
0
 10
3309.1902664332938002
 20
160.5829029537171095
 30
0.0
 40
0.1672026942778793
 50
348.0754774741818096
 51
9.2188646452250218
  0
ARC
  5
1E31E
  8
0
 10
3309.2810689365128383
 20
160.5976404327523142
 30
0.0
 40
0.0752119997533246
 50
9.2188646452218084
 51
16.7519236621650016
  0
ARC
  5
1E31F
  8
0
 10
3309.2389763409978514
 20
160.5849704581688115
 30
0.0
 40
0.1191701031373647
 50
16.7519236621650016
 51
33.4758441416859966
  0
ARC
  5
1E320
  8
0
 10
3309.2535060518089267
 20
160.5945786570744929
 30
0.0
 40
0.1017508614071102
 50
33.4758441416887109
 51
40.9035261612309498
  0
ARC
  5
1E321
  8
0
 10
3308.4373786856172046
 20
160.4864617366343111
 30
0.0
 40
0.1442074531615331
 50
218.5099142674233974
 51
254.0337972343461956
  0
ARC
  5
1E322
  8
0
 10
3308.4644946768248701
 20
160.581237397061102
 30
0.0
 40
0.2427858625041011
 50
254.0337972343461956
 51
262.5370784654722911
  0
ARC
  5
1E323
  8
0
 10
3308.4664062321471647
 20
160.5958300689786995
 30
0.0
 40
0.257503203209663
 50
262.5370784654722911
 51
272.112758849374984
  0
ARC
  5
1E324
  8
0
 10
3308.4592224209459346
 20
160.7905591025910041
 30
0.0
 40
0.4523647019079919
 50
272.112758849374984
 51
290.48304068626652
  0
ARC
  5
1E325
  8
0
 10
3308.2627590635138404
 20
161.3164987477709076
 30
0.0
 40
1.013800683285718
 50
290.48304068626652
 51
306.0689400716864839
  0
ARC
  5
1E326
  8
0
 10
3308.2768976405900503
 20
161.2970878244456969
 30
0.0
 40
0.9897864519623706
 50
306.0689400716855175
 51
321.142559957494484
  0
ARC
  5
1E327
  8
0
 10
3308.5504291684651434
 20
161.0767109755684885
 30
0.0
 40
0.638523797723571
 50
321.142559957494484
 51
335.462077486223393
  0
ARC
  5
1E328
  8
0
 10
3308.8722631645910042
 20
160.9297854428722019
 30
0.0
 40
0.2847382225221426
 50
335.462077486223393
 51
352.298291976352175
  0
ARC
  5
1E329
  8
0
 10
3308.9409117719828828
 20
160.9205017031187026
 30
0.0
 40
0.2154647130051578
 50
352.298291976352175
 51
10.0432342619501895
  0
ARC
  5
1E32A
  8
0
 10
3309.0307487444788421
 20
160.9364122913997051
 30
0.0
 40
0.1242296953498421
 50
10.0432342619501895
 51
35.6895714636733601
  0
ARC
  5
1E32B
  8
0
 10
3226.9742996399140793
 20
98.2676754151975302
 30
0.0
 40
103.3745100944647959
 50
37.3679353354591086
 51
37.6975708009688475
  0
ARC
  5
1E32C
  8
0
 10
3309.2069309208300183
 20
162.0100344548123132
 30
0.0
 40
0.6869418488872113
 50
215.0500272298573066
 51
230.4289147732011998
  0
LINE
  5
1E32D
  8
0
 10
3308.6445653444961863
 20
161.6155296230197109
 30
0.0
 11
3306.3511899509958312
 21
164.6082291534196997
 31
0.0
  0
LINE
  5
1E32E
  8
0
 10
3305.8044376861971614
 20
163.7032465854196914
 30
0.0
 11
3305.9566421885961063
 21
163.4840473666197056
 31
0.0
  0
ARC
  5
1E32F
  8
0
 10
3306.4473138160360577
 20
163.8247531013622904
 30
0.0
 40
0.59736006199023
 50
214.7748021334055863
 51
220.1986460541862982
  0
LINE
  5
1E330
  8
0
 10
3305.9910434618032014
 20
163.4391932389428916
 30
0.0
 11
3308.3245362918960382
 21
160.3966709591198878
 31
0.0
  0
LINE
  5
1E331
  8
0
 10
3314.0785713288960324
 20
164.6477737982696965
 30
0.0
 11
3314.0785713288960324
 21
164.765423676019708
 31
0.0
  0
ARC
  5
1E332
  8
0
 10
3314.125815423396034
 20
164.765423676019708
 30
0.0
 40
0.0472440945000159
 50
132.9999999861867934
 51
180.0000000000032117
  0
ARC
  5
1E333
  8
0
 10
3314.0392012497909491
 20
164.8784490962522113
 30
0.0
 40
0.0944881893048667
 50
313.000000146964112
 51
359.9999999196182898
  0
ARC
  5
1E334
  8
0
 10
3314.038028873184885
 20
164.8784490962538882
 30
0.0
 40
0.0956605659110181
 50
359.9999999196199951
 51
46.6939135243265966
  0
ARC
  5
1E335
  8
0
 10
3313.2217450614161862
 20
164.0124140957300938
 30
0.0
 40
1.2857596724937841
 50
46.6939135243265966
 51
47.3060867601404027
  0
ARC
  5
1E336
  8
0
 10
3310.9781375525371914
 20
133.6691761798929008
 30
0.0
 40
30.293037076000239
 50
88.7113117399224222
 51
90.2580508998891844
  0
ARC
  5
1E337
  8
0
 10
3310.8690463453672237
 20
157.8908452106871039
 30
0.0
 40
6.0711223802372789
 50
90.2580508998891844
 51
93.2567417560056668
  0
ARC
  5
1E338
  8
0
 10
3310.6655554656431377
 20
161.4669990081239916
 30
0.0
 40
2.4891837262325689
 50
93.2567417560056668
 51
98.1133487693118695
  0
ARC
  5
1E339
  8
0
 10
3311.0294930031491276
 20
128.3554765824906951
 30
0.0
 40
35.604647595902378
 50
87.4572535256973964
 51
88.9862440734939071
  0
ARC
  5
1E33A
  8
0
 10
3312.4431082313271872
 20
160.1875947213322888
 30
0.0
 40
3.741156682028802
 50
81.4478443898073436
 51
87.4572535256973964
  0
ARC
  5
1E33B
  8
0
 10
3312.8774700706590011
 20
163.0759894070899918
 30
0.0
 40
0.8202845403249855
 50
58.5356743760151019
 51
81.4478443898073436
  0
ARC
  5
1E33C
  8
0
 10
3313.0750254957670222
 20
163.3988215790409981
 30
0.0
 40
0.4418023647391085
 50
17.8759733591491106
 51
58.5356743760151019
  0
ARC
  5
1E33D
  8
0
 10
3311.9745542632149409
 20
163.0438886055121941
 30
0.0
 40
1.598095731222247
 50
4.6726811196666942
 51
17.8759733591491106
  0
ARC
  5
1E33E
  8
0
 10
3305.1439673836589463
 20
162.8033362882138135
 30
0.0
 40
8.4315258100973836
 50
358.0405630345380246
 51
2.520137006153897
  0
LINE
  5
1E33F
  8
0
 10
3313.570563145396136
 20
162.5150458884197064
 30
0.0
 11
3313.5710550988092109
 21
162.2219980135118931
 31
0.0
  0
ARC
  5
1E340
  8
0
 10
3314.1258154227061823
 20
164.9919824135851059
 30
0.0
 40
0.0472440938093167
 50
179.9999997155678102
 51
227.0000114823390049
  0
LINE
  5
1E341
  8
0
 10
3314.0785713288960324
 20
164.9919824138196986
 30
0.0
 11
3314.0785713289837986
 21
165.009584475307804
 31
0.0
  0
ARC
  5
1E342
  8
0
 10
3314.0982563686120557
 20
165.0095844752100902
 30
0.0
 40
0.0196850396290671
 50
92.718900675086914
 51
179.999999715543396
  0
ARC
  5
1E343
  8
0
 10
3314.3895949500861207
 20
158.8747742942098
 30
0.0
 40
6.1614090749435961
 50
87.2810993249130433
 51
92.718900675086914
  0
LINE
  5
1E344
  8
0
 10
3314.700618572896019
 20
164.6477737982696965
 30
0.0
 11
3314.700618572896019
 21
164.765423676019708
 31
0.0
  0
ARC
  5
1E345
  8
0
 10
3314.6533744783960174
 20
164.765423676019708
 30
0.0
 40
0.0472440945000159
 50
359.9999999999968168
 51
47.0000000138131995
  0
ARC
  5
1E346
  8
0
 10
3314.7399886520011023
 20
164.8784490962522113
 30
0.0
 40
0.0944881893048667
 50
180.0000000803815965
 51
226.9999998530360017
  0
ARC
  5
1E347
  8
0
 10
3314.7411610286071664
 20
164.8784490962538882
 30
0.0
 40
0.0956605659110181
 50
133.3060864756733963
 51
180.0000000803800049
  0
ARC
  5
1E348
  8
0
 10
3315.5574448403758652
 20
164.0124140957300938
 30
0.0
 40
1.2857596724937841
 50
132.6939132398595973
 51
133.3060864756733963
  0
ARC
  5
1E349
  8
0
 10
3314.6533744790867786
 20
164.9919824135851059
 30
0.0
 40
0.0472440938093167
 50
312.9999885176608814
 51
0.0000002844321707
  0
LINE
  5
1E34A
  8
0
 10
3314.700618572896019
 20
164.9919824138196986
 30
0.0
 11
3314.7006185728091623
 21
165.009584475307804
 31
0.0
  0
ARC
  5
1E34B
  8
0
 10
3314.6809335331799957
 20
165.0095844752100902
 30
0.0
 40
0.0196850396290671
 50
0.0000002844565974
 51
87.2810993249130433
  0
LINE
  5
1E34C
  8
0
 10
3314.6855948734610138
 20
164.7999758193591049
 30
0.0
 11
3314.6755478618952111
 21
164.8093448092024005
 31
0.0
  0
LINE
  5
1E34D
  8
0
 10
3314.0973225898410419
 20
165.0292473550196917
 30
0.0
 11
3314.6818673119501
 21
165.0292473550196917
 31
0.0
  0
LINE
  5
1E34E
  8
0
 10
3314.0935950283960665
 20
164.9574302705196942
 30
0.0
 11
3314.6855948735660604
 21
164.9574302705196942
 31
0.0
  0
LINE
  5
1E34F
  8
0
 10
3314.1036420400960196
 20
164.8093448093196969
 30
0.0
 11
3314.6755478617960762
 21
164.8093448093196969
 31
0.0
  0
ARC
  5
1E350
  8
0
 10
3302.7377796764340019
 20
161.3196903862202873
 30
0.0
 40
4.8805170247518967
 50
82.7683476453384515
 51
88.793149070057936
  0
ARC
  5
1E351
  8
0
 10
3302.3433184888999676
 20
157.9905093742451925
 30
0.0
 40
8.2329175182944123
 50
79.359339669914192
 51
82.9615274668637426
  0
ARC
  5
1E352
  8
0
 10
3302.0026346846520937
 20
155.840946301962191
 30
0.0
 40
10.4086099648285497
 50
72.0029848381828401
 51
79.7011187089911175
  0
ARC
  5
1E353
  8
0
 10
3303.566264915335978
 20
160.5632850441870971
 30
0.0
 40
5.4342846056673331
 50
62.2145209942064099
 51
72.2990122497034235
  0
ARC
  5
1E354
  8
0
 10
3305.5513168759780456
 20
164.3210575205602026
 30
0.0
 40
1.18443816538697
 50
45.2974081240131596
 51
62.4293688392207002
  0
ARC
  5
1E355
  8
0
 10
3306.2399625479620227
 20
165.0102276543858864
 30
0.0
 40
0.2102387019947372
 50
18.9658054048068507
 51
46.5746551467209287
  0
ARC
  5
1E356
  8
0
 10
3306.2897841918461381
 20
165.0273493696703042
 30
0.0
 40
0.1575571176081768
 50
350.746421211231393
 51
18.9658054048068507
  0
LINE
  5
1E357
  8
0
 10
3306.445290912235123
 20
165.0020135211015031
 30
0.0
 11
3306.2567835459958587
 21
164.2131816455197111
 31
0.0
  0
ARC
  5
1E358
  8
0
 10
3306.1272017284018148
 20
164.2470196874974135
 30
0.0
 40
0.133927071706684
 50
307.1309277458590827
 51
345.365014312706478
  0
ARC
  5
1E359
  8
0
 10
3306.0339676883831999
 20
164.3701589709089035
 30
0.0
 40
0.2883805253338107
 50
292.6322194278229176
 51
307.1309277458590827
  0
ARC
  5
1E35A
  8
0
 10
3305.9207470070950876
 20
164.6417236570302123
 30
0.0
 40
0.582602042934854
 50
278.5376857784756908
 51
292.6322194278229176
  0
ARC
  5
1E35B
  8
0
 10
3305.845909573894005
 20
165.3143743278135105
 30
0.0
 40
1.259174487121792
 50
267.5433855726428192
 51
277.3611988491858824
  0
ARC
  5
1E35C
  8
0
 10
3302.7887677750159128
 20
164.33966727200729
 30
0.0
 40
1.8601790205048281
 50
88.404131045777433
 51
99.6189788074069469
  0
ARC
  5
1E35D
  8
0
 10
3302.5567613595558214
 20
165.7086137389084968
 30
0.0
 40
0.4717117338695899
 50
99.6189788074069469
 51
118.8605702462207034
  0
ARC
  5
1E35E
  8
0
 10
3302.4044903591570801
 20
165.9849013996959002
 30
0.0
 40
0.1562417209272501
 50
118.8605702462207034
 51
158.9232437940877105
  0
LINE
  5
1E35F
  8
0
 10
3302.2587012871958905
 20
166.0410887813318084
 30
0.0
 11
3302.0543516300458577
 21
165.2571249779697098
 31
0.0
  0
ARC
  5
1E360
  8
0
 10
3302.204955210425851
 20
165.2283160186420901
 30
0.0
 40
0.1533342576233802
 50
169.1707133450445895
 51
202.3068316139627996
  0
ARC
  5
1E361
  8
0
 10
3302.2705623122828911
 20
165.2552325909423985
 30
0.0
 40
0.2242482455132314
 50
202.3068316139627996
 51
225.3082984575409
  0
ARC
  5
1E362
  8
0
 10
3302.9679259483978058
 20
165.9601416814473112
 30
0.0
 40
1.2158191541483561
 50
225.3082984575409
 51
241.6746823608897898
  0
ARC
  5
1E363
  8
0
 10
3305.5263118324178322
 20
170.7065542454500928
 30
0.0
 40
6.6078290353780131
 50
241.6746823608897898
 51
243.1449381819948883
  0
LINE
  5
1E364
  8
0
 10
3303.1973128230761176
 20
165.2171097530035979
 30
0.0
 11
3303.1847976558260598
 21
165.1598329850035896
 31
0.0
  0
ARC
  5
1E365
  8
0
 10
3303.1693502316388731
 20
165.1632082993594963
 30
0.0
 40
0.0158118835383084
 50
287.6296872743620838
 51
347.6743985687691065
  0
ARC
  5
1E366
  8
0
 10
3303.1584237283482253
 20
165.1975911799779055
 30
0.0
 40
0.0518891749245567
 50
262.1026392989128908
 51
287.6296872743620838
  0
ARC
  5
1E367
  8
0
 10
3303.1855770171450786
 20
165.3933406201464038
 30
0.0
 40
0.2495129194967908
 50
239.6288075569329976
 51
262.1026392989128908
  0
ARC
  5
1E368
  8
0
 10
3303.0839381703858635
 20
165.2199016637653983
 30
0.0
 40
0.048486735229917
 50
213.073804296617908
 51
239.6288075569329976
  0
ARC
  5
1E369
  8
0
 10
3303.0602717370170467
 20
165.2026467841739077
 30
0.0
 40
0.0193005433660408
 50
167.8533739121054111
 51
208.485897197676195
  0
LINE
  5
1E36A
  8
0
 10
3303.0414032878479702
 20
165.2067078924235943
 30
0.0
 11
3303.0525493409768387
 21
165.2654469704359883
 31
0.0
  0
ARC
  5
1E36B
  8
0
 10
3303.039853510795183
 20
164.9864824484629935
 30
0.0
 40
0.279253269674077
 50
55.6769433350377412
 51
87.3942353197230801
  0
ARC
  5
1E36C
  8
0
 10
3303.1752754971889772
 20
165.184832150649612
 30
0.0
 40
0.0390830826061652
 50
19.1271390679205204
 51
55.6769433350153093
  0
ARC
  5
1E36D
  8
0
 10
3303.1872559672201533
 20
165.2424101990648921
 30
0.0
 40
0.0512520615956685
 50
274.9565803438051148
 51
299.124691933447707
  0
ARC
  5
1E36E
  8
0
 10
3303.0523036968820634
 20
165.196712766071812
 30
0.0
 40
0.0687346433075193
 50
89.7952357188066372
 51
113.5802434838869033
  0
ARC
  5
1E36F
  8
0
 10
3303.0606979051340204
 20
165.2702922690959895
 30
0.0
 40
0.0374184514658972
 50
196.4309243778506868
 51
248.3138534462939049
  0
ARC
  5
1E370
  8
0
 10
3303.088068579254923
 20
165.1149996738537027
 30
0.0
 40
0.0668803858366316
 50
45.3097496672416469
 51
94.5286584834292256
  0
ARC
  5
1E371
  8
0
 10
3303.1310506208769766
 20
165.2325757605408967
 30
0.0
 40
0.0701467363045442
 50
226.5259454979010911
 51
273.3124760164303098
  0
LINE
  5
1E372
  8
0
 10
3303.6698794503599856
 20
165.126673018460906
 30
0.0
 11
3303.6573642831099278
 21
165.0693962504608976
 31
0.0
  0
ARC
  5
1E373
  8
0
 10
3303.6419168589231958
 20
165.0727715648168044
 30
0.0
 40
0.0158118835383084
 50
287.6296872743620838
 51
347.6743985687691065
  0
ARC
  5
1E374
  8
0
 10
3303.6309903556330028
 20
165.1071544454350999
 30
0.0
 40
0.0518891749245567
 50
262.1026392989128908
 51
287.6296872743620838
  0
ARC
  5
1E375
  8
0
 10
3303.6581436444289466
 20
165.3029038856037118
 30
0.0
 40
0.2495129194967908
 50
239.6288075569329976
 51
262.1026392989128908
  0
ARC
  5
1E376
  8
0
 10
3303.5565047976710957
 20
165.1294649292227064
 30
0.0
 40
0.048486735229917
 50
213.073804296617908
 51
239.6288075569329976
  0
ARC
  5
1E377
  8
0
 10
3303.5328383643009147
 20
165.1122100496311873
 30
0.0
 40
0.0193005433660408
 50
167.8533739121054111
 51
208.485897197676195
  0
LINE
  5
1E378
  8
0
 10
3303.5139699151332024
 20
165.1162711578809024
 30
0.0
 11
3303.5251159682611615
 21
165.17501023589341
 31
0.0
  0
ARC
  5
1E379
  8
0
 10
3303.5124201380799605
 20
164.8960457139203015
 30
0.0
 40
0.279253269674077
 50
55.6769433350377412
 51
87.3942353197230801
  0
ARC
  5
1E37A
  8
0
 10
3303.6478421244728452
 20
165.0943954161068916
 30
0.0
 40
0.0390830826061652
 50
19.1271390679205204
 51
55.6769433350153093
  0
ARC
  5
1E37B
  8
0
 10
3303.6598225945040213
 20
165.1519734645222002
 30
0.0
 40
0.0512520615956685
 50
274.9565803438051148
 51
299.124691933447707
  0
ARC
  5
1E37C
  8
0
 10
3303.5248703241659314
 20
165.1062760315290916
 30
0.0
 40
0.0687346433075193
 50
89.7952357188066372
 51
113.5802434838869033
  0
ARC
  5
1E37D
  8
0
 10
3303.5332645324178884
 20
165.1798555345532975
 30
0.0
 40
0.0374184514658972
 50
196.4309243778506868
 51
248.3138534462939049
  0
ARC
  5
1E37E
  8
0
 10
3303.560635206538791
 20
165.0245629393110107
 30
0.0
 40
0.0668803858366316
 50
45.3097496672416469
 51
94.5286584834292256
  0
ARC
  5
1E37F
  8
0
 10
3303.6036172481622089
 20
165.1421390259982047
 30
0.0
 40
0.0701467363045442
 50
226.5259454979010911
 51
273.3124760164303098
  0
LINE
  5
1E380
  8
0
 10
3304.148358996152183
 20
165.0574351405848006
 30
0.0
 11
3304.1358438289021251
 21
165.0001583725847922
 31
0.0
  0
ARC
  5
1E381
  8
0
 10
3304.1203964047140289
 20
165.0035336869406137
 30
0.0
 40
0.0158118835383084
 50
287.6296872743620838
 51
347.6743985687691065
  0
ARC
  5
1E382
  8
0
 10
3304.1094699014252001
 20
165.0379165675589945
 30
0.0
 40
0.0518891749245567
 50
262.1026392989128908
 51
287.6296872743620838
  0
ARC
  5
1E383
  8
0
 10
3304.1366231902211439
 20
165.2336660077276065
 30
0.0
 40
0.2495129194967908
 50
239.6288075569329976
 51
262.1026392989128908
  0
ARC
  5
1E384
  8
0
 10
3304.0349843434628383
 20
165.060227051346601
 30
0.0
 40
0.048486735229917
 50
213.073804296617908
 51
239.6288075569329976
  0
ARC
  5
1E385
  8
0
 10
3304.011317910093112
 20
165.0429721717551104
 30
0.0
 40
0.0193005433660408
 50
167.8533739121054111
 51
208.485897197676195
  0
LINE
  5
1E386
  8
0
 10
3303.9924494609240355
 20
165.0470332800047117
 30
0.0
 11
3304.003595514052904
 21
165.105772358017191
 31
0.0
  0
ARC
  5
1E387
  8
0
 10
3303.9908996838707935
 20
164.8268078360441109
 30
0.0
 40
0.279253269674077
 50
55.6769433350377412
 51
87.3942353197230801
  0
ARC
  5
1E388
  8
0
 10
3304.1263216702650425
 20
165.0251575382307863
 30
0.0
 40
0.0390830826061652
 50
19.1271390679205204
 51
55.6769433350153093
  0
ARC
  5
1E389
  8
0
 10
3304.1383021402962186
 20
165.0827355866460948
 30
0.0
 40
0.0512520615956685
 50
274.9565803438051148
 51
299.124691933447707
  0
ARC
  5
1E38A
  8
0
 10
3304.0033498699590382
 20
165.037038153652901
 30
0.0
 40
0.0687346433075193
 50
89.7952357188066372
 51
113.5802434838869033
  0
ARC
  5
1E38B
  8
0
 10
3304.0117440782100857
 20
165.1106176566771921
 30
0.0
 40
0.0374184514658972
 50
196.4309243778506868
 51
248.3138534462939049
  0
ARC
  5
1E38C
  8
0
 10
3304.0391147523309883
 20
164.9553250614347917
 30
0.0
 40
0.0668803858366316
 50
45.3097496672416469
 51
94.5286584834292256
  0
ARC
  5
1E38D
  8
0
 10
3304.0820967939539514
 20
165.0729011481220994
 30
0.0
 40
0.0701467363045442
 50
226.5259454979010911
 51
273.3124760164303098
  0
LINE
  5
1E38E
  8
0
 10
3304.9923032029278147
 20
164.8215110144024038
 30
0.0
 11
3304.9797880356782116
 21
164.7642342464023955
 31
0.0
  0
ARC
  5
1E38F
  8
0
 10
3304.9643406114910249
 20
164.7676095607583022
 30
0.0
 40
0.0158118835383084
 50
287.6296872743620838
 51
347.6743985687691065
  0
ARC
  5
1E390
  8
0
 10
3304.9534141081999223
 20
164.8019924413765978
 30
0.0
 40
0.0518891749245567
 50
262.1026392989128908
 51
287.6296872743620838
  0
ARC
  5
1E391
  8
0
 10
3304.9805673969958661
 20
164.9977418815452097
 30
0.0
 40
0.2495129194967908
 50
239.6288075569329976
 51
262.1026392989128908
  0
ARC
  5
1E392
  8
0
 10
3304.8789285502380153
 20
164.8243029251642042
 30
0.0
 40
0.048486735229917
 50
213.073804296617908
 51
239.6288075569329976
  0
ARC
  5
1E393
  8
0
 10
3304.8552621168678343
 20
164.8070480455727136
 30
0.0
 40
0.0193005433660408
 50
167.8533739121054111
 51
208.485897197676195
  0
LINE
  5
1E394
  8
0
 10
3304.836393667700122
 20
164.8111091538224002
 30
0.0
 11
3304.8475397208289905
 21
164.8698482318347942
 31
0.0
  0
ARC
  5
1E395
  8
0
 10
3304.8348438906477895
 20
164.5908837098617141
 30
0.0
 40
0.279253269674077
 50
55.6769433350377412
 51
87.3942353197230801
  0
ARC
  5
1E396
  8
0
 10
3304.9702658770402195
 20
164.7892334120483895
 30
0.0
 40
0.0390830826061652
 50
19.1271390679205204
 51
55.6769433350153093
  0
ARC
  5
1E397
  8
0
 10
3304.9822463470709408
 20
164.846811460463698
 30
0.0
 40
0.0512520615956685
 50
274.9565803438051148
 51
299.124691933447707
  0
ARC
  5
1E398
  8
0
 10
3304.8472940767342152
 20
164.8011140274705042
 30
0.0
 40
0.0687346433075193
 50
89.7952357188066372
 51
113.5802434838869033
  0
ARC
  5
1E399
  8
0
 10
3304.855688284984808
 20
164.8746935304947954
 30
0.0
 40
0.0374184514658972
 50
196.4309243778506868
 51
248.3138534462939049
  0
ARC
  5
1E39A
  8
0
 10
3304.8830589591070748
 20
164.7194009352523949
 30
0.0
 40
0.0668803858366316
 50
45.3097496672416469
 51
94.5286584834292256
  0
ARC
  5
1E39B
  8
0
 10
3304.9260410007291284
 20
164.8369770219397026
 30
0.0
 40
0.0701467363045442
 50
226.5259454979010911
 51
273.3124760164303098
  0
LINE
  5
1E39C
  8
0
 10
3302.6220120203629449
 20
165.2173920894194907
 30
0.0
 11
3302.609496853112887
 21
165.1601153214195108
 31
0.0
  0
ARC
  5
1E39D
  8
0
 10
3302.5940494289247908
 20
165.1634906357753891
 30
0.0
 40
0.0158118835383084
 50
287.6296872743620838
 51
347.6743985687691065
  0
ARC
  5
1E39E
  8
0
 10
3302.5831229256350525
 20
165.1978735163937131
 30
0.0
 40
0.0518891749245567
 50
262.1026392989128908
 51
287.6296872743620838
  0
ARC
  5
1E39F
  8
0
 10
3302.6102762144309963
 20
165.3936229565622966
 30
0.0
 40
0.2495129194967908
 50
239.6288075569329976
 51
262.1026392989128908
  0
ARC
  5
1E3A0
  8
0
 10
3302.5086373676717812
 20
165.2201840001812911
 30
0.0
 40
0.048486735229917
 50
213.073804296617908
 51
239.6288075569329976
  0
ARC
  5
1E3A1
  8
0
 10
3302.4849709343029645
 20
165.2029291205898005
 30
0.0
 40
0.0193005433660408
 50
167.8533739121054111
 51
208.485897197676195
  0
LINE
  5
1E3A2
  8
0
 10
3302.4661024851347975
 20
165.2069902288394019
 30
0.0
 11
3302.4772485382632112
 21
165.2657293068519095
 31
0.0
  0
ARC
  5
1E3A3
  8
0
 10
3302.4645527080820102
 20
164.986764784878801
 30
0.0
 40
0.279253269674077
 50
55.6769433350377412
 51
87.3942353197230801
  0
ARC
  5
1E3A4
  8
0
 10
3302.5999746944748949
 20
165.1851144870655048
 30
0.0
 40
0.0390830826061652
 50
19.1271390679205204
 51
55.6769433350153093
  0
ARC
  5
1E3A5
  8
0
 10
3302.611955164506071
 20
165.2426925354808134
 30
0.0
 40
0.0512520615956685
 50
274.9565803438051148
 51
299.124691933447707
  0
ARC
  5
1E3A6
  8
0
 10
3302.4770028941688906
 20
165.1969951024875911
 30
0.0
 40
0.0687346433075193
 50
89.7952357188066372
 51
113.5802434838869033
  0
ARC
  5
1E3A7
  8
0
 10
3302.4853971024190287
 20
165.2705746055119107
 30
0.0
 40
0.0374184514658972
 50
196.4309243778506868
 51
248.3138534462939049
  0
ARC
  5
1E3A8
  8
0
 10
3302.5127677765408407
 20
165.1152820102695102
 30
0.0
 40
0.0668803858366316
 50
45.3097496672416469
 51
94.5286584834292256
  0
ARC
  5
1E3A9
  8
0
 10
3302.5557498181628944
 20
165.2328580969567895
 30
0.0
 40
0.0701467363045442
 50
226.5259454979010911
 51
273.3124760164303098
  0
LINE
  5
1E3AA
  8
0
 10
3302.518737429471912
 20
165.1272538068994891
 30
0.0
 11
3302.5062222622218542
 21
165.0699770388995091
 31
0.0
  0
ARC
  5
1E3AB
  8
0
 10
3302.4907748380342127
 20
165.0733523532553875
 30
0.0
 40
0.0158118835383084
 50
287.6296872743620838
 51
347.6743985687691065
  0
ARC
  5
1E3AC
  8
0
 10
3302.4798483347440197
 20
165.1077352338737967
 30
0.0
 40
0.0518891749245567
 50
262.1026392989128908
 51
287.6296872743620838
  0
ARC
  5
1E3AD
  8
0
 10
3302.507001623540873
 20
165.303484674042295
 30
0.0
 40
0.2495129194967908
 50
239.6288075569329976
 51
262.1026392989128908
  0
ARC
  5
1E3AE
  8
0
 10
3302.4053627767821126
 20
165.1300457176612895
 30
0.0
 40
0.048486735229917
 50
213.073804296617908
 51
239.6288075569329976
  0
ARC
  5
1E3AF
  8
0
 10
3302.3816963434119316
 20
165.1127908380697988
 30
0.0
 40
0.0193005433660408
 50
167.8533739121054111
 51
208.485897197676195
  0
LINE
  5
1E3B0
  8
0
 10
3302.3628278942442194
 20
165.1168519463195139
 30
0.0
 11
3302.3739739473730879
 21
165.1755910243319079
 31
0.0
  0
ARC
  5
1E3B1
  8
0
 10
3302.3612781171909774
 20
164.8966265023589131
 30
0.0
 40
0.279253269674077
 50
55.6769433350377412
 51
87.3942353197230801
  0
ARC
  5
1E3B2
  8
0
 10
3302.4967001035838621
 20
165.0949762045455032
 30
0.0
 40
0.0390830826061652
 50
19.1271390679205204
 51
55.6769433350153093
  0
ARC
  5
1E3B3
  8
0
 10
3302.5086805736150382
 20
165.1525542529608117
 30
0.0
 40
0.0512520615956685
 50
274.9565803438051148
 51
299.124691933447707
  0
ARC
  5
1E3B4
  8
0
 10
3302.3737283032778578
 20
165.1068568199677031
 30
0.0
 40
0.0687346433075193
 50
89.7952357188066372
 51
113.5802434838869033
  0
ARC
  5
1E3B5
  8
0
 10
3302.3821225115289053
 20
165.180436322991909
 30
0.0
 40
0.0374184514658972
 50
196.4309243778506868
 51
248.3138534462939049
  0
ARC
  5
1E3B6
  8
0
 10
3302.4094931856511721
 20
165.0251437277495086
 30
0.0
 40
0.0668803858366316
 50
45.3097496672416469
 51
94.5286584834292256
  0
ARC
  5
1E3B7
  8
0
 10
3302.4524752272732258
 20
165.1427198144367878
 30
0.0
 40
0.0701467363045442
 50
226.5259454979010911
 51
273.3124760164303098
  0
LINE
  5
1E3B8
  8
0
 10
3302.4316023617711835
 20
165.0622989104055875
 30
0.0
 11
3302.4190871945211256
 21
165.0050221424056076
 31
0.0
  0
ARC
  5
1E3B9
  8
0
 10
3302.4036397703339389
 20
165.008397456761486
 30
0.0
 40
0.0158118835383084
 50
287.6296872743620838
 51
347.6743985687691065
  0
ARC
  5
1E3BA
  8
0
 10
3302.3927132670442006
 20
165.0427803373798952
 30
0.0
 40
0.0518891749245567
 50
262.1026392989128908
 51
287.6296872743620838
  0
ARC
  5
1E3BB
  8
0
 10
3302.4198665558387802
 20
165.2385297775483934
 30
0.0
 40
0.2495129194967908
 50
239.6288075569329976
 51
262.1026392989128908
  0
ARC
  5
1E3BC
  8
0
 10
3302.3182277090809293
 20
165.065090821167388
 30
0.0
 40
0.048486735229917
 50
213.073804296617908
 51
239.6288075569329976
  0
ARC
  5
1E3BD
  8
0
 10
3302.2945612757121125
 20
165.0478359415758973
 30
0.0
 40
0.0193005433660408
 50
167.8533739121054111
 51
208.485897197676195
  0
LINE
  5
1E3BE
  8
0
 10
3302.2756928265439456
 20
165.0518970498256124
 30
0.0
 11
3302.2868388796719046
 21
165.1106361278380916
 31
0.0
  0
ARC
  5
1E3BF
  8
0
 10
3302.2741430494911583
 20
164.8316716058650115
 30
0.0
 40
0.279253269674077
 50
55.6769433350377412
 51
58.3400598583988028
  0
ARC
  5
1E3C0
  8
0
 10
3302.2741430494911583
 20
164.8316716058650115
 30
0.0
 40
0.279253269674077
 50
68.7375816604220802
 51
87.3942353197230801
  0
ARC
  5
1E3C1
  8
0
 10
3302.409565035884043
 20
165.0300213080516016
 30
0.0
 40
0.0390830826061652
 50
19.1271390679205204
 51
55.6769433350153093
  0
ARC
  5
1E3C2
  8
0
 10
3302.4215455059152191
 20
165.0875993564669102
 30
0.0
 40
0.0512520615956685
 50
274.9565803438051148
 51
299.124691933447707
  0
ARC
  5
1E3C3
  8
0
 10
3302.2865932355780387
 20
165.0419019234738016
 30
0.0
 40
0.0687346433075193
 50
89.7952357188066372
 51
113.5802434838869033
  0
ARC
  5
1E3C4
  8
0
 10
3302.2949874438290863
 20
165.1154814264980075
 30
0.0
 40
0.0374184514658972
 50
196.4309243778506868
 51
248.3138534462939049
  0
ARC
  5
1E3C5
  8
0
 10
3302.3223581179508983
 20
164.9601888312556923
 30
0.0
 40
0.0668803858366316
 50
45.3097496672416469
 51
94.5286584834292256
  0
ARC
  5
1E3C6
  8
0
 10
3302.3653401595720425
 20
165.0777649179428863
 30
0.0
 40
0.0701467363045442
 50
226.5259454979010911
 51
273.3124760164303098
  0
LINE
  5
1E3C7
  8
0
 10
3303.0613162137078689
 20
165.1004580490071021
 30
0.0
 11
3303.0480532467581725
 21
165.0400888083570976
 31
0.0
  0
ARC
  5
1E3C8
  8
0
 10
3303.0345201049299249
 20
165.0430620048205128
 30
0.0
 40
0.0138558949531247
 50
296.641873118728995
 51
347.6091182453084798
  0
ARC
  5
1E3C9
  8
0
 10
3303.0190858122468853
 20
165.0738273956729927
 30
0.0
 40
0.0482757535365454
 50
268.7099254804185762
 51
296.641873118728995
  0
ARC
  5
1E3CA
  8
0
 10
3303.0210998317447775
 20
165.1632604586567936
 30
0.0
 40
0.1377314913581921
 50
242.9176975871646107
 51
268.7099254804185762
  0
ARC
  5
1E3CB
  8
0
 10
3302.9775454971900217
 20
165.0780829592393957
 30
0.0
 40
0.0420644308535658
 50
211.4101732920017014
 51
242.9176975871639002
  0
ARC
  5
1E3CC
  8
0
 10
3302.9578644908310707
 20
165.0636480524676131
 30
0.0
 40
0.0178640759675567
 50
164.236948214583407
 51
204.7799251609455951
  0
LINE
  5
1E3CD
  8
0
 10
3302.940672222412104
 20
165.0685010017512866
 30
0.0
 11
3302.9522089990077802
 21
165.1270101128071133
 31
0.0
  0
ARC
  5
1E3CE
  8
0
 10
3302.9715385458348464
 20
164.9689920690233862
 30
0.0
 40
0.1591958967491545
 50
55.6709648143600191
 51
96.974055021960325
  0
ARC
  5
1E3CF
  8
0
 10
3303.0427219909420273
 20
165.0732295881230129
 30
0.0
 40
0.0329717182200644
 50
16.6037182390753983
 51
55.670964814338511
  0
ARC
  5
1E3D0
  8
0
 10
3303.0491754599661363
 20
165.110647333764291
 30
0.0
 40
0.037629422784744
 50
279.5239755701587114
 51
311.9272339927143207
  0
ARC
  5
1E3D1
  8
0
 10
3302.9672038370990776
 20
165.0588808700302081
 30
0.0
 40
0.069759865902565
 50
102.4125560169804032
 51
121.3638109426497067
  0
ARC
  5
1E3D2
  8
0
 10
3302.9558519780348433
 20
165.1247939630526957
 30
0.0
 40
0.0257504255034673
 50
194.2683662921255916
 51
249.9027062025297141
  0
ARC
  5
1E3D3
  8
0
 10
3302.9824596352541448
 20
165.0014531459626994
 30
0.0
 40
0.0501195579441056
 50
45.0498235337891586
 51
108.3792132650284969
  0
ARC
  5
1E3D4
  8
0
 10
3303.0016646877361381
 20
165.0827883378144065
 30
0.0
 40
0.0486428058492108
 50
223.9706662429439064
 51
289.4583864599312051
  0
LINE
  5
1E3D5
  8
0
 10
3302.9563768214002266
 20
165.0005078589369134
 30
0.0
 11
3302.9431138544500755
 21
164.9401386182869089
 31
0.0
  0
ARC
  5
1E3D6
  8
0
 10
3302.9295807126218278
 20
164.9431118147502957
 30
0.0
 40
0.0138558949531247
 50
296.641873118728995
 51
347.6091182453084798
  0
ARC
  5
1E3D7
  8
0
 10
3302.9141464199387883
 20
164.9738772056026903
 30
0.0
 40
0.0482757535365454
 50
268.7099254804185762
 51
296.641873118728995
  0
ARC
  5
1E3D8
  8
0
 10
3302.9161604394371352
 20
165.0633102685866049
 30
0.0
 40
0.1377314913581921
 50
242.9176975871646107
 51
268.7099254804185762
  0
ARC
  5
1E3D9
  8
0
 10
3302.8726061048819247
 20
164.9781327691690933
 30
0.0
 40
0.0420644308535658
 50
211.4101732920017014
 51
242.9176975871639002
  0
ARC
  5
1E3DA
  8
0
 10
3302.8529250985238832
 20
164.963697862397396
 30
0.0
 40
0.0178640759675567
 50
164.236948214583407
 51
204.7799251609455951
  0
LINE
  5
1E3DB
  8
0
 10
3302.835732830104007
 20
164.9685508116810979
 30
0.0
 11
3302.847269606700138
 21
165.0270599227368962
 31
0.0
  0
ARC
  5
1E3DC
  8
0
 10
3302.8665991535272042
 20
164.8690418789531975
 30
0.0
 40
0.1591958967491545
 50
55.6709648143600191
 51
96.974055021960325
  0
ARC
  5
1E3DD
  8
0
 10
3302.9377825986339303
 20
164.9732793980527958
 30
0.0
 40
0.0329717182200644
 50
16.6037182390753983
 51
55.670964814338511
  0
ARC
  5
1E3DE
  8
0
 10
3302.9442360676580392
 20
165.0106971436941024
 30
0.0
 40
0.037629422784744
 50
279.5239755701587114
 51
311.9272339927143207
  0
ARC
  5
1E3DF
  8
0
 10
3302.8622644447909806
 20
164.9589306799599058
 30
0.0
 40
0.069759865902565
 50
102.4125560169804032
 51
121.3638109426497067
  0
ARC
  5
1E3E0
  8
0
 10
3302.8509125857272011
 20
165.0248437729825071
 30
0.0
 40
0.0257504255034673
 50
194.2683662921255916
 51
249.9027062025297141
  0
ARC
  5
1E3E1
  8
0
 10
3302.8775202429460478
 20
164.901502955892397
 30
0.0
 40
0.0501195579441056
 50
45.0498235337891586
 51
108.3792132650284969
  0
ARC
  5
1E3E2
  8
0
 10
3302.8967252954289506
 20
164.9828381477441042
 30
0.0
 40
0.0486428058492108
 50
223.9706662429439064
 51
289.4583864599312051
  0
LINE
  5
1E3E3
  8
0
 10
3302.8623582061040906
 20
164.9333869326657123
 30
0.0
 11
3302.8490952391539395
 21
164.8730176920157078
 31
0.0
  0
ARC
  5
1E3E4
  8
0
 10
3302.8355620973270561
 20
164.8759908884790946
 30
0.0
 40
0.0138558949531247
 50
296.641873118728995
 51
347.6091182453084798
  0
ARC
  5
1E3E5
  8
0
 10
3302.8201278046440166
 20
164.9067562793314892
 30
0.0
 40
0.0482757535365454
 50
268.7099254804185762
 51
296.641873118728995
  0
ARC
  5
1E3E6
  8
0
 10
3302.8221418241428182
 20
164.9961893423154038
 30
0.0
 40
0.1377314913581921
 50
242.9176975871646107
 51
268.7099254804185762
  0
ARC
  5
1E3E7
  8
0
 10
3302.7785874895857887
 20
164.9110118428980059
 30
0.0
 40
0.0420644308535658
 50
211.4101732920017014
 51
242.9176975871639002
  0
ARC
  5
1E3E8
  8
0
 10
3302.7589064832291115
 20
164.8965769361261948
 30
0.0
 40
0.0178640759675567
 50
164.236948214583407
 51
204.7799251609455951
  0
LINE
  5
1E3E9
  8
0
 10
3302.741714214807871
 20
164.9014298854098968
 30
0.0
 11
3302.7532509914049115
 21
164.959938996465695
 31
0.0
  0
ARC
  5
1E3EA
  8
0
 10
3302.7725805382319777
 20
164.8019209526819964
 30
0.0
 40
0.1591958967491545
 50
55.6709648143600191
 51
96.974055021960325
  0
ARC
  5
1E3EB
  8
0
 10
3302.8437639833391586
 20
164.9061584717815947
 30
0.0
 40
0.0329717182200644
 50
16.6037182390753983
 51
55.670964814338511
  0
ARC
  5
1E3EC
  8
0
 10
3302.8502174523628128
 20
164.9435762174229012
 30
0.0
 40
0.037629422784744
 50
279.5239755701587114
 51
311.9272339927143207
  0
ARC
  5
1E3ED
  8
0
 10
3302.7682458294962089
 20
164.8918097536887899
 30
0.0
 40
0.069759865902565
 50
102.4125560169804032
 51
121.3638109426497067
  0
ARC
  5
1E3EE
  8
0
 10
3302.7568939704319746
 20
164.9577228467113059
 30
0.0
 40
0.0257504255034673
 50
194.2683662921255916
 51
249.9027062025297141
  0
ARC
  5
1E3EF
  8
0
 10
3302.7835016276508213
 20
164.8343820296211959
 30
0.0
 40
0.0501195579441056
 50
45.0498235337891586
 51
108.3792132650284969
  0
ARC
  5
1E3F0
  8
0
 10
3302.8027066801328147
 20
164.915717221472903
 30
0.0
 40
0.0486428058492108
 50
223.9706662429439064
 51
289.4583864599312051
  0
LINE
  5
1E3F1
  8
0
 10
3302.7656727476228298
 20
164.8716443579853035
 30
0.0
 11
3302.7524097806731334
 21
164.811275117335299
 31
0.0
  0
ARC
  5
1E3F2
  8
0
 10
3302.7388766388448857
 20
164.8142483137987142
 30
0.0
 40
0.0138558949531247
 50
296.641873118728995
 51
347.6091182453084798
  0
ARC
  5
1E3F3
  8
0
 10
3302.7234423461618462
 20
164.8450137046511088
 30
0.0
 40
0.0482757535365454
 50
268.7099254804185762
 51
296.641873118728995
  0
ARC
  5
1E3F4
  8
0
 10
3302.7254563656601931
 20
164.934446767634995
 30
0.0
 40
0.1377314913581921
 50
242.9176975871646107
 51
268.7099254804185762
  0
ARC
  5
1E3F5
  8
0
 10
3302.6819020311049826
 20
164.8492692682175971
 30
0.0
 40
0.0420644308535658
 50
211.4101732920017014
 51
242.9176975871639002
  0
ARC
  5
1E3F6
  8
0
 10
3302.6622210247469411
 20
164.834834361445786
 30
0.0
 40
0.0178640759675567
 50
164.236948214583407
 51
204.7799251609455951
  0
LINE
  5
1E3F7
  8
0
 10
3302.6450287563270649
 20
164.839687310729488
 30
0.0
 11
3302.6565655329218316
 21
164.8981964217852862
 31
0.0
  0
ARC
  5
1E3F8
  8
0
 10
3302.6758950797498073
 20
164.7401783780015876
 30
0.0
 40
0.1591958967491545
 50
55.6709648143600191
 51
96.974055021960325
  0
ARC
  5
1E3F9
  8
0
 10
3302.7470785248569882
 20
164.8444158971011859
 30
0.0
 40
0.0329717182200644
 50
16.6037182390753983
 51
55.670964814338511
  0
ARC
  5
1E3FA
  8
0
 10
3302.7535319938810972
 20
164.8818336427424924
 30
0.0
 40
0.037629422784744
 50
279.5239755701587114
 51
311.9272339927143207
  0
ARC
  5
1E3FB
  8
0
 10
3302.671560371014948
 20
164.8300671790084095
 30
0.0
 40
0.069759865902565
 50
102.4125560169804032
 51
121.3638109426497067
  0
ARC
  5
1E3FC
  8
0
 10
3302.6602085119498042
 20
164.8959802720310108
 30
0.0
 40
0.0257504255034673
 50
194.2683662921255916
 51
249.9027062025297141
  0
ARC
  5
1E3FD
  8
0
 10
3302.6868161691691057
 20
164.7726394549407871
 30
0.0
 40
0.0501195579441056
 50
45.0498235337891586
 51
108.3792132650284969
  0
ARC
  5
1E3FE
  8
0
 10
3302.706021221651099
 20
164.8539746467924942
 30
0.0
 40
0.0486428058492108
 50
223.9706662429439064
 51
289.4583864599312051
  0
LINE
  5
1E3FF
  8
0
 10
3303.5406832383878282
 20
164.9983389339938071
 30
0.0
 11
3303.5274202714381317
 21
164.9379696933438879
 31
0.0
  0
ARC
  5
1E400
  8
0
 10
3303.5138871296107936
 20
164.9409428898071894
 30
0.0
 40
0.0138558949531247
 50
296.641873118728995
 51
347.6091182453084798
  0
ARC
  5
1E401
  8
0
 10
3303.4984528369291183
 20
164.9717082806596977
 30
0.0
 40
0.0482757535365454
 50
268.7099254804185762
 51
296.641873118728995
  0
ARC
  5
1E402
  8
0
 10
3303.500466856426101
 20
165.0611413436434987
 30
0.0
 40
0.1377314913581921
 50
242.9176975871646107
 51
268.7099254804185762
  0
ARC
  5
1E403
  8
0
 10
3303.456912521869981
 20
164.9759638442261007
 30
0.0
 40
0.0420644308535658
 50
211.4101732920017014
 51
242.9176975871639002
  0
ARC
  5
1E404
  8
0
 10
3303.437231515512849
 20
164.9615289374544034
 30
0.0
 40
0.0178640759675567
 50
164.236948214583407
 51
204.7799251609455951
  0
LINE
  5
1E405
  8
0
 10
3303.4200392470920633
 20
164.9663818867381053
 30
0.0
 11
3303.4315760236891037
 21
165.0248909977937899
 31
0.0
  0
ARC
  5
1E406
  8
0
 10
3303.45090557051617
 20
164.8668729540102049
 30
0.0
 40
0.1591958967491545
 50
55.6709648143600191
 51
96.974055021960325
  0
ARC
  5
1E407
  8
0
 10
3303.5220890156219866
 20
164.9711104731096896
 30
0.0
 40
0.0329717182200644
 50
16.6037182390753983
 51
55.670964814338511
  0
ARC
  5
1E408
  8
0
 10
3303.528542484647005
 20
165.0085282187511098
 30
0.0
 40
0.037629422784744
 50
279.5239755701587114
 51
311.9272339927143207
  0
ARC
  5
1E409
  8
0
 10
3303.4465708617799464
 20
164.9567617550169132
 30
0.0
 40
0.069759865902565
 50
102.4125560169804032
 51
121.3638109426497067
  0
ARC
  5
1E40A
  8
0
 10
3303.4352190027161669
 20
165.0226748480394861
 30
0.0
 40
0.0257504255034673
 50
194.2683662921255916
 51
249.9027062025297141
  0
ARC
  5
1E40B
  8
0
 10
3303.4618266599350136
 20
164.8993340309494045
 30
0.0
 40
0.0501195579441056
 50
45.0498235337891586
 51
108.3792132650284969
  0
ARC
  5
1E40C
  8
0
 10
3303.4810317124170069
 20
164.9806692228011116
 30
0.0
 40
0.0486428058492108
 50
223.9706662429439064
 51
289.4583864599312051
  0
LINE
  5
1E40D
  8
0
 10
3303.4267697751311061
 20
164.8891277097532111
 30
0.0
 11
3303.4135068081800455
 21
164.8287584691032066
 31
0.0
  0
ARC
  5
1E40E
  8
0
 10
3303.3999736663517979
 20
164.8317316655665934
 30
0.0
 40
0.0138558949531247
 50
296.641873118728995
 51
347.6091182453084798
  0
ARC
  5
1E40F
  8
0
 10
3303.3845393736701226
 20
164.862497056418988
 30
0.0
 40
0.0482757535365454
 50
268.7099254804185762
 51
296.641873118728995
  0
ARC
  5
1E410
  8
0
 10
3303.3865533931671052
 20
164.9519301194029026
 30
0.0
 40
0.1377314913581921
 50
242.9176975871646107
 51
268.7099254804185762
  0
ARC
  5
1E411
  8
0
 10
3303.3429990586118947
 20
164.8667526199855047
 30
0.0
 40
0.0420644308535658
 50
211.4101732920017014
 51
242.9176975871639002
  0
ARC
  5
1E412
  8
0
 10
3303.3233180522538532
 20
164.8523177132136937
 30
0.0
 40
0.0178640759675567
 50
164.236948214583407
 51
204.7799251609455951
  0
LINE
  5
1E413
  8
0
 10
3303.306125783833977
 20
164.8571706624973956
 30
0.0
 11
3303.317662560430108
 21
164.9156797735531939
 31
0.0
  0
ARC
  5
1E414
  8
0
 10
3303.3369921072571742
 20
164.7576617297694952
 30
0.0
 40
0.1591958967491545
 50
55.6709648143600191
 51
96.974055021960325
  0
ARC
  5
1E415
  8
0
 10
3303.4081755523648098
 20
164.8618992488690935
 30
0.0
 40
0.0329717182200644
 50
16.6037182390753983
 51
55.670964814338511
  0
ARC
  5
1E416
  8
0
 10
3303.4146290213880093
 20
164.8993169945104
 30
0.0
 40
0.037629422784744
 50
279.5239755701587114
 51
311.9272339927143207
  0
ARC
  5
1E417
  8
0
 10
3303.3326573985209507
 20
164.8475505307762887
 30
0.0
 40
0.069759865902565
 50
102.4125560169804032
 51
121.3638109426497067
  0
ARC
  5
1E418
  8
0
 10
3303.3213055394580806
 20
164.9134636237988047
 30
0.0
 40
0.0257504255034673
 50
194.2683662921255916
 51
249.9027062025297141
  0
ARC
  5
1E419
  8
0
 10
3303.3479131966760178
 20
164.7901228067086947
 30
0.0
 40
0.0501195579441056
 50
45.0498235337891586
 51
108.3792132650284969
  0
ARC
  5
1E41A
  8
0
 10
3303.3671182491589207
 20
164.8714579985604018
 30
0.0
 40
0.0486428058492108
 50
223.9706662429439064
 51
289.4583864599312051
  0
LINE
  5
1E41B
  8
0
 10
3303.3244375140379816
 20
164.7991791114810951
 30
0.0
 11
3303.3111745470878304
 21
164.7388098708310906
 31
0.0
  0
ARC
  5
1E41C
  8
0
 10
3303.2976414052591281
 20
164.7417830672945058
 30
0.0
 40
0.0138558949531247
 50
296.641873118728995
 51
347.6091182453084798
  0
ARC
  5
1E41D
  8
0
 10
3303.282207112576998
 20
164.7725484581469004
 30
0.0
 40
0.0482757535365454
 50
268.7099254804185762
 51
296.641873118728995
  0
ARC
  5
1E41E
  8
0
 10
3303.2842211320748902
 20
164.8619815211307866
 30
0.0
 40
0.1377314913581921
 50
242.9176975871646107
 51
268.7099254804185762
  0
ARC
  5
1E41F
  8
0
 10
3303.2406667975201344
 20
164.7768040217133887
 30
0.0
 40
0.0420644308535658
 50
211.4101732920017014
 51
242.9176975871639002
  0
ARC
  5
1E420
  8
0
 10
3303.2209857911611834
 20
164.7623691149416061
 30
0.0
 40
0.0178640759675567
 50
164.236948214583407
 51
204.7799251609455951
  0
LINE
  5
1E421
  8
0
 10
3303.2037935227422167
 20
164.767222064225308
 30
0.0
 11
3303.2153302993369834
 21
164.8257311752811063
 31
0.0
  0
ARC
  5
1E422
  8
0
 10
3303.2346598461649592
 20
164.6677131314974076
 30
0.0
 40
0.1591958967491545
 50
55.6709648143600191
 51
96.974055021960325
  0
ARC
  5
1E423
  8
0
 10
3303.30584329127214
 20
164.7719506505968923
 30
0.0
 40
0.0329717182200644
 50
16.6037182390753983
 51
55.670964814338511
  0
ARC
  5
1E424
  8
0
 10
3303.3122967602957942
 20
164.8093683962383125
 30
0.0
 40
0.037629422784744
 50
279.5239755701587114
 51
311.9272339927143207
  0
ARC
  5
1E425
  8
0
 10
3303.2303251374291904
 20
164.7576019325040875
 30
0.0
 40
0.069759865902565
 50
102.4125560169804032
 51
121.3638109426497067
  0
ARC
  5
1E426
  8
0
 10
3303.2189732783649561
 20
164.8235150255266888
 30
0.0
 40
0.0257504255034673
 50
194.2683662921255916
 51
249.9027062025297141
  0
ARC
  5
1E427
  8
0
 10
3303.2455809355838028
 20
164.7001742084366072
 30
0.0
 40
0.0501195579441056
 50
45.0498235337891586
 51
108.3792132650284969
  0
ARC
  5
1E428
  8
0
 10
3303.2647859880657961
 20
164.7815094002882859
 30
0.0
 40
0.0486428058492108
 50
223.9706662429439064
 51
289.4583864599312051
  0
LINE
  5
1E429
  8
0
 10
3303.2213639129658986
 20
164.7311856085476904
 30
0.0
 11
3303.2081009460171117
 21
164.6708163678977996
 31
0.0
  0
ARC
  5
1E42A
  8
0
 10
3303.1945678041879546
 20
164.6737895643611012
 30
0.0
 40
0.0138558949531247
 50
296.641873118728995
 51
347.6091182453084798
  0
ARC
  5
1E42B
  8
0
 10
3303.1791335115058246
 20
164.7045549552136094
 30
0.0
 40
0.0482757535365454
 50
268.7099254804185762
 51
296.641873118728995
  0
ARC
  5
1E42C
  8
0
 10
3303.1811475310041715
 20
164.7939880181974104
 30
0.0
 40
0.1377314913581921
 50
242.9176975871646107
 51
268.7099254804185762
  0
ARC
  5
1E42D
  8
0
 10
3303.1375931964480515
 20
164.7088105187800124
 30
0.0
 40
0.0420644308535658
 50
211.4101732920017014
 51
242.9176975871639002
  0
ARC
  5
1E42E
  8
0
 10
3303.11791219009001
 20
164.6943756120082014
 30
0.0
 40
0.0178640759675567
 50
164.236948214583407
 51
204.7799251609455951
  0
LINE
  5
1E42F
  8
0
 10
3303.1007199216701338
 20
164.6992285612919886
 30
0.0
 11
3303.11225669826581
 21
164.7577376723477016
 31
0.0
  0
ARC
  5
1E430
  8
0
 10
3303.1315862450928762
 20
164.599719628564003
 30
0.0
 40
0.1591958967491545
 50
55.6709648143600191
 51
96.974055021960325
  0
ARC
  5
1E431
  8
0
 10
3303.2027696902000571
 20
164.7039571476636013
 30
0.0
 40
0.0329717182200644
 50
16.6037182390753983
 51
55.670964814338511
  0
ARC
  5
1E432
  8
0
 10
3303.2092231592250755
 20
164.7413748933049931
 30
0.0
 40
0.037629422784744
 50
279.5239755701587114
 51
311.9272339927143207
  0
ARC
  5
1E433
  8
0
 10
3303.1272515363580169
 20
164.6896084295707965
 30
0.0
 40
0.069759865902565
 50
102.4125560169804032
 51
121.3638109426497067
  0
ARC
  5
1E434
  8
0
 10
3303.1158996772928731
 20
164.7555215225933978
 30
0.0
 40
0.0257504255034673
 50
194.2683662921255916
 51
249.9027062025297141
  0
ARC
  5
1E435
  8
0
 10
3303.1425073345121746
 20
164.6321807055032878
 30
0.0
 40
0.0501195579441056
 50
45.0498235337891586
 51
108.3792132650284969
  0
ARC
  5
1E436
  8
0
 10
3303.1617123869950774
 20
164.7135158973549096
 30
0.0
 40
0.0486428058492108
 50
223.9706662429439064
 51
289.4583864599312051
  0
LINE
  5
1E437
  8
0
 10
3303.1267339882751912
 20
164.6674608271300997
 30
0.0
 11
3303.1201821313370601
 21
164.6376386440823865
 31
0.0
  0
ARC
  5
1E438
  8
0
 10
3303.1066489895101768
 20
164.640611840545688
 30
0.0
 40
0.0138558949531247
 50
296.641873118728995
 51
347.6091182453084798
  0
ARC
  5
1E439
  8
0
 10
3303.0912146968271372
 20
164.6713772313981963
 30
0.0
 40
0.0482757535365454
 50
268.7099254804185762
 51
296.641873118728995
  0
ARC
  5
1E43A
  8
0
 10
3303.0932287163250294
 20
164.7608102943821109
 30
0.0
 40
0.1377314913581921
 50
242.9176975871646107
 51
268.7099254804185762
  0
ARC
  5
1E43B
  8
0
 10
3303.0496743817698189
 20
164.675632794964713
 30
0.0
 40
0.0420644308535658
 50
211.4101732920017014
 51
242.9176975871639002
  0
ARC
  5
1E43C
  8
0
 10
3303.0299933754117774
 20
164.6611978881929019
 30
0.0
 40
0.0178640759675567
 50
164.236948214583407
 51
204.7799251609455951
  0
LINE
  5
1E43D
  8
0
 10
3303.0128011069909917
 20
164.6660508374766039
 30
0.0
 11
3303.0243378835871226
 21
164.7245599485324021
 31
0.0
  0
ARC
  5
1E43E
  8
0
 10
3303.0436674304150984
 20
164.5665419047487035
 30
0.0
 40
0.1591958967491545
 50
67.871252675615338
 51
96.974055021960325
  0
ARC
  5
1E43F
  8
0
 10
3303.0393327216797843
 20
164.6564307057554117
 30
0.0
 40
0.069759865902565
 50
102.4125560169804032
 51
121.3638109426497067
  0
ARC
  5
1E440
  8
0
 10
3303.0279808626150952
 20
164.722343798778013
 30
0.0
 40
0.0257504255034673
 50
194.2683662921255916
 51
249.9027062025297141
  0
ARC
  5
1E441
  8
0
 10
3303.054588519833942
 20
164.599002981687903
 30
0.0
 40
0.0501195579441056
 50
45.0498235337891586
 51
108.3792132650284969
  0
ARC
  5
1E442
  8
0
 10
3303.0737935723159353
 20
164.6803381735396101
 30
0.0
 40
0.0486428058492108
 50
223.9706662429439064
 51
289.4583864599312051
  0
LINE
  5
1E443
  8
0
 10
3304.4849248892628566
 20
164.86310046961529
 30
0.0
 11
3304.4716619223131602
 21
164.8027312289653139
 31
0.0
  0
ARC
  5
1E444
  8
0
 10
3304.4581287804849126
 20
164.8057044254287007
 30
0.0
 40
0.0138558949531247
 50
296.641873118728995
 51
347.6091182453084798
  0
ARC
  5
1E445
  8
0
 10
3304.4426944878027825
 20
164.8364698162810953
 30
0.0
 40
0.0482757535365454
 50
268.7099254804185762
 51
296.641873118728995
  0
ARC
  5
1E446
  8
0
 10
3304.4447085073011294
 20
164.9259028792650099
 30
0.0
 40
0.1377314913581921
 50
242.9176975871646107
 51
268.7099254804185762
  0
ARC
  5
1E447
  8
0
 10
3304.4011541727440999
 20
164.840725379847612
 30
0.0
 40
0.0420644308535658
 50
211.4101732920017014
 51
242.9176975871639002
  0
ARC
  5
1E448
  8
0
 10
3304.3814731663869679
 20
164.8262904730758009
 30
0.0
 40
0.0178640759675567
 50
164.236948214583407
 51
204.7799251609455951
  0
LINE
  5
1E449
  8
0
 10
3304.3642808979670917
 20
164.8311434223595029
 30
0.0
 11
3304.3758176745632227
 21
164.8896525334153011
 31
0.0
  0
ARC
  5
1E44A
  8
0
 10
3304.3951472213898342
 20
164.7316344896316025
 30
0.0
 40
0.1591958967491545
 50
55.6709648143600191
 51
96.974055021960325
  0
ARC
  5
1E44B
  8
0
 10
3304.466330666497015
 20
164.8358720087310871
 30
0.0
 40
0.0329717182200644
 50
16.6037182390753983
 51
55.670964814338511
  0
ARC
  5
1E44C
  8
0
 10
3304.4727841355220335
 20
164.8732897543725073
 30
0.0
 40
0.037629422784744
 50
279.5239755701587114
 51
311.9272339927143207
  0
ARC
  5
1E44D
  8
0
 10
3304.3908125126540654
 20
164.8215232906383108
 30
0.0
 40
0.069759865902565
 50
102.4125560169804032
 51
121.3638109426497067
  0
ARC
  5
1E44E
  8
0
 10
3304.3794606535911953
 20
164.887436383660912
 30
0.0
 40
0.0257504255034673
 50
194.2683662921255916
 51
249.9027062025297141
  0
ARC
  5
1E44F
  8
0
 10
3304.406068310810042
 20
164.764095566570802
 30
0.0
 40
0.0501195579441056
 50
45.0498235337891586
 51
108.3792132650284969
  0
ARC
  5
1E450
  8
0
 10
3304.4252733632920354
 20
164.8454307584225091
 30
0.0
 40
0.0486428058492108
 50
223.9706662429439064
 51
289.4583864599312051
  0
LINE
  5
1E451
  8
0
 10
3303.9892091881629312
 20
164.9266609525153058
 30
0.0
 11
3303.9759462212127801
 21
164.8662917118653013
 31
0.0
  0
ARC
  5
1E452
  8
0
 10
3303.9624130793849872
 20
164.8692649083286881
 30
0.0
 40
0.0138558949531247
 50
296.641873118728995
 51
347.6091182453084798
  0
ARC
  5
1E453
  8
0
 10
3303.9469787867028572
 20
164.9000302991811111
 30
0.0
 40
0.0482757535365454
 50
268.7099254804185762
 51
296.641873118728995
  0
ARC
  5
1E454
  8
0
 10
3303.9489928061998398
 20
164.9894633621649973
 30
0.0
 40
0.1377314913581921
 50
242.9176975871646107
 51
268.7099254804185762
  0
ARC
  5
1E455
  8
0
 10
3303.9054384716450841
 20
164.9042858627475994
 30
0.0
 40
0.0420644308535658
 50
211.4101732920017014
 51
242.9176975871639002
  0
ARC
  5
1E456
  8
0
 10
3303.8857574652870426
 20
164.8898509559757883
 30
0.0
 40
0.0178640759675567
 50
164.236948214583407
 51
204.7799251609455951
  0
LINE
  5
1E457
  8
0
 10
3303.8685651968671664
 20
164.8947039052594903
 30
0.0
 11
3303.8801019734628426
 21
164.9532130163152885
 31
0.0
  0
ARC
  5
1E458
  8
0
 10
3303.8994315202899088
 20
164.7951949725315899
 30
0.0
 40
0.1591958967491545
 50
55.6709648143600191
 51
96.974055021960325
  0
ARC
  5
1E459
  8
0
 10
3303.9706149653970897
 20
164.8994324916311882
 30
0.0
 40
0.0329717182200644
 50
16.6037182390753983
 51
55.670964814338511
  0
ARC
  5
1E45A
  8
0
 10
3303.9770684344211986
 20
164.9368502372724947
 30
0.0
 40
0.037629422784744
 50
279.5239755701587114
 51
311.9272339927143207
  0
ARC
  5
1E45B
  8
0
 10
3303.8950968115550495
 20
164.8850837735384118
 30
0.0
 40
0.069759865902565
 50
102.4125560169804032
 51
121.3638109426497067
  0
ARC
  5
1E45C
  8
0
 10
3303.8837449524908152
 20
164.9509968665608994
 30
0.0
 40
0.0257504255034673
 50
194.2683662921255916
 51
249.9027062025297141
  0
ARC
  5
1E45D
  8
0
 10
3303.9103526097092072
 20
164.8276560494707894
 30
0.0
 40
0.0501195579441056
 50
45.0498235337891586
 51
108.3792132650284969
  0
ARC
  5
1E45E
  8
0
 10
3303.92955766219211
 20
164.9089912413224965
 30
0.0
 40
0.0486428058492108
 50
223.9706662429439064
 51
289.4583864599312051
  0
LINE
  5
1E45F
  8
0
 10
3304.373250000463031
 20
164.7315063226153029
 30
0.0
 11
3304.3599870335128799
 21
164.6711370819652984
 31
0.0
  0
ARC
  5
1E460
  8
0
 10
3304.3464538916841775
 20
164.6741102784287136
 30
0.0
 40
0.0138558949531247
 50
296.641873118728995
 51
347.6091182453084798
  0
ARC
  5
1E461
  8
0
 10
3304.331019599002957
 20
164.7048756692811082
 30
0.0
 40
0.0482757535365454
 50
268.7099254804185762
 51
296.641873118728995
  0
ARC
  5
1E462
  8
0
 10
3304.3330336185008491
 20
164.7943087322649944
 30
0.0
 40
0.1377314913581921
 50
242.9176975871646107
 51
268.7099254804185762
  0
ARC
  5
1E463
  8
0
 10
3304.2894792839451839
 20
164.7091312328475965
 30
0.0
 40
0.0420644308535658
 50
211.4101732920017014
 51
242.9176975871639002
  0
ARC
  5
1E464
  8
0
 10
3304.2697982775871424
 20
164.6946963260758139
 30
0.0
 40
0.0178640759675567
 50
164.236948214583407
 51
204.7799251609455951
  0
LINE
  5
1E465
  8
0
 10
3304.2526060091668114
 20
164.6995492753594874
 30
0.0
 11
3304.2641427857629424
 21
164.7580583864153141
 31
0.0
  0
ARC
  5
1E466
  8
0
 10
3304.2834723325909181
 20
164.600040342631587
 30
0.0
 40
0.1591958967491545
 50
55.6709648143600191
 51
96.974055021960325
  0
ARC
  5
1E467
  8
0
 10
3304.3546557776971895
 20
164.7042778617312138
 30
0.0
 40
0.0329717182200644
 50
16.6037182390753983
 51
55.670964814338511
  0
ARC
  5
1E468
  8
0
 10
3304.3611092467222079
 20
164.7416956073724918
 30
0.0
 40
0.037629422784744
 50
279.5239755701587114
 51
311.9272339927143207
  0
ARC
  5
1E469
  8
0
 10
3304.279137623853785
 20
164.6899291436382953
 30
0.0
 40
0.069759865902565
 50
102.4125560169804032
 51
121.3638109426497067
  0
ARC
  5
1E46A
  8
0
 10
3304.2677857647900055
 20
164.7558422366608966
 30
0.0
 40
0.0257504255034673
 50
194.2683662921255916
 51
249.9027062025297141
  0
ARC
  5
1E46B
  8
0
 10
3304.2943934220088522
 20
164.6325014195707865
 30
0.0
 40
0.0501195579441056
 50
45.0498235337891586
 51
108.3792132650284969
  0
ARC
  5
1E46C
  8
0
 10
3304.3135984744922098
 20
164.7138366114224937
 30
0.0
 40
0.0486428058492108
 50
223.9706662429439064
 51
289.4583864599312051
  0
LINE
  5
1E46D
  8
0
 10
3304.7389414798858525
 20
164.5642117273393126
 30
0.0
 11
3304.725678512936156
 21
164.5038424866893081
 31
0.0
  0
ARC
  5
1E46E
  8
0
 10
3304.7121453711079084
 20
164.5068156831526949
 30
0.0
 40
0.0138558949531247
 50
296.641873118728995
 51
347.6091182453084798
  0
ARC
  5
1E46F
  8
0
 10
3304.6967110784248689
 20
164.5375810740052032
 30
0.0
 40
0.0482757535365454
 50
268.7099254804185762
 51
296.641873118728995
  0
ARC
  5
1E470
  8
0
 10
3304.6987250979241253
 20
164.6270141369890041
 30
0.0
 40
0.1377314913581921
 50
242.9176975871646107
 51
268.7099254804185762
  0
ARC
  5
1E471
  8
0
 10
3304.6551707633680053
 20
164.5418366375716062
 30
0.0
 40
0.0420644308535658
 50
211.4101732920017014
 51
242.9176975871639002
  0
ARC
  5
1E472
  8
0
 10
3304.6354897570099638
 20
164.5274017307999088
 30
0.0
 40
0.0178640759675567
 50
164.236948214583407
 51
204.7799251609455951
  0
LINE
  5
1E473
  8
0
 10
3304.6182974885900876
 20
164.5322546800836108
 30
0.0
 11
3304.6298342651862185
 21
164.5907637911392953
 31
0.0
  0
ARC
  5
1E474
  8
0
 10
3304.64916381201283
 20
164.4327457473555967
 30
0.0
 40
0.1591958967491545
 50
55.6709648143600191
 51
96.974055021960325
  0
ARC
  5
1E475
  8
0
 10
3304.7203472571200109
 20
164.536983266455195
 30
0.0
 40
0.0329717182200644
 50
16.6037182390753983
 51
55.670964814338511
  0
ARC
  5
1E476
  8
0
 10
3304.7268007261441198
 20
164.5744010120965868
 30
0.0
 40
0.037629422784744
 50
279.5239755701587114
 51
311.9272339927143207
  0
ARC
  5
1E477
  8
0
 10
3304.6448291032779707
 20
164.5226345483623902
 30
0.0
 40
0.069759865902565
 50
102.4125560169804032
 51
121.3638109426497067
  0
ARC
  5
1E478
  8
0
 10
3304.6334772442141912
 20
164.5885476413849915
 30
0.0
 40
0.0257504255034673
 50
194.2683662921255916
 51
249.9027062025297141
  0
ARC
  5
1E479
  8
0
 10
3304.6600849014330379
 20
164.4652068242949099
 30
0.0
 40
0.0501195579441056
 50
45.0498235337891586
 51
108.3792132650284969
  0
ARC
  5
1E47A
  8
0
 10
3304.6792899539150312
 20
164.5465420161465886
 30
0.0
 40
0.0486428058492108
 50
223.9706662429439064
 51
289.4583864599312051
  0
LINE
  5
1E47B
  8
0
 10
3304.8538119434010696
 20
164.7048437811708084
 30
0.0
 11
3304.8405489764500089
 21
164.6444745405208039
 31
0.0
  0
ARC
  5
1E47C
  8
0
 10
3304.8270158346222161
 20
164.6474477369841907
 30
0.0
 40
0.0138558949531247
 50
296.641873118728995
 51
347.6091182453084798
  0
ARC
  5
1E47D
  8
0
 10
3304.811581541940086
 20
164.678213127836699
 30
0.0
 40
0.0482757535365454
 50
268.7099254804185762
 51
296.641873118728995
  0
ARC
  5
1E47E
  8
0
 10
3304.8135955614379782
 20
164.7676461908206136
 30
0.0
 40
0.1377314913581921
 50
242.9176975871646107
 51
268.7099254804185762
  0
ARC
  5
1E47F
  8
0
 10
3304.7700412268832224
 20
164.682468691403102
 30
0.0
 40
0.0420644308535658
 50
211.4101732920017014
 51
242.9176975871639002
  0
ARC
  5
1E480
  8
0
 10
3304.7503602205251809
 20
164.6680337846312909
 30
0.0
 40
0.0178640759675567
 50
164.236948214583407
 51
204.7799251609455951
  0
LINE
  5
1E481
  8
0
 10
3304.7331679521039405
 20
164.6728867339151066
 30
0.0
 11
3304.7447047287009809
 21
164.7313958449707911
 31
0.0
  0
ARC
  5
1E482
  8
0
 10
3304.7640342755280471
 20
164.5733778011870925
 30
0.0
 40
0.1591958967491545
 50
55.6709648143600191
 51
96.974055021960325
  0
ARC
  5
1E483
  8
0
 10
3304.8352177206347733
 20
164.6776153202866908
 30
0.0
 40
0.0329717182200644
 50
16.6037182390753983
 51
55.670964814338511
  0
ARC
  5
1E484
  8
0
 10
3304.8416711896588822
 20
164.715033065928111
 30
0.0
 40
0.037629422784744
 50
279.5239755701587114
 51
311.9272339927143207
  0
ARC
  5
1E485
  8
0
 10
3304.7596995667918236
 20
164.663266602193886
 30
0.0
 40
0.069759865902565
 50
102.4125560169804032
 51
121.3638109426497067
  0
ARC
  5
1E486
  8
0
 10
3304.748347707728044
 20
164.7291796952164873
 30
0.0
 40
0.0257504255034673
 50
194.2683662921255916
 51
249.9027062025297141
  0
ARC
  5
1E487
  8
0
 10
3304.7749553649468908
 20
164.6058388781264057
 30
0.0
 40
0.0501195579441056
 50
45.0498235337891586
 51
108.3792132650284969
  0
ARC
  5
1E488
  8
0
 10
3304.7941604174288841
 20
164.6871740699781128
 30
0.0
 40
0.0486428058492108
 50
223.9706662429439064
 51
289.4583864599312051
  0
LINE
  5
1E489
  8
0
 10
3305.2245338090538098
 20
164.5263288566964093
 30
0.0
 11
3305.2112708421041134
 21
164.4659596160464048
 31
0.0
  0
ARC
  5
1E48A
  8
0
 10
3305.1977377002758658
 20
164.4689328125097916
 30
0.0
 40
0.0138558949531247
 50
296.641873118728995
 51
347.6091182453084798
  0
ARC
  5
1E48B
  8
0
 10
3305.1823034075928263
 20
164.4996982033621862
 30
0.0
 40
0.0482757535365454
 50
268.7099254804185762
 51
296.641873118728995
  0
ARC
  5
1E48C
  8
0
 10
3305.1843174270911732
 20
164.5891312663461008
 30
0.0
 40
0.1377314913581921
 50
242.9176975871646107
 51
268.7099254804185762
  0
ARC
  5
1E48D
  8
0
 10
3305.1407630925359626
 20
164.5039537669287029
 30
0.0
 40
0.0420644308535658
 50
211.4101732920017014
 51
242.9176975871639002
  0
ARC
  5
1E48E
  8
0
 10
3305.1210820861779212
 20
164.4895188601568918
 30
0.0
 40
0.0178640759675567
 50
164.236948214583407
 51
204.7799251609455951
  0
LINE
  5
1E48F
  8
0
 10
3305.103889817758045
 20
164.4943718094405938
 30
0.0
 11
3305.1154265943541759
 21
164.552880920496392
 31
0.0
  0
ARC
  5
1E490
  8
0
 10
3305.1347561411807874
 20
164.3948628767126934
 30
0.0
 40
0.1591958967491545
 50
55.6709648143600191
 51
96.974055021960325
  0
ARC
  5
1E491
  8
0
 10
3305.2059395862888778
 20
164.4991003958122917
 30
0.0
 40
0.0329717182200644
 50
16.6037182390753983
 51
55.670964814338511
  0
ARC
  5
1E492
  8
0
 10
3305.2123930553120772
 20
164.5365181414535982
 30
0.0
 40
0.037629422784744
 50
279.5239755701587114
 51
311.9272339927143207
  0
ARC
  5
1E493
  8
0
 10
3305.1304214324450186
 20
164.4847516777194869
 30
0.0
 40
0.069759865902565
 50
102.4125560169804032
 51
121.3638109426497067
  0
ARC
  5
1E494
  8
0
 10
3305.1190695733821485
 20
164.5506647707420029
 30
0.0
 40
0.0257504255034673
 50
194.2683662921255916
 51
249.9027062025297141
  0
ARC
  5
1E495
  8
0
 10
3305.1456772306000857
 20
164.4273239536518929
 30
0.0
 40
0.0501195579441056
 50
45.0498235337891586
 51
108.3792132650284969
  0
ARC
  5
1E496
  8
0
 10
3305.1648822830829886
 20
164.5086591455036
 30
0.0
 40
0.0486428058492108
 50
223.9706662429439064
 51
289.4583864599312051
  0
LINE
  5
1E497
  8
0
 10
3305.1058834183781983
 20
164.4172207294529073
 30
0.0
 11
3305.0926204514289566
 21
164.3568514888029028
 31
0.0
  0
ARC
  5
1E498
  8
0
 10
3305.0790873095997995
 20
164.3598246852662044
 30
0.0
 40
0.0138558949531247
 50
296.641873118728995
 51
347.6091182453084798
  0
ARC
  5
1E499
  8
0
 10
3305.0636530169181242
 20
164.3905900761187127
 30
0.0
 40
0.0482757535365454
 50
268.7099254804185762
 51
296.641873118728995
  0
ARC
  5
1E49A
  8
0
 10
3305.0656670364160163
 20
164.4800231391025989
 30
0.0
 40
0.1377314913581921
 50
242.9176975871646107
 51
268.7099254804185762
  0
ARC
  5
1E49B
  8
0
 10
3305.0221127018598963
 20
164.3948456396852009
 30
0.0
 40
0.0420644308535658
 50
211.4101732920017014
 51
242.9176975871639002
  0
ARC
  5
1E49C
  8
0
 10
3305.0024316955018548
 20
164.3804107329133899
 30
0.0
 40
0.0178640759675567
 50
164.236948214583407
 51
204.7799251609455951
  0
LINE
  5
1E49D
  8
0
 10
3304.9852394270810692
 20
164.3852636821970918
 30
0.0
 11
3304.9967762036781096
 21
164.4437727932528901
 31
0.0
  0
ARC
  5
1E49E
  8
0
 10
3305.0161057505051758
 20
164.2857547494691914
 30
0.0
 40
0.1591958967491545
 50
55.6709648143600191
 51
96.974055021960325
  0
ARC
  5
1E49F
  8
0
 10
3305.087289195611902
 20
164.3899922685687045
 30
0.0
 40
0.0329717182200644
 50
16.6037182390753983
 51
55.670964814338511
  0
ARC
  5
1E4A0
  8
0
 10
3305.0937426646369204
 20
164.4274100142100963
 30
0.0
 40
0.037629422784744
 50
279.5239755701587114
 51
311.9272339927143207
  0
ARC
  5
1E4A1
  8
0
 10
3305.0117710417689523
 20
164.3756435504758997
 30
0.0
 40
0.069759865902565
 50
102.4125560169804032
 51
121.3638109426497067
  0
ARC
  5
1E4A2
  8
0
 10
3305.0004191827051727
 20
164.441556643498501
 30
0.0
 40
0.0257504255034673
 50
194.2683662921255916
 51
249.9027062025297141
  0
ARC
  5
1E4A3
  8
0
 10
3305.0270268399240194
 20
164.318215826408391
 30
0.0
 40
0.0501195579441056
 50
45.0498235337891586
 51
108.3792132650284969
  0
ARC
  5
1E4A4
  8
0
 10
3305.0462318924060128
 20
164.3995510182600981
 30
0.0
 40
0.0486428058492108
 50
223.9706662429439064
 51
289.4583864599312051
  0
LINE
  5
1E4A5
  8
0
 10
3305.6030040998539334
 20
164.3871171046924076
 30
0.0
 11
3305.5897411329037823
 21
164.3267478640424031
 31
0.0
  0
ARC
  5
1E4A6
  8
0
 10
3305.5762079910759894
 20
164.3297210605057899
 30
0.0
 40
0.0138558949531247
 50
296.641873118728995
 51
347.6091182453084798
  0
ARC
  5
1E4A7
  8
0
 10
3305.5607736983938594
 20
164.3604864513582982
 30
0.0
 40
0.0482757535365454
 50
268.7099254804185762
 51
296.641873118728995
  0
ARC
  5
1E4A8
  8
0
 10
3305.562787717890842
 20
164.4499195143420991
 30
0.0
 40
0.1377314913581921
 50
242.9176975871646107
 51
268.7099254804185762
  0
ARC
  5
1E4A9
  8
0
 10
3305.5192333833360863
 20
164.3647420149247012
 30
0.0
 40
0.0420644308535658
 50
211.4101732920017014
 51
242.9176975871639002
  0
ARC
  5
1E4AA
  8
0
 10
3305.4995523769771353
 20
164.3503071081528901
 30
0.0
 40
0.0178640759675567
 50
164.236948214583407
 51
204.7799251609455951
  0
LINE
  5
1E4AB
  8
0
 10
3305.4823601085581686
 20
164.3551600574367058
 30
0.0
 11
3305.4938968851538448
 21
164.4136691684923903
 31
0.0
  0
ARC
  5
1E4AC
  8
0
 10
3305.5132264319800015
 20
164.2556511247086917
 30
0.0
 40
0.1591958967491545
 50
55.6709648143600191
 51
96.974055021960325
  0
ARC
  5
1E4AD
  8
0
 10
3305.5844098770880919
 20
164.35988864380829
 30
0.0
 40
0.0329717182200644
 50
16.6037182390753983
 51
55.670964814338511
  0
ARC
  5
1E4AE
  8
0
 10
3305.5908633461122008
 20
164.3973063894497102
 30
0.0
 40
0.037629422784744
 50
279.5239755701587114
 51
311.9272339927143207
  0
ARC
  5
1E4AF
  8
0
 10
3305.5088917232451422
 20
164.3455399257155136
 30
0.0
 40
0.069759865902565
 50
102.4125560169804032
 51
121.3638109426497067
  0
ARC
  5
1E4B0
  8
0
 10
3305.4975398641809079
 20
164.4114530187380865
 30
0.0
 40
0.0257504255034673
 50
194.2683662921255916
 51
249.9027062025297141
  0
ARC
  5
1E4B1
  8
0
 10
3305.5241475214002094
 20
164.2881122016480049
 30
0.0
 40
0.0501195579441056
 50
45.0498235337891586
 51
108.3792132650284969
  0
ARC
  5
1E4B2
  8
0
 10
3305.5433525738822027
 20
164.369447393499712
 30
0.0
 40
0.0486428058492108
 50
223.9706662429439064
 51
289.4583864599312051
  0
LINE
  5
1E4B3
  8
0
 10
3305.4991776415208733
 20
164.286759717767211
 30
0.0
 11
3305.4859146745711769
 21
164.2263904771172065
 31
0.0
  0
ARC
  5
1E4B4
  8
0
 10
3305.4723815327429293
 20
164.2293636735805933
 30
0.0
 40
0.0138558949531247
 50
296.641873118728995
 51
347.6091182453084798
  0
ARC
  5
1E4B5
  8
0
 10
3305.4569472400598897
 20
164.2601290644329879
 30
0.0
 40
0.0482757535365454
 50
268.7099254804185762
 51
296.641873118728995
  0
ARC
  5
1E4B6
  8
0
 10
3305.4589612595591461
 20
164.3495621274169025
 30
0.0
 40
0.1377314913581921
 50
242.9176975871646107
 51
268.7099254804185762
  0
ARC
  5
1E4B7
  8
0
 10
3305.4154069250030261
 20
164.2643846279995046
 30
0.0
 40
0.0420644308535658
 50
211.4101732920017014
 51
242.9176975871639002
  0
ARC
  5
1E4B8
  8
0
 10
3305.3957259186440751
 20
164.2499497212276935
 30
0.0
 40
0.0178640759675567
 50
164.236948214583407
 51
204.7799251609455951
  0
LINE
  5
1E4B9
  8
0
 10
3305.3785336502251084
 20
164.2548026705115092
 30
0.0
 11
3305.3900704268198751
 21
164.3133117815671937
 31
0.0
  0
ARC
  5
1E4BA
  8
0
 10
3305.4093999736478509
 20
164.1552937377834951
 30
0.0
 40
0.1591958967491545
 50
55.6709648143600191
 51
96.974055021960325
  0
ARC
  5
1E4BB
  8
0
 10
3305.4805834187550317
 20
164.2595312568830934
 30
0.0
 40
0.0329717182200644
 50
16.6037182390753983
 51
55.670964814338511
  0
ARC
  5
1E4BC
  8
0
 10
3305.4870368877791407
 20
164.2969490025245136
 30
0.0
 40
0.037629422784744
 50
279.5239755701587114
 51
311.9272339927143207
  0
ARC
  5
1E4BD
  8
0
 10
3305.4050652649120821
 20
164.2451825387902886
 30
0.0
 40
0.069759865902565
 50
102.4125560169804032
 51
121.3638109426497067
  0
ARC
  5
1E4BE
  8
0
 10
3305.3937134058478478
 20
164.3110956318128046
 30
0.0
 40
0.0257504255034673
 50
194.2683662921255916
 51
249.9027062025297141
  0
ARC
  5
1E4BF
  8
0
 10
3305.4203210630671492
 20
164.1877548147228083
 30
0.0
 40
0.0501195579441056
 50
45.0498235337891586
 51
108.3792132650284969
  0
ARC
  5
1E4C0
  8
0
 10
3305.4395261155491426
 20
164.2690900065744017
 30
0.0
 40
0.0486428058492108
 50
223.9706662429439064
 51
289.4583864599312051
  0
LINE
  5
1E4C1
  8
0
 10
3305.0157239703489722
 20
164.3368616852507103
 30
0.0
 11
3305.0034081094649991
 21
164.2781006643197088
 31
0.0
  0
ARC
  5
1E4C2
  8
0
 10
3304.9870775149620385
 20
164.2815234321149944
 30
0.0
 40
0.016685432454459
 50
286.5401635062037826
 51
348.1625924233708815
  0
ARC
  5
1E4C3
  8
0
 10
3304.9611993034241095
 20
164.3899980806573922
 30
0.0
 40
0.1281826348490979
 50
243.5332710078465936
 51
283.8241640007407227
  0
ARC
  5
1E4C4
  8
0
 10
3304.9142079635521441
 20
164.2934004428115884
 30
0.0
 40
0.0207894193826536
 50
176.3679868974707006
 51
240.8172715023827948
  0
LINE
  5
1E4C5
  8
0
 10
3304.8934602999379422
 20
164.2947174138863033
 30
0.0
 11
3304.9042652918301428
 21
164.3489934063524913
 31
0.0
  0
ARC
  5
1E4C6
  8
0
 10
3304.9366890506848904
 20
164.1288104248949935
 30
0.0
 40
0.2225575104593132
 50
69.1991192520463017
 51
98.3770697940335026
  0
ARC
  5
1E4C7
  8
0
 10
3304.9988652823180928
 20
164.2924829307968082
 30
0.0
 40
0.0474730366528688
 50
35.7823467246278426
 51
69.1991192520463017
  0
ARC
  5
1E4C8
  8
0
 10
3304.9997575774018514
 20
164.3655495773147095
 30
0.0
 40
0.0588909611827347
 50
279.5874595850265223
 51
309.7028715244090904
  0
ARC
  5
1E4C9
  8
0
 10
3304.9227580498200041
 20
164.2815902753688135
 30
0.0
 40
0.0698939494125451
 50
105.3421821661391959
 51
128.4060254532344914
  0
ARC
  5
1E4CA
  8
0
 10
3304.9140424406850798
 20
164.3626744689750012
 30
0.0
 40
0.0435522914862035
 50
217.169701874538589
 51
249.6014384810465003
  0
ARC
  5
1E4CB
  8
0
 10
3304.9383529886399629
 20
164.2193992292791904
 30
0.0
 40
0.0632459323759302
 50
55.4782455943203701
 51
109.5923690915133051
  0
ARC
  5
1E4CC
  8
0
 10
3304.9535491294518579
 20
164.3353776437826923
 30
0.0
 40
0.0671236065126928
 50
237.1565783688660929
 51
287.9140411466364071
  0
LINE
  5
1E4CD
  8
0
 10
3304.9172654425360633
 20
164.2674169742813888
 30
0.0
 11
3304.9049495816520903
 21
164.2086559533503873
 31
0.0
  0
ARC
  5
1E4CE
  8
0
 10
3304.8886189871491297
 20
164.2120787211457014
 30
0.0
 40
0.016685432454459
 50
286.5401635062037826
 51
348.1625924233708815
  0
ARC
  5
1E4CF
  8
0
 10
3304.8627407756112007
 20
164.3205533696880991
 30
0.0
 40
0.1281826348490979
 50
243.5332710078465936
 51
283.8241640007407227
  0
ARC
  5
1E4D0
  8
0
 10
3304.815749435737871
 20
164.2239557318422953
 30
0.0
 40
0.0207894193826536
 50
176.3679868974707006
 51
240.8172715023827948
  0
LINE
  5
1E4D1
  8
0
 10
3304.7950017721241238
 20
164.2252727029170103
 30
0.0
 11
3304.8058067640167792
 21
164.2795486953831983
 31
0.0
  0
ARC
  5
1E4D2
  8
0
 10
3304.838230522872891
 20
164.0593657139257004
 30
0.0
 40
0.2225575104593132
 50
69.1991192520463017
 51
98.3770697940335026
  0
ARC
  5
1E4D3
  8
0
 10
3304.9004067545038197
 20
164.2230382198276004
 30
0.0
 40
0.0474730366528688
 50
35.7823467246278426
 51
69.1991192520463017
  0
ARC
  5
1E4D4
  8
0
 10
3304.9012990495898521
 20
164.296104866345388
 30
0.0
 40
0.0588909611827347
 50
279.5874595850265223
 51
309.7028715244090904
  0
ARC
  5
1E4D5
  8
0
 10
3304.8242995220070952
 20
164.2121455643994921
 30
0.0
 40
0.0698939494125451
 50
105.3421821661391959
 51
128.4060254532344914
  0
ARC
  5
1E4D6
  8
0
 10
3304.8155839128730804
 20
164.2932297580057082
 30
0.0
 40
0.0435522914862035
 50
217.169701874538589
 51
249.6014384810465003
  0
ARC
  5
1E4D7
  8
0
 10
3304.839894460827054
 20
164.1499545183098974
 30
0.0
 40
0.0632459323759302
 50
55.4782455943203701
 51
109.5923690915133051
  0
ARC
  5
1E4D8
  8
0
 10
3304.8550906016398585
 20
164.2659329328133992
 30
0.0
 40
0.0671236065126928
 50
237.1565783688660929
 51
287.9140411466364071
  0
LINE
  5
1E4D9
  8
0
 10
3304.8260503812198294
 20
164.1977339785630932
 30
0.0
 11
3304.8192638153668668
 21
164.1653541439837909
 31
0.0
  0
ARC
  5
1E4DA
  8
0
 10
3304.8029332208648157
 20
164.1687769117791049
 30
0.0
 40
0.016685432454459
 50
286.5401635062037826
 51
348.1625924233708815
  0
ARC
  5
1E4DB
  8
0
 10
3304.7770550093259772
 20
164.2772515603215027
 30
0.0
 40
0.1281826348490979
 50
243.5332710078465936
 51
283.8241640007407227
  0
ARC
  5
1E4DC
  8
0
 10
3304.7300636694549212
 20
164.1806539224756989
 30
0.0
 40
0.0207894193826536
 50
176.3679868974707006
 51
240.8172715023827948
  0
LINE
  5
1E4DD
  8
0
 10
3304.7093160058398098
 20
164.1819708935504138
 30
0.0
 11
3304.7201209977329199
 21
164.2362468860166018
 31
0.0
  0
ARC
  5
1E4DE
  8
0
 10
3304.7525447565881223
 20
164.016063904559104
 30
0.0
 40
0.2225575104593132
 50
78.5368306331343717
 51
98.3770697940335026
  0
ARC
  5
1E4DF
  8
0
 10
3304.8156132833050833
 20
164.2528030569787916
 30
0.0
 40
0.0588909611827347
 50
279.5874595850265223
 51
285.9170999104820794
  0
ARC
  5
1E4E0
  8
0
 10
3304.7386137557227812
 20
164.1688437550328956
 30
0.0
 40
0.0698939494125451
 50
105.3421821661391959
 51
128.4060254532344914
  0
ARC
  5
1E4E1
  8
0
 10
3304.7298981465878569
 20
164.2499279486391117
 30
0.0
 40
0.0435522914862035
 50
217.169701874538589
 51
249.6014384810465003
  0
ARC
  5
1E4E2
  8
0
 10
3304.7542086945431947
 20
164.1066527089433009
 30
0.0
 40
0.0632459323759302
 50
55.4782455943203701
 51
109.5923690915133051
  0
ARC
  5
1E4E3
  8
0
 10
3304.7694048353550897
 20
164.2226311234468028
 30
0.0
 40
0.0671236065126928
 50
237.1565783688660929
 51
287.9140411466364071
  0
LINE
  5
1E4E4
  8
0
 10
3305.4008322267181939
 20
164.2179559703617997
 30
0.0
 11
3305.3885163658328565
 21
164.1591949494307983
 31
0.0
  0
ARC
  5
1E4E5
  8
0
 10
3305.3721857713298959
 20
164.1626177172261123
 30
0.0
 40
0.016685432454459
 50
286.5401635062037826
 51
348.1625924233708815
  0
ARC
  5
1E4E6
  8
0
 10
3305.3463075597919669
 20
164.27109236576851
 30
0.0
 40
0.1281826348490979
 50
243.5332710078465936
 51
283.8241640007407227
  0
ARC
  5
1E4E7
  8
0
 10
3305.2993162199200015
 20
164.1744947279225926
 30
0.0
 40
0.0207894193826536
 50
176.3679868974707006
 51
240.8172715023827948
  0
LINE
  5
1E4E8
  8
0
 10
3305.2785685563048901
 20
164.1758116989973075
 30
0.0
 11
3305.2893735481989097
 21
164.2300876914636092
 31
0.0
  0
ARC
  5
1E4E9
  8
0
 10
3305.3217973070550215
 20
164.0099047100061114
 30
0.0
 40
0.2225575104593132
 50
69.1991192520463017
 51
98.3770697940335026
  0
ARC
  5
1E4EA
  8
0
 10
3305.3839735386859502
 20
164.1735772159078977
 30
0.0
 40
0.0474730366528688
 50
35.7823467246278426
 51
69.1991192520463017
  0
ARC
  5
1E4EB
  8
0
 10
3305.3848658337710731
 20
164.2466438624257989
 30
0.0
 40
0.0588909611827347
 50
279.5874595850265223
 51
309.7028715244090904
  0
ARC
  5
1E4EC
  8
0
 10
3305.3078663061892257
 20
164.162684560479903
 30
0.0
 40
0.0698939494125451
 50
105.3421821661391959
 51
128.4060254532344914
  0
ARC
  5
1E4ED
  8
0
 10
3305.2991506970552109
 20
164.2437687540860907
 30
0.0
 40
0.0435522914862035
 50
217.169701874538589
 51
249.6014384810465003
  0
ARC
  5
1E4EE
  8
0
 10
3305.3234612450078203
 20
164.1004935143903083
 30
0.0
 40
0.0632459323759302
 50
55.4782455943203701
 51
109.5923690915133051
  0
ARC
  5
1E4EF
  8
0
 10
3305.3386573858210795
 20
164.2164719288938102
 30
0.0
 40
0.0671236065126928
 50
237.1565783688660929
 51
287.9140411466364071
  0
LINE
  5
1E4F0
  8
0
 10
3305.3022192089260898
 20
164.1507303900669967
 30
0.0
 11
3305.29151258642014
 21
164.0996473131241942
 31
0.0
  0
ARC
  5
1E4F1
  8
0
 10
3305.2751819919171794
 20
164.1030700809195082
 30
0.0
 40
0.016685432454459
 50
286.5401635062037826
 51
348.1625924233708815
  0
ARC
  5
1E4F2
  8
0
 10
3305.2493037803778861
 20
164.2115447294619059
 30
0.0
 40
0.1281826348490979
 50
243.5332710078465936
 51
283.8241640007407227
  0
ARC
  5
1E4F3
  8
0
 10
3305.2023124405068302
 20
164.1149470916159885
 30
0.0
 40
0.0207894193826536
 50
176.3679868974707006
 51
240.8172715023827948
  0
LINE
  5
1E4F4
  8
0
 10
3305.1815647768921735
 20
164.1162640626907034
 30
0.0
 11
3305.1923697687861932
 21
164.1705400551570051
 31
0.0
  0
ARC
  5
1E4F5
  8
0
 10
3305.2247935276409407
 20
163.9503570736995073
 30
0.0
 40
0.2225575104593132
 50
75.5292293917295439
 51
98.3770697940335026
  0
ARC
  5
1E4F6
  8
0
 10
3305.2869697592727789
 20
164.1140295796012936
 30
0.0
 40
0.0474730366528688
 50
35.7823467246278426
 51
40.8273938384772208
  0
ARC
  5
1E4F7
  8
0
 10
3305.2878620543579018
 20
164.1870962261191949
 30
0.0
 40
0.0588909611827347
 50
279.5874595850265223
 51
309.7028715244090904
  0
ARC
  5
1E4F8
  8
0
 10
3305.2108625267751449
 20
164.1031369241732136
 30
0.0
 40
0.0698939494125451
 50
105.3421821661391959
 51
128.4060254532344914
  0
ARC
  5
1E4F9
  8
0
 10
3305.2021469176402206
 20
164.1842211177794866
 30
0.0
 40
0.0435522914862035
 50
217.169701874538589
 51
249.6014384810465003
  0
ARC
  5
1E4FA
  8
0
 10
3305.2264574655951037
 20
164.0409458780837042
 30
0.0
 40
0.0632459323759302
 50
55.4782455943203701
 51
109.5923690915133051
  0
ARC
  5
1E4FB
  8
0
 10
3305.2416536064069987
 20
164.1569242925872061
 30
0.0
 40
0.0671236065126928
 50
237.1565783688660929
 51
287.9140411466364071
  0
LINE
  5
1E4FC
  8
0
 10
3305.3618189054927825
 20
164.6690343273895962
 30
0.0
 11
3305.3487595515980502
 21
164.610819211706314
 31
0.0
  0
ARC
  5
1E4FD
  8
0
 10
3305.3325348924417995
 20
164.6190543146585128
 30
0.0
 40
0.0181949576902993
 50
290.1051342130382977
 51
333.0891500843010249
  0
ARC
  5
1E4FE
  8
0
 10
3305.3170494390042222
 20
164.6658715903658106
 30
0.0
 40
0.0675002086693982
 50
270.9633420845908063
 51
288.7882151162518198
  0
ARC
  5
1E4FF
  8
0
 10
3305.3070975216351144
 20
164.907771991298489
 30
0.0
 40
0.3095896480150382
 50
252.1511296973222898
 51
272.0522696647147995
  0
ARC
  5
1E500
  8
0
 10
3305.2456198880108786
 20
164.671640219555087
 30
0.0
 40
0.0674194691817156
 50
231.6635395935857957
 51
240.2899259988373046
  0
ARC
  5
1E501
  8
0
 10
3305.2135924139579402
 20
164.6288253211976951
 30
0.0
 40
0.0140438403945994
 50
170.6008714632324939
 51
225.7972434477950969
  0
LINE
  5
1E502
  8
0
 10
3305.1997371170978113
 20
164.6311188342062906
 30
0.0
 11
3305.2098919070967895
 21
164.684680336006295
 31
0.0
  0
ARC
  5
1E503
  8
0
 10
3305.2512088935268366
 20
164.3404302715852907
 30
0.0
 40
0.3467206371677323
 50
71.3964714873570756
 51
96.8439184307533338
  0
ARC
  5
1E504
  8
0
 10
3305.3494023234120505
 20
164.6321467151489912
 30
0.0
 40
0.0389212981204972
 50
37.1681639777221235
 51
71.396471487357573
  0
ARC
  5
1E505
  8
0
 10
3305.3270330014820502
 20
164.846285157500887
 30
0.0
 40
0.1979579711658759
 50
278.8987212511535745
 51
285.6449448955215189
  0
ARC
  5
1E506
  8
0
 10
3305.2127866934420126
 20
164.6355355664827869
 30
0.0
 40
0.0492299518535129
 50
93.3710121956104047
 51
124.029942917526995
  0
ARC
  5
1E507
  8
0
 10
3305.2216392351460854
 20
164.7177147972759883
 30
0.0
 40
0.0551134093629392
 50
228.6612909053530984
 51
253.6506707807544103
  0
ARC
  5
1E508
  8
0
 10
3305.2612050546099454
 20
164.5240849729688932
 30
0.0
 40
0.091956116629597
 50
64.9809760959813048
 51
101.4409572179665986
  0
ARC
  5
1E509
  8
0
 10
3305.2846252249569261
 20
164.7208126848657912
 30
0.0
 40
0.1144503946470997
 50
248.6536985919528888
 51
277.7682347219945882
  0
LINE
  5
1E50A
  8
0
 10
3305.7335067893459382
 20
164.5211085702227933
 30
0.0
 11
3305.7204474354498416
 21
164.4628934545393975
 31
0.0
  0
ARC
  5
1E50B
  8
0
 10
3305.7042227762940456
 20
164.4711285574915962
 30
0.0
 40
0.0181949576902993
 50
290.1051342130382977
 51
333.0891500843010249
  0
ARC
  5
1E50C
  8
0
 10
3305.6887373228569231
 20
164.517945833198894
 30
0.0
 40
0.0675002086693982
 50
270.9633420845908063
 51
288.7882151162518198
  0
ARC
  5
1E50D
  8
0
 10
3305.6787854054878153
 20
164.7598462341316008
 30
0.0
 40
0.3095896480150382
 50
252.1511296973222898
 51
272.0522696647147995
  0
ARC
  5
1E50E
  8
0
 10
3305.6173077718631248
 20
164.5237144623881989
 30
0.0
 40
0.0674194691817156
 50
231.6635395935857957
 51
240.2899259988373046
  0
ARC
  5
1E50F
  8
0
 10
3305.5852802978110958
 20
164.4808995640308069
 30
0.0
 40
0.0140438403945994
 50
170.6008714632324939
 51
225.7972434477950969
  0
LINE
  5
1E510
  8
0
 10
3305.5714250009500574
 20
164.4831930770394024
 30
0.0
 11
3305.5815797909499452
 21
164.5367545788394068
 31
0.0
  0
ARC
  5
1E511
  8
0
 10
3305.6228967773799923
 20
164.1925045144184026
 30
0.0
 40
0.3467206371677323
 50
71.3964714873570756
 51
96.8439184307533338
  0
ARC
  5
1E512
  8
0
 10
3305.7210902072638419
 20
164.4842209579821883
 30
0.0
 40
0.0389212981204972
 50
37.1681639777221235
 51
71.396471487357573
  0
ARC
  5
1E513
  8
0
 10
3305.6987208853352058
 20
164.6983594003341125
 30
0.0
 40
0.1979579711658759
 50
278.8987212511535745
 51
285.6449448955215189
  0
ARC
  5
1E514
  8
0
 10
3305.584474577293804
 20
164.4876098093158987
 30
0.0
 40
0.0492299518535129
 50
93.3710121956104047
 51
124.029942917526995
  0
ARC
  5
1E515
  8
0
 10
3305.5933271189987863
 20
164.5697890401091001
 30
0.0
 40
0.0551134093629392
 50
228.6612909053530984
 51
253.6506707807544103
  0
ARC
  5
1E516
  8
0
 10
3305.6328929384621915
 20
164.3761592158020051
 30
0.0
 40
0.091956116629597
 50
64.9809760959813048
 51
101.4409572179665986
  0
ARC
  5
1E517
  8
0
 10
3305.6563131088091723
 20
164.572886927698903
 30
0.0
 40
0.1144503946470997
 50
248.6536985919528888
 51
277.7682347219945882
  0
LINE
  5
1E518
  8
0
 10
3305.9987974183482038
 20
164.2817769032245963
 30
0.0
 11
3305.9857380644521072
 21
164.2235617875413141
 31
0.0
  0
ARC
  5
1E519
  8
0
 10
3305.9695134052958565
 20
164.2317968904935128
 30
0.0
 40
0.0181949576902993
 50
290.1051342130382977
 51
333.0891500843010249
  0
ARC
  5
1E51A
  8
0
 10
3305.9540279518591888
 20
164.2786141662008106
 30
0.0
 40
0.0675002086693982
 50
270.9633420845908063
 51
288.7882151162518198
  0
ARC
  5
1E51B
  8
0
 10
3305.9440760344900809
 20
164.520514567133489
 30
0.0
 40
0.3095896480150382
 50
252.1511296973222898
 51
272.0522696647147995
  0
ARC
  5
1E51C
  8
0
 10
3305.8825984008649357
 20
164.284382795390087
 30
0.0
 40
0.0674194691817156
 50
231.6635395935857957
 51
240.2899259988373046
  0
ARC
  5
1E51D
  8
0
 10
3305.8505709268129067
 20
164.2415678970326951
 30
0.0
 40
0.0140438403945994
 50
170.6008714632324939
 51
225.7972434477950969
  0
LINE
  5
1E51E
  8
0
 10
3305.8367156299518683
 20
164.2438614100412906
 30
0.0
 11
3305.8468704199508466
 21
164.297422911841295
 31
0.0
  0
ARC
  5
1E51F
  8
0
 10
3305.8881874063818032
 20
163.9531728474202907
 30
0.0
 40
0.3467206371677323
 50
71.3964714873570756
 51
96.8439184307533338
  0
ARC
  5
1E520
  8
0
 10
3305.9863808362661075
 20
164.2448892909841049
 30
0.0
 40
0.0389212981204972
 50
37.1681639777221235
 51
71.396471487357573
  0
ARC
  5
1E521
  8
0
 10
3305.9640115143370167
 20
164.4590277333360007
 30
0.0
 40
0.1979579711658759
 50
278.8987212511535745
 51
285.6449448955215189
  0
ARC
  5
1E522
  8
0
 10
3305.8497652062969792
 20
164.2482781423177869
 30
0.0
 40
0.0492299518535129
 50
93.3710121956104047
 51
124.029942917526995
  0
ARC
  5
1E523
  8
0
 10
3305.8586177480001425
 20
164.3304573731109883
 30
0.0
 40
0.0551134093629392
 50
228.6612909053530984
 51
253.6506707807544103
  0
ARC
  5
1E524
  8
0
 10
3305.8981835674640024
 20
164.1368275488038933
 30
0.0
 40
0.091956116629597
 50
64.9809760959813048
 51
101.4409572179665986
  0
ARC
  5
1E525
  8
0
 10
3305.9216037378109831
 20
164.3335552607007912
 30
0.0
 40
0.1144503946470997
 50
248.6536985919528888
 51
277.7682347219945882
  0
LINE
  5
1E526
  8
0
 10
3305.9118071477219019
 20
164.1873790707126091
 30
0.0
 11
3305.8987477938248958
 21
164.1291639550292132
 31
0.0
  0
ARC
  5
1E527
  8
0
 10
3305.8825231346700093
 20
164.1373990579814119
 30
0.0
 40
0.0181949576902993
 50
290.1051342130382977
 51
333.0891500843010249
  0
ARC
  5
1E528
  8
0
 10
3305.8670376812319773
 20
164.1842163336887097
 30
0.0
 40
0.0675002086693982
 50
270.9633420845908063
 51
288.7882151162518198
  0
ARC
  5
1E529
  8
0
 10
3305.857085763863779
 20
164.4261167346215018
 30
0.0
 40
0.3095896480150382
 50
252.1511296973222898
 51
272.0522696647147995
  0
ARC
  5
1E52A
  8
0
 10
3305.7956081302390885
 20
164.1899849628779862
 30
0.0
 40
0.0674194691817156
 50
231.6635395935857957
 51
240.2899259988373046
  0
ARC
  5
1E52B
  8
0
 10
3305.7635806561870595
 20
164.1471700645207079
 30
0.0
 40
0.0140438403945994
 50
170.6008714632324939
 51
225.7972434477950969
  0
LINE
  5
1E52C
  8
0
 10
3305.7497253593251116
 20
164.1494635775291897
 30
0.0
 11
3305.7598801493259089
 21
164.2030250793291941
 31
0.0
  0
ARC
  5
1E52D
  8
0
 10
3305.801197135755956
 20
163.8587750149081899
 30
0.0
 40
0.3467206371677323
 50
71.3964714873570756
 51
96.8439184307533338
  0
ARC
  5
1E52E
  8
0
 10
3305.8993905656398056
 20
164.1504914584720041
 30
0.0
 40
0.0389212981204972
 50
37.1681639777221235
 51
71.396471487357573
  0
ARC
  5
1E52F
  8
0
 10
3305.8770212437098053
 20
164.3646299008238998
 30
0.0
 40
0.1979579711658759
 50
278.8987212511535745
 51
285.6449448955215189
  0
ARC
  5
1E530
  8
0
 10
3305.762774935671132
 20
164.153880309805686
 30
0.0
 40
0.0492299518535129
 50
93.3710121956104047
 51
124.029942917526995
  0
ARC
  5
1E531
  8
0
 10
3305.7716274773738405
 20
164.2360595405988875
 30
0.0
 40
0.0551134093629392
 50
228.6612909053530984
 51
253.6506707807544103
  0
ARC
  5
1E532
  8
0
 10
3305.8111932968381552
 20
164.0424297162917924
 30
0.0
 40
0.091956116629597
 50
64.9809760959813048
 51
101.4409572179665986
  0
ARC
  5
1E533
  8
0
 10
3305.834613467185136
 20
164.2391574281886903
 30
0.0
 40
0.1144503946470997
 50
248.6536985919528888
 51
277.7682347219945882
  0
LINE
  5
1E534
  8
0
 10
3305.8071472991550763
 20
164.1184531526014894
 30
0.0
 11
3305.7940879452589797
 21
164.0602380369180935
 31
0.0
  0
ARC
  5
1E535
  8
0
 10
3305.7778632861031838
 20
164.0684731398702922
 30
0.0
 40
0.0181949576902993
 50
290.1051342130382977
 51
333.0891500843010249
  0
ARC
  5
1E536
  8
0
 10
3305.7623778326651518
 20
164.11529041557759
 30
0.0
 40
0.0675002086693982
 50
270.9633420845908063
 51
288.7882151162518198
  0
ARC
  5
1E537
  8
0
 10
3305.752425915296044
 20
164.3571908165104105
 30
0.0
 40
0.3095896480150382
 50
252.1511296973222898
 51
272.0522696647147995
  0
ARC
  5
1E538
  8
0
 10
3305.6909482816718082
 20
164.1210590447668949
 30
0.0
 40
0.0674194691817156
 50
231.6635395935857957
 51
240.2899259988373046
  0
ARC
  5
1E539
  8
0
 10
3305.6589208076197792
 20
164.0782441464095882
 30
0.0
 40
0.0140438403945994
 50
170.6008714632324939
 51
225.7972434477950969
  0
LINE
  5
1E53A
  8
0
 10
3305.6450655107578314
 20
164.0805376594180984
 30
0.0
 11
3305.6552203007590833
 21
164.1340991612181028
 31
0.0
  0
ARC
  5
1E53B
  8
0
 10
3305.6965372871891304
 20
163.7898490967970986
 30
0.0
 40
0.3467206371677323
 50
71.3964714873570756
 51
74.8945096157821837
  0
ARC
  5
1E53C
  8
0
 10
3305.6965372871891304
 20
163.7898490967970986
 30
0.0
 40
0.3467206371677323
 50
76.7820075407552309
 51
96.8439184307533338
  0
ARC
  5
1E53D
  8
0
 10
3305.79473071707298
 20
164.0815655403609128
 30
0.0
 40
0.0389212981204972
 50
37.1681639777221235
 51
71.396471487357573
  0
ARC
  5
1E53E
  8
0
 10
3305.7723613951438892
 20
164.2957039827128085
 30
0.0
 40
0.1979579711658759
 50
278.8987212511535745
 51
285.6449448955215189
  0
ARC
  5
1E53F
  8
0
 10
3305.6581150871038517
 20
164.0849543916945947
 30
0.0
 40
0.0492299518535129
 50
93.3710121956104047
 51
124.029942917526995
  0
ARC
  5
1E540
  8
0
 10
3305.6669676288079245
 20
164.1671336224879099
 30
0.0
 40
0.0551134093629392
 50
228.6612909053530984
 51
253.6506707807544103
  0
ARC
  5
1E541
  8
0
 10
3305.7065334482708749
 20
163.9735037981807011
 30
0.0
 40
0.091956116629597
 50
64.9809760959813048
 51
101.4409572179665986
  0
ARC
  5
1E542
  8
0
 10
3305.7299536186169462
 20
164.1702315100775991
 30
0.0
 40
0.1144503946470997
 50
248.6536985919528888
 51
277.7682347219945882
  0
LINE
  5
1E543
  8
0
 10
3303.837000638076006
 20
164.7032494084564007
 30
0.0
 11
3303.826244845860856
 21
164.6541481972519989
 31
0.0
  0
ARC
  5
1E544
  8
0
 10
3303.8152284109860375
 20
164.6565613858793995
 30
0.0
 40
0.0112776467717765
 50
285.0868394479322205
 51
347.6443185570154242
  0
LINE
  5
1E545
  8
0
 10
3303.8181637877619323
 20
164.645672452051997
 30
0.0
 11
3303.7850485669741829
 21
164.6297346719620123
 31
0.0
  0
ARC
  5
1E546
  8
0
 10
3303.7809886375821407
 20
164.6412477024607881
 30
0.0
 40
0.0122079030930635
 50
261.5116354381015071
 51
289.4245750068247958
  0
LINE
  5
1E547
  8
0
 10
3303.7791866465609019
 20
164.6291735264520071
 30
0.0
 11
3303.6921829875359435
 21
164.642096828360593
 31
0.0
  0
ARC
  5
1E548
  8
0
 10
3303.6923233176148642
 20
164.6462471328910908
 30
0.0
 40
0.0041526762729112
 50
236.9318640130209985
 51
268.0634531170675814
  0
LINE
  5
1E549
  8
0
 10
3303.6900574679671081
 20
164.6427670976038087
 30
0.0
 11
3303.635148853561077
 21
164.6714582052520086
 31
0.0
  0
ARC
  5
1E54A
  8
0
 10
3303.6389852903680548
 20
164.6825053896870088
 30
0.0
 40
0.011694380330458
 50
173.1604733287830982
 51
250.8490444349475865
  0
LINE
  5
1E54B
  8
0
 10
3303.6273741320610497
 20
164.6838980612519947
 30
0.0
 11
3303.6377897458619373
 21
164.7371038129520002
 31
0.0
  0
LINE
  5
1E54C
  8
0
 10
3303.8357670202340159
 20
164.6976178260501058
 30
0.0
 11
3303.8416475034910036
 21
164.7004870757133972
 31
0.0
  0
LINE
  5
1E54D
  8
0
 10
3303.8416475034910036
 20
164.7004870757133972
 30
0.0
 11
3303.837000638076006
 21
164.7032494084564007
 31
0.0
  0
LINE
  5
1E54E
  8
0
 10
3303.837000638076006
 20
164.7032494084564007
 30
0.0
 11
3303.7864957308611338
 21
164.7303010089520114
 31
0.0
  0
ARC
  5
1E54F
  8
0
 10
3303.6527027440019992
 20
164.3247805765635121
 30
0.0
 40
0.4270215268780924
 50
71.7407740332941017
 51
73.5110652912982516
  0
ARC
  5
1E550
  8
0
 10
3303.7600023599738961
 20
164.6842649807693988
 30
0.0
 40
0.0518732424380989
 50
74.4547719144873241
 51
80.0475482544664203
  0
LINE
  5
1E551
  8
0
 10
3303.768967656661971
 20
164.7353576097519863
 30
0.0
 11
3303.6722858723610443
 21
164.748487293951996
 31
0.0
  0
ARC
  5
1E552
  8
0
 10
3303.667627739343061
 20
164.7042016053167117
 30
0.0
 40
0.0445299270726836
 50
83.9960273795957164
 51
100.8520499434877991
  0
LINE
  5
1E553
  8
0
 10
3303.6592439301548438
 20
164.7479351867912953
 30
0.0
 11
3303.6377897458619373
 21
164.7371038129520002
 31
0.0
  0
LINE
  5
1E554
  8
0
 10
3303.6377897458619373
 20
164.7371038129520002
 30
0.0
 11
3303.6161742444610354
 21
164.7255477523520142
 31
0.0
  0
LINE
  5
1E555
  8
0
 10
3303.6161742444610354
 20
164.7255477523520142
 30
0.0
 11
3303.6333277466569598
 21
164.7143107230463954
 31
0.0
  0
ARC
  5
1E556
  8
0
 10
3303.715193821271896
 20
164.6123476889056008
 30
0.0
 40
0.05386432129982
 50
47.8497641336587023
 51
109.3877271831264011
  0
ARC
  5
1E557
  8
0
 10
3303.7343023158809956
 20
164.7072756374863047
 30
0.0
 40
0.057572652638504
 50
230.0230205032212893
 51
287.2144927141520157
  0
LINE
  5
1E558
  8
0
 10
3303.8262507265608292
 20
164.6541449411519977
 30
0.0
 11
3303.7697775398200974
 21
164.685114118780092
 31
0.0
  0
LINE
  5
1E559
  8
0
 10
3303.7697775398200974
 20
164.685114118780092
 30
0.0
 11
3303.6707267027190937
 21
164.7018252073800966
 31
0.0
  0
LINE
  5
1E55A
  8
0
 10
3303.6707267027190937
 20
164.7018252073800966
 30
0.0
 11
3303.6273741320610497
 21
164.6838980612519947
 31
0.0
  0
LINE
  5
1E55B
  8
0
 10
3303.769786780629147
 20
164.6851090512375038
 30
0.0
 11
3303.7797708642710859
 21
164.7324582399552924
 31
0.0
  0
LINE
  5
1E55C
  8
0
 10
3303.6799111016180177
 20
164.7474517643244099
 30
0.0
 11
3303.6707267027190937
 21
164.7018252073800966
 31
0.0
  0
LINE
  5
1E55D
  8
0
 10
3304.080154058979133
 20
164.6585692628462141
 30
0.0
 11
3304.069398266763983
 21
164.6094680516416986
 31
0.0
  0
ARC
  5
1E55E
  8
0
 10
3304.0583818318891645
 20
164.6118812402690992
 30
0.0
 40
0.0112776467717765
 50
285.0868394479322205
 51
347.6443185570154242
  0
LINE
  5
1E55F
  8
0
 10
3304.0613172086641498
 20
164.6009923064416967
 30
0.0
 11
3304.0282019878759456
 21
164.5850545263517972
 31
0.0
  0
ARC
  5
1E560
  8
0
 10
3304.0241420584839034
 20
164.5965675568504878
 30
0.0
 40
0.0122079030930635
 50
261.5116354381015071
 51
289.4245750068247958
  0
LINE
  5
1E561
  8
0
 10
3304.0223400674640288
 20
164.5844933808417068
 30
0.0
 11
3303.935336408438161
 21
164.5974166827502927
 31
0.0
  0
ARC
  5
1E562
  8
0
 10
3303.9354767385170817
 20
164.6015669872809042
 30
0.0
 40
0.0041526762729112
 50
236.9318640130209985
 51
268.0634531170675814
  0
LINE
  5
1E563
  8
0
 10
3303.9332108888697803
 20
164.5980869519935084
 30
0.0
 11
3303.8783022744642039
 21
164.6267780596417083
 31
0.0
  0
ARC
  5
1E564
  8
0
 10
3303.8821387112711818
 20
164.6378252440767085
 30
0.0
 40
0.011694380330458
 50
173.1604733287830982
 51
250.8490444349475865
  0
LINE
  5
1E565
  8
0
 10
3303.8705275529641767
 20
164.6392179156416944
 30
0.0
 11
3303.8809431667641547
 21
164.6924236673416999
 31
0.0
  0
LINE
  5
1E566
  8
0
 10
3304.0789204411380524
 20
164.6529376804398055
 30
0.0
 11
3304.0848009243950401
 21
164.6558069301032106
 31
0.0
  0
LINE
  5
1E567
  8
0
 10
3304.0848009243950401
 20
164.6558069301032106
 30
0.0
 11
3304.080154058979133
 21
164.6585692628462141
 31
0.0
  0
LINE
  5
1E568
  8
0
 10
3304.080154058979133
 20
164.6585692628462141
 30
0.0
 11
3304.029649151763806
 21
164.6856208633417111
 31
0.0
  0
ARC
  5
1E569
  8
0
 10
3303.8958561649042167
 20
164.2801004309532971
 30
0.0
 40
0.4270215268780924
 50
71.7407740332941017
 51
73.5110652912982516
  0
ARC
  5
1E56A
  8
0
 10
3304.0031557808761136
 20
164.6395848351592122
 30
0.0
 40
0.0518732424380989
 50
74.4547719144873241
 51
80.0475482544664203
  0
LINE
  5
1E56B
  8
0
 10
3304.0121210775641885
 20
164.690677464141686
 30
0.0
 11
3303.9154392932641713
 21
164.7038071483416957
 31
0.0
  0
ARC
  5
1E56C
  8
0
 10
3303.9107811602461879
 20
164.6595214597064967
 30
0.0
 40
0.0445299270726836
 50
83.9960273795957164
 51
100.8520499434877991
  0
LINE
  5
1E56D
  8
0
 10
3303.9023973510579708
 20
164.703255041180995
 30
0.0
 11
3303.8809431667641547
 21
164.6924236673416999
 31
0.0
  0
LINE
  5
1E56E
  8
0
 10
3303.8809431667641547
 20
164.6924236673416999
 30
0.0
 11
3303.8593276653641624
 21
164.6808676067417139
 31
0.0
  0
LINE
  5
1E56F
  8
0
 10
3303.8593276653641624
 20
164.6808676067417139
 30
0.0
 11
3303.8764811675591773
 21
164.6696305774360951
 31
0.0
  0
ARC
  5
1E570
  8
0
 10
3303.9583472421759325
 20
164.5676675432953004
 30
0.0
 40
0.05386432129982
 50
47.8497641336587023
 51
109.3877271831264011
  0
ARC
  5
1E571
  8
0
 10
3303.9774557367832131
 20
164.6625954918760897
 30
0.0
 40
0.057572652638504
 50
230.0230205032212893
 51
287.2144927141520157
  0
LINE
  5
1E572
  8
0
 10
3304.0694041474639562
 20
164.6094647955416974
 30
0.0
 11
3304.0129309607218602
 21
164.6404339731697917
 31
0.0
  0
LINE
  5
1E573
  8
0
 10
3304.0129309607218602
 20
164.6404339731697917
 30
0.0
 11
3303.9138801236222207
 21
164.6571450617697963
 31
0.0
  0
LINE
  5
1E574
  8
0
 10
3303.9138801236222207
 20
164.6571450617697963
 30
0.0
 11
3303.8705275529641767
 21
164.6392179156416944
 31
0.0
  0
LINE
  5
1E575
  8
0
 10
3304.0129402015318192
 20
164.6404289056272887
 30
0.0
 11
3304.0229242851742129
 21
164.6877780943451057
 31
0.0
  0
LINE
  5
1E576
  8
0
 10
3303.9230645225211447
 20
164.7027716187141095
 30
0.0
 11
3303.9138801236222207
 21
164.6571450617697963
 31
0.0
  0
LINE
  5
1E577
  8
0
 10
3304.3141720760140743
 20
164.6234499811847058
 30
0.0
 11
3304.3034162837980148
 21
164.574348769980304
 31
0.0
  0
ARC
  5
1E578
  8
0
 10
3304.2923998489231963
 20
164.5767619586077046
 30
0.0
 40
0.0112776467717765
 50
285.0868394479322205
 51
347.6443185570154242
  0
LINE
  5
1E579
  8
0
 10
3304.2953352256981816
 20
164.5658730247803021
 30
0.0
 11
3304.2622200049099774
 21
164.5499352446904027
 31
0.0
  0
ARC
  5
1E57A
  8
0
 10
3304.2581600755188447
 20
164.5614482751890932
 30
0.0
 40
0.0122079030930635
 50
261.5116354381015071
 51
289.4245750068247958
  0
LINE
  5
1E57B
  8
0
 10
3304.2563580844989701
 20
164.5493740991803122
 30
0.0
 11
3304.1693544254740118
 21
164.5622974010888981
 31
0.0
  0
ARC
  5
1E57C
  8
0
 10
3304.1694947555511135
 20
164.5664477056195096
 30
0.0
 40
0.0041526762729112
 50
236.9318640130209985
 51
268.0634531170675814
  0
LINE
  5
1E57D
  8
0
 10
3304.1672289059038121
 20
164.5629676703321991
 30
0.0
 11
3304.112320291497781
 21
164.5916587779803137
 31
0.0
  0
ARC
  5
1E57E
  8
0
 10
3304.1161567283052136
 20
164.6027059624153139
 30
0.0
 40
0.011694380330458
 50
173.1604733287830982
 51
250.8490444349475865
  0
LINE
  5
1E57F
  8
0
 10
3304.1045455699982085
 20
164.6040986339802998
 30
0.0
 11
3304.1149611837981865
 21
164.6573043856803054
 31
0.0
  0
LINE
  5
1E580
  8
0
 10
3304.3129384581720842
 20
164.6178183987784109
 30
0.0
 11
3304.3188189414290719
 21
164.6206876484417023
 31
0.0
  0
LINE
  5
1E581
  8
0
 10
3304.3188189414290719
 20
164.6206876484417023
 30
0.0
 11
3304.3141720760140743
 21
164.6234499811847058
 31
0.0
  0
LINE
  5
1E582
  8
0
 10
3304.3141720760140743
 20
164.6234499811847058
 30
0.0
 11
3304.263667168799202
 21
164.6505015816802882
 31
0.0
  0
ARC
  5
1E583
  8
0
 10
3304.129874181939158
 20
164.2449811492919025
 30
0.0
 40
0.4270215268780924
 50
71.7407740332941017
 51
73.5110652912982516
  0
ARC
  5
1E584
  8
0
 10
3304.2371737979110549
 20
164.6044655534977892
 30
0.0
 40
0.0518732424380989
 50
74.4547719144873241
 51
80.0475482544664203
  0
LINE
  5
1E585
  8
0
 10
3304.2461390945982203
 20
164.6555581824802914
 30
0.0
 11
3304.1494573102982031
 21
164.6686878666803011
 31
0.0
  0
ARC
  5
1E586
  8
0
 10
3304.1447991772811292
 20
164.6244021780451021
 30
0.0
 40
0.0445299270726836
 50
83.9960273795957164
 51
100.8520499434877991
  0
LINE
  5
1E587
  8
0
 10
3304.1364153680920026
 20
164.6681357595196005
 30
0.0
 11
3304.1149611837981865
 21
164.6573043856803054
 31
0.0
  0
LINE
  5
1E588
  8
0
 10
3304.1149611837981865
 20
164.6573043856803054
 30
0.0
 11
3304.0933456823991037
 21
164.6457483250802909
 31
0.0
  0
LINE
  5
1E589
  8
0
 10
3304.0933456823991037
 20
164.6457483250802909
 30
0.0
 11
3304.1104991845941186
 21
164.6345112957747006
 31
0.0
  0
ARC
  5
1E58A
  8
0
 10
3304.1923652592099643
 20
164.5325482616339059
 30
0.0
 40
0.05386432129982
 50
47.8497641336587023
 51
109.3877271831264011
  0
ARC
  5
1E58B
  8
0
 10
3304.2114737538167901
 20
164.6274762102146951
 30
0.0
 40
0.057572652638504
 50
230.0230205032212893
 51
287.2144927141520157
  0
LINE
  5
1E58C
  8
0
 10
3304.3034221644988975
 20
164.5743455138803029
 30
0.0
 11
3304.2469489777568015
 21
164.6053146915083971
 31
0.0
  0
LINE
  5
1E58D
  8
0
 10
3304.2469489777568015
 20
164.6053146915083971
 30
0.0
 11
3304.147898140657162
 21
164.6220257801084017
 31
0.0
  0
LINE
  5
1E58E
  8
0
 10
3304.147898140657162
 20
164.6220257801084017
 30
0.0
 11
3304.1045455699982085
 21
164.6040986339802998
 31
0.0
  0
LINE
  5
1E58F
  8
0
 10
3304.246958218565851
 20
164.6053096239658942
 30
0.0
 11
3304.2569423022077899
 21
164.6526588126837112
 31
0.0
  0
LINE
  5
1E590
  8
0
 10
3304.157082539556086
 20
164.6676523370526866
 30
0.0
 11
3304.147898140657162
 21
164.6220257801084017
 31
0.0
  0
LINE
  5
1E591
  8
0
 10
3304.507328156073072
 20
164.5387077526092128
 30
0.0
 11
3304.496572363857922
 21
164.489606541404811
 31
0.0
  0
ARC
  5
1E592
  8
0
 10
3304.4855559289831035
 20
164.4920197300322116
 30
0.0
 40
0.0112776467717765
 50
285.0868394479322205
 51
347.6443185570154242
  0
LINE
  5
1E593
  8
0
 10
3304.4884913057580889
 20
164.481130796204809
 30
0.0
 11
3304.4553760849698847
 21
164.4651930161149096
 31
0.0
  0
ARC
  5
1E594
  8
0
 10
3304.4513161555778424
 20
164.4767060466136002
 30
0.0
 40
0.0122079030930635
 50
261.5116354381015071
 51
289.4245750068247958
  0
LINE
  5
1E595
  8
0
 10
3304.4495141645579679
 20
164.4646318706047907
 30
0.0
 11
3304.3625105055330096
 21
164.4775551725134051
 31
0.0
  0
ARC
  5
1E596
  8
0
 10
3304.3626508356110207
 20
164.4817054770439881
 30
0.0
 40
0.0041526762729112
 50
236.9318640130209985
 51
268.0634531170675814
  0
LINE
  5
1E597
  8
0
 10
3304.3603849859641741
 20
164.4782254417565923
 30
0.0
 11
3304.305476371558143
 21
164.5069165494047922
 31
0.0
  0
ARC
  5
1E598
  8
0
 10
3304.3093128083651209
 20
164.5179637338397924
 30
0.0
 40
0.011694380330458
 50
173.1604733287830982
 51
250.8490444349475865
  0
LINE
  5
1E599
  8
0
 10
3304.2977016500581158
 20
164.5193564054048068
 30
0.0
 11
3304.3081172638580938
 21
164.5725621571048123
 31
0.0
  0
LINE
  5
1E59A
  8
0
 10
3304.506094538231082
 20
164.5330761702028894
 30
0.0
 11
3304.5119750214880696
 21
164.5359454198662092
 31
0.0
  0
LINE
  5
1E59B
  8
0
 10
3304.5119750214880696
 20
164.5359454198662092
 30
0.0
 11
3304.507328156073072
 21
164.5387077526092128
 31
0.0
  0
LINE
  5
1E59C
  8
0
 10
3304.507328156073072
 20
164.5387077526092128
 30
0.0
 11
3304.4568232488581998
 21
164.5657593531047951
 31
0.0
  0
ARC
  5
1E59D
  8
0
 10
3304.3230302619981558
 20
164.1602389207164094
 30
0.0
 40
0.4270215268780924
 50
71.7407740332941017
 51
73.5110652912982516
  0
ARC
  5
1E59E
  8
0
 10
3304.4303298779700526
 20
164.5197233249222108
 30
0.0
 40
0.0518732424380989
 50
74.4547719144873241
 51
80.0475482544664203
  0
LINE
  5
1E59F
  8
0
 10
3304.4392951746581275
 20
164.5708159539047983
 30
0.0
 11
3304.3426133903581103
 21
164.583945638104808
 31
0.0
  0
ARC
  5
1E5A0
  8
0
 10
3304.337955257340127
 20
164.5396599494694954
 30
0.0
 40
0.0445299270726836
 50
83.9960273795957164
 51
100.8520499434877991
  0
LINE
  5
1E5A1
  8
0
 10
3304.3295714481519099
 20
164.5833935309441074
 30
0.0
 11
3304.3081172638580938
 21
164.5725621571048123
 31
0.0
  0
LINE
  5
1E5A2
  8
0
 10
3304.3081172638580938
 20
164.5725621571048123
 30
0.0
 11
3304.2865017624581014
 21
164.5610060965047978
 31
0.0
  0
LINE
  5
1E5A3
  8
0
 10
3304.2865017624581014
 20
164.5610060965047978
 30
0.0
 11
3304.3036552646540258
 21
164.5497690671992075
 31
0.0
  0
ARC
  5
1E5A4
  8
0
 10
3304.385521339268962
 20
164.4478060330584128
 30
0.0
 40
0.05386432129982
 50
47.8497641336587023
 51
109.3877271831264011
  0
ARC
  5
1E5A5
  8
0
 10
3304.4046298338771521
 20
164.5427339816390884
 30
0.0
 40
0.057572652638504
 50
230.0230205032212893
 51
287.2144927141520157
  0
LINE
  5
1E5A6
  8
0
 10
3304.4965782445578952
 20
164.4896032853048098
 30
0.0
 11
3304.4401050578171635
 21
164.520572462932904
 31
0.0
  0
LINE
  5
1E5A7
  8
0
 10
3304.4401050578171635
 20
164.520572462932904
 30
0.0
 11
3304.3410542207161598
 21
164.5372835515329086
 31
0.0
  0
LINE
  5
1E5A8
  8
0
 10
3304.3410542207161598
 20
164.5372835515329086
 30
0.0
 11
3304.2977016500581158
 21
164.5193564054048068
 31
0.0
  0
LINE
  5
1E5A9
  8
0
 10
3304.440114298626213
 20
164.5205673953904011
 30
0.0
 11
3304.4500983822667877
 21
164.5679165841081044
 31
0.0
  0
LINE
  5
1E5AA
  8
0
 10
3304.3502386196150837
 20
164.5829101084771935
 30
0.0
 11
3304.3410542207161598
 21
164.5372835515329086
 31
0.0
  0
LINE
  5
1E5AB
  8
0
 10
3304.3460184473819936
 20
164.4221256330141898
 30
0.0
 11
3304.3352626551668436
 21
164.3730244218097027
 31
0.0
  0
ARC
  5
1E5AC
  8
0
 10
3304.3242462202920251
 20
164.3754376104371033
 30
0.0
 40
0.0112776467717765
 50
285.0868394479322205
 51
347.6443185570154242
  0
LINE
  5
1E5AD
  8
0
 10
3304.3271815970670104
 20
164.3645486766097008
 30
0.0
 11
3304.2940663762788063
 21
164.3486108965198014
 31
0.0
  0
ARC
  5
1E5AE
  8
0
 10
3304.2900064468872188
 20
164.3601239270184919
 30
0.0
 40
0.0122079030930635
 50
261.5116354381015071
 51
289.4245750068247958
  0
LINE
  5
1E5AF
  8
0
 10
3304.2882044558668895
 20
164.3480497510097109
 30
0.0
 11
3304.2012007968419312
 21
164.3609730529182968
 31
0.0
  0
ARC
  5
1E5B0
  8
0
 10
3304.2013411269199423
 20
164.3651233574489083
 30
0.0
 40
0.0041526762729112
 50
236.9318640130209985
 51
268.0634531170675814
  0
LINE
  5
1E5B1
  8
0
 10
3304.1990752772730957
 20
164.3616433221615125
 30
0.0
 11
3304.1441666628670646
 21
164.3903344298097124
 31
0.0
  0
ARC
  5
1E5B2
  8
0
 10
3304.1480030996740425
 20
164.4013816142447979
 30
0.0
 40
0.011694380330458
 50
173.1604733287830982
 51
250.8490444349475865
  0
LINE
  5
1E5B3
  8
0
 10
3304.1363919413670374
 20
164.4027742858096985
 30
0.0
 11
3304.1468075551670154
 21
164.4559800375097041
 31
0.0
  0
LINE
  5
1E5B4
  8
0
 10
3304.3447848295400036
 20
164.4164940506078949
 30
0.0
 11
3304.3506653127979007
 21
164.4193633002711863
 31
0.0
  0
LINE
  5
1E5B5
  8
0
 10
3304.3506653127979007
 20
164.4193633002711863
 30
0.0
 11
3304.3460184473819936
 21
164.4221256330141898
 31
0.0
  0
LINE
  5
1E5B6
  8
0
 10
3304.3460184473819936
 20
164.4221256330141898
 30
0.0
 11
3304.2955135401671214
 21
164.4491772335098005
 31
0.0
  0
ARC
  5
1E5B7
  8
0
 10
3304.1617205533079868
 20
164.0436568011213012
 30
0.0
 40
0.4270215268780924
 50
71.7407740332941017
 51
73.5110652912982516
  0
ARC
  5
1E5B8
  8
0
 10
3304.2690201692789742
 20
164.4031412053271879
 30
0.0
 40
0.0518732424380989
 50
74.4547719144873241
 51
80.0475482544664203
  0
LINE
  5
1E5B9
  8
0
 10
3304.2779854659670491
 20
164.4542338343096901
 30
0.0
 11
3304.1813036816670319
 21
164.4673635185096998
 31
0.0
  0
ARC
  5
1E5BA
  8
0
 10
3304.1766455486490486
 20
164.4230778298745008
 30
0.0
 40
0.0445299270726836
 50
83.9960273795957164
 51
100.8520499434877991
  0
LINE
  5
1E5BB
  8
0
 10
3304.1682617394608314
 20
164.4668114113489992
 30
0.0
 11
3304.1468075551670154
 21
164.4559800375097041
 31
0.0
  0
LINE
  5
1E5BC
  8
0
 10
3304.1468075551670154
 20
164.4559800375097041
 30
0.0
 11
3304.125192053767023
 21
164.4444239769096896
 31
0.0
  0
LINE
  5
1E5BD
  8
0
 10
3304.125192053767023
 20
164.4444239769096896
 30
0.0
 11
3304.1423455559629474
 21
164.4331869476040993
 31
0.0
  0
ARC
  5
1E5BE
  8
0
 10
3304.2242116305778836
 20
164.3312239134633046
 30
0.0
 40
0.05386432129982
 50
47.8497641336587023
 51
109.3877271831264011
  0
ARC
  5
1E5BF
  8
0
 10
3304.2433201251860737
 20
164.4261518620440938
 30
0.0
 40
0.057572652638504
 50
230.0230205032212893
 51
287.2144927141520157
  0
LINE
  5
1E5C0
  8
0
 10
3304.3352685358668168
 20
164.3730211657097016
 30
0.0
 11
3304.2787953491251756
 21
164.4039903433377958
 31
0.0
  0
LINE
  5
1E5C1
  8
0
 10
3304.2787953491251756
 20
164.4039903433377958
 30
0.0
 11
3304.1797445120250813
 21
164.4207014319378004
 31
0.0
  0
LINE
  5
1E5C2
  8
0
 10
3304.1797445120250813
 20
164.4207014319378004
 30
0.0
 11
3304.1363919413670374
 21
164.4027742858096985
 31
0.0
  0
LINE
  5
1E5C3
  8
0
 10
3304.2788045899351346
 20
164.4039852757952929
 30
0.0
 11
3304.2887886735770735
 21
164.4513344645131099
 31
0.0
  0
LINE
  5
1E5C4
  8
0
 10
3304.1889289109240053
 20
164.4663279888821137
 30
0.0
 11
3304.1797445120250813
 21
164.4207014319378004
 31
0.0
  0
LINE
  5
1E5C5
  8
0
 10
3303.9296950901211858
 20
164.5376067719492994
 30
0.0
 11
3303.9189392979060358
 21
164.4885055607448976
 31
0.0
  0
ARC
  5
1E5C6
  8
0
 10
3303.907922863029853
 20
164.4909187493722129
 30
0.0
 40
0.0112776467717765
 50
285.0868394479322205
 51
347.6443185570154242
  0
LINE
  5
1E5C7
  8
0
 10
3303.9108582398048384
 20
164.4800298155448957
 30
0.0
 11
3303.877743019017089
 21
164.464092035454911
 31
0.0
  0
ARC
  5
1E5C8
  8
0
 10
3303.8736830896259562
 20
164.4756050659536868
 30
0.0
 40
0.0122079030930635
 50
261.5116354381015071
 51
289.4245750068247958
  0
LINE
  5
1E5C9
  8
0
 10
3303.8718810986060817
 20
164.4635308899449058
 30
0.0
 11
3303.7848774395802138
 21
164.4764541918534064
 31
0.0
  0
ARC
  5
1E5CA
  8
0
 10
3303.7850177696591345
 20
164.4806044963839895
 30
0.0
 40
0.0041526762729112
 50
236.9318640130209985
 51
268.0634531170675814
  0
LINE
  5
1E5CB
  8
0
 10
3303.7827519200109236
 20
164.4771244610967074
 30
0.0
 11
3303.7278433056048925
 21
164.5058155687449073
 31
0.0
  0
ARC
  5
1E5CC
  8
0
 10
3303.7316797424118704
 20
164.5168627531799075
 30
0.0
 40
0.011694380330458
 50
173.1604733287830982
 51
250.8490444349475865
  0
LINE
  5
1E5CD
  8
0
 10
3303.7200685841048653
 20
164.5182554247448934
 30
0.0
 11
3303.7304841979048433
 21
164.5714611764448989
 31
0.0
  0
LINE
  5
1E5CE
  8
0
 10
3303.9284614722778315
 20
164.5319751895430045
 30
0.0
 11
3303.9343419555348191
 21
164.5348444392062959
 31
0.0
  0
LINE
  5
1E5CF
  8
0
 10
3303.9343419555348191
 20
164.5348444392062959
 30
0.0
 11
3303.9296950901211858
 21
164.5376067719492994
 31
0.0
  0
LINE
  5
1E5D0
  8
0
 10
3303.9296950901211858
 20
164.5376067719492994
 30
0.0
 11
3303.8791901829049493
 21
164.5646583724449101
 31
0.0
  0
ARC
  5
1E5D1
  8
0
 10
3303.7453971960449053
 20
164.1591379400564961
 30
0.0
 40
0.4270215268780924
 50
71.7407740332941017
 51
73.5110652912982516
  0
ARC
  5
1E5D2
  8
0
 10
3303.8526968120181664
 20
164.5186223442622975
 30
0.0
 40
0.0518732424380989
 50
74.4547719144873241
 51
80.0475482544664203
  0
LINE
  5
1E5D3
  8
0
 10
3303.861662108704877
 20
164.5697149732449134
 30
0.0
 11
3303.7649803244048599
 21
164.5828446574448947
 31
0.0
  0
ARC
  5
1E5D4
  8
0
 10
3303.760322191387786
 20
164.5385589688096104
 30
0.0
 40
0.0445299270726836
 50
83.9960273795957164
 51
100.8520499434877991
  0
LINE
  5
1E5D5
  8
0
 10
3303.7519383822000236
 20
164.582292550284194
 30
0.0
 11
3303.7304841979048433
 21
164.5714611764448989
 31
0.0
  0
LINE
  5
1E5D6
  8
0
 10
3303.7304841979048433
 20
164.5714611764448989
 30
0.0
 11
3303.708868696504851
 21
164.5599051158449129
 31
0.0
  0
LINE
  5
1E5D7
  8
0
 10
3303.708868696504851
 20
164.5599051158449129
 30
0.0
 11
3303.7260221987007753
 21
164.5486680865392941
 31
0.0
  0
ARC
  5
1E5D8
  8
0
 10
3303.8078882733161663
 20
164.4467050523984994
 30
0.0
 40
0.05386432129982
 50
47.8497641336587023
 51
109.3877271831264011
  0
ARC
  5
1E5D9
  8
0
 10
3303.8269967679239016
 20
164.5416330009792034
 30
0.0
 40
0.057572652638504
 50
230.0230205032212893
 51
287.2144927141520157
  0
LINE
  5
1E5DA
  8
0
 10
3303.9189451786050995
 20
164.4885023046448964
 30
0.0
 11
3303.862471991863913
 21
164.5194714822729054
 31
0.0
  0
LINE
  5
1E5DB
  8
0
 10
3303.862471991863913
 20
164.5194714822729054
 30
0.0
 11
3303.7634211547629093
 21
164.53618257087291
 31
0.0
  0
LINE
  5
1E5DC
  8
0
 10
3303.7634211547629093
 20
164.53618257087291
 30
0.0
 11
3303.7200685841048653
 21
164.5182554247448934
 31
0.0
  0
LINE
  5
1E5DD
  8
0
 10
3303.8624812326729625
 20
164.5194664147304024
 30
0.0
 11
3303.8724653163139919
 21
164.566815603448191
 31
0.0
  0
LINE
  5
1E5DE
  8
0
 10
3303.7726055536618333
 20
164.5818091278171948
 30
0.0
 11
3303.7634211547629093
 21
164.53618257087291
 31
0.0
  0
LINE
  5
1E5DF
  8
0
 10
3303.6314548706468486
 20
164.7047435695583033
 30
0.0
 11
3303.601151008197121
 21
164.7114627119196939
 31
0.0
  0
ARC
  5
1E5E0
  8
0
 10
3303.6004151130869104
 20
164.7081437668848025
 30
0.0
 40
0.0033995496402756
 50
77.4983099702699434
 51
96.5032313854229358
  0
LINE
  5
1E5E1
  8
0
 10
3303.6000300826472085
 20
164.7115214420196878
 30
0.0
 11
3303.5747201228959966
 21
164.6915299007197007
 31
0.0
  0
LINE
  5
1E5E2
  8
0
 10
3303.5747210761801398
 20
164.6915290137586112
 30
0.0
 11
3303.5902719636728762
 21
164.6812163685729899
 31
0.0
  0
LINE
  5
1E5E3
  8
0
 10
3303.5968962069919144
 20
164.709046092189908
 30
0.0
 11
3303.5902719636728762
 21
164.6812163685729899
 31
0.0
  0
LINE
  5
1E5E4
  8
0
 10
3303.5902719636728762
 20
164.6812163685729899
 30
0.0
 11
3303.5807049719091992
 21
164.6410643949224095
 31
0.0
  0
ARC
  5
1E5E5
  8
0
 10
3303.5909035359291011
 20
164.6386343878986906
 30
0.0
 40
0.0104840661107586
 50
166.5980523374799134
 51
249.2582728845266047
  0
LINE
  5
1E5E6
  8
0
 10
3303.58719054089579
 20
164.6288298323196955
 30
0.0
 11
3303.6540779396959806
 21
164.5987661644196862
 31
0.0
  0
LINE
  5
1E5E7
  8
0
 10
3303.6540779396959806
 20
164.5987661644196862
 30
0.0
 11
3303.738141932596136
 21
164.5830438184196964
 31
0.0
  0
ARC
  5
1E5E8
  8
0
 10
3303.7397756753412068
 20
164.591667058842603
 30
0.0
 40
0.0087766389209812
 50
259.2720026750944271
 51
308.8590147132247239
  0
LINE
  5
1E5E9
  8
0
 10
3303.745282192996001
 20
164.5848327590196902
 30
0.0
 11
3303.7644602665741331
 21
164.6002848760572022
 31
0.0
  0
ARC
  5
1E5EA
  8
0
 10
3303.7566370002150506
 20
164.6099945603340018
 30
0.0
 40
0.0124692207164588
 50
308.8590147132226775
 51
342.9381763116305137
  0
LINE
  5
1E5EB
  8
0
 10
3303.7685574345960049
 20
164.6063360484197062
 30
0.0
 11
3303.7746373688128187
 21
164.6298492645815941
 31
0.0
  0
LINE
  5
1E5EC
  8
0
 10
3303.5807150963960339
 20
164.6411036014197009
 30
0.0
 11
3303.6003724951137883
 21
164.6567419699399011
 31
0.0
  0
LINE
  5
1E5ED
  8
0
 10
3303.6003724951137883
 20
164.6567419699399011
 30
0.0
 11
3303.6943293957961032
 21
164.6395133975196927
 31
0.0
  0
LINE
  5
1E5EE
  8
0
 10
3303.6943293957961032
 20
164.6395133975196927
 30
0.0
 11
3303.7685574345960049
 21
164.6063360484197062
 31
0.0
  0
ARC
  5
1E5EF
  8
0
 10
3303.6464278655230373
 20
164.5210547271892949
 30
0.0
 40
0.1005153923670695
 50
55.6280320492828011
 51
93.2095049967829823
  0
ARC
  5
1E5F0
  8
0
 10
3303.6958444297229107
 20
164.6982689725832074
 30
0.0
 40
0.094534544633253
 50
234.3900084120631959
 51
274.4475118383106178
  0
LINE
  5
1E5F1
  8
0
 10
3303.5852837800171073
 20
164.6602796072156991
 30
0.0
 11
3303.5577349784971375
 21
164.6654659120196982
 31
0.0
  0
ARC
  5
1E5F2
  8
0
 10
3303.5482578632017976
 20
164.615125028075596
 30
0.0
 40
0.0512251921477903
 50
79.3383500295159791
 51
89.6831954696476004
  0
LINE
  5
1E5F3
  8
0
 10
3303.5485411002978253
 20
164.6663494371724994
 30
0.0
 11
3303.5257117539022147
 21
164.6503503548925949
 31
0.0
  0
LINE
  5
1E5F4
  8
0
 10
3303.5257117538958482
 20
164.6503503549197092
 30
0.0
 11
3303.5412157898817895
 21
164.6433001185820899
 31
0.0
  0
LINE
  5
1E5F5
  8
0
 10
3303.5463635104952118
 20
164.6648233558807135
 30
0.0
 11
3303.5412157898817895
 21
164.6433001185820046
 31
0.0
  0
LINE
  5
1E5F6
  8
0
 10
3303.5412157898817895
 20
164.6433001185820046
 30
0.0
 11
3303.531959252733941
 21
164.6043648673918085
 31
0.0
  0
ARC
  5
1E5F7
  8
0
 10
3303.5422401394139342
 20
164.6019206707688909
 30
0.0
 40
0.0105674371571021
 50
166.6266672602845063
 51
249.8186421031410873
  0
LINE
  5
1E5F8
  8
0
 10
3303.5385944493959869
 20
164.5920020180197128
 30
0.0
 11
3303.6055090400959671
 21
164.5626718732196991
 31
0.0
  0
LINE
  5
1E5F9
  8
0
 10
3303.6055094843850384
 20
164.5626716784782104
 30
0.0
 11
3303.6893822457282113
 21
164.546727460122014
 31
0.0
  0
ARC
  5
1E5FA
  8
0
 10
3303.6910419106529844
 20
164.5554579401631941
 30
0.0
 40
0.0088868312356671
 50
259.2364988303190785
 51
307.2357973259184973
  0
LINE
  5
1E5FB
  8
0
 10
3303.6964193024959968
 20
164.548382671519704
 30
0.0
 11
3303.7103252944070846
 21
164.5589515942332923
 31
0.0
  0
ARC
  5
1E5FC
  8
0
 10
3303.5950919149568108
 20
164.4775218495352078
 30
0.0
 40
0.1072155390466563
 50
57.1708122541431507
 51
90.2629734777540875
  0
ARC
  5
1E5FD
  8
0
 10
3303.6444698456630249
 20
164.6465662029036991
 30
0.0
 40
0.0794352629745628
 50
231.1114812207586056
 51
276.3223045111320175
  0
LINE
  5
1E5FE
  8
0
 10
3303.5319603862139957
 20
164.6043696350874086
 30
0.0
 11
3303.5514259273959397
 21
164.6192445843196879
 31
0.0
  0
LINE
  5
1E5FF
  8
0
 10
3303.5514259273959397
 20
164.6192445843196879
 30
0.0
 11
3303.645285395296014
 21
164.6016152398196937
 31
0.0
  0
LINE
  5
1E600
  8
0
 10
3303.645285395296014
 20
164.6016152398196937
 30
0.0
 11
3303.7196804817958764
 21
164.5691099483196922
 31
0.0
  0
LINE
  5
1E601
  8
0
 10
3303.7239688632880643
 20
164.5856945835315059
 30
0.0
 11
3303.7196804817958764
 21
164.5691099483196922
 31
0.0
  0
ARC
  5
1E602
  8
0
 10
3303.7089445496289954
 20
164.5718859980923128
 30
0.0
 40
0.0110890347572824
 50
316.4010635969275995
 51
345.5022563934404047
  0
LINE
  5
1E603
  8
0
 10
3303.4900069999280277
 20
164.5902673647582901
 30
0.0
 11
3303.4789923509961227
 21
164.5422127624196946
 31
0.0
  0
ARC
  5
1E604
  8
0
 10
3303.4923839013249562
 20
164.539143270251401
 30
0.0
 40
0.0137388282752838
 50
167.0901717804449902
 51
222.4732626170342087
  0
ARC
  5
1E605
  8
0
 10
3303.5049145345528814
 20
164.5506147273005126
 30
0.0
 40
0.0307273860691571
 50
222.4732626170141998
 51
243.9586671078006077
  0
ARC
  5
1E606
  8
0
 10
3303.5830843869389355
 20
164.7105936630553913
 30
0.0
 40
0.2087829552252216
 50
243.9586671078006077
 51
265.4334194781421274
  0
ARC
  5
1E607
  8
0
 10
3303.5684921390247837
 20
164.5278961043080983
 30
0.0
 40
0.0255035737568516
 50
265.4334194781420138
 51
294.2612845460819244
  0
ARC
  5
1E608
  8
0
 10
3303.5738297204720766
 20
164.5160533419914941
 30
0.0
 40
0.01251354700554
 50
294.2612845460811855
 51
346.9746774951216253
  0
LINE
  5
1E609
  8
0
 10
3303.5860213007958919
 20
164.5132330179197027
 30
0.0
 11
3303.5975804767817863
 21
164.5588619763798874
 31
0.0
  0
ARC
  5
1E60A
  8
0
 10
3303.448078661812815
 20
164.2467099901273002
 30
0.0
 40
0.3461064217843233
 50
64.408413801906832
 51
83.0419324236954424
  0
ARC
  5
1E60B
  8
0
 10
3303.5608334750140784
 20
164.4821361547379865
 30
0.0
 40
0.0850716982638768
 50
49.5512606186207165
 51
64.4084138019061214
  0
ARC
  5
1E60C
  8
0
 10
3303.5886076385531851
 20
164.6576962511410045
 30
0.0
 40
0.1141629014214252
 50
272.5698340230537156
 51
283.8961054708605047
  0
ARC
  5
1E60D
  8
0
 10
3303.4775443936100601
 20
164.4774362413257904
 30
0.0
 40
0.1135173068622558
 50
83.6970201223568182
 51
94.0081849716389968
  0
ARC
  5
1E60E
  8
0
 10
3303.5129164821910308
 20
164.6241684219720867
 30
0.0
 40
0.054746974475961
 50
217.7175588029568871
 51
241.4534780708953861
  0
LINE
  5
1E60F
  8
0
 10
3303.886846993033032
 20
164.8004813815612124
 30
0.0
 11
3303.8735840260828809
 21
164.7401121409112079
 31
0.0
  0
ARC
  5
1E610
  8
0
 10
3303.860050884255088
 20
164.7430853373745947
 30
0.0
 40
0.0138558949531247
 50
296.641873118728995
 51
347.6091182453084798
  0
ARC
  5
1E611
  8
0
 10
3303.8446165915720485
 20
164.773850728227103
 30
0.0
 40
0.0482757535365454
 50
268.7099254804185762
 51
296.641873118728995
  0
ARC
  5
1E612
  8
0
 10
3303.8466306110708501
 20
164.8632837912109039
 30
0.0
 40
0.1377314913581921
 50
242.9176975871646107
 51
268.7099254804185762
  0
ARC
  5
1E613
  8
0
 10
3303.8030762765151849
 20
164.778106291793506
 30
0.0
 40
0.0420644308535658
 50
211.4101732920017014
 51
242.9176975871639002
  0
ARC
  5
1E614
  8
0
 10
3303.7833952701557791
 20
164.7636713850218086
 30
0.0
 40
0.0178640759675567
 50
164.236948214583407
 51
204.7799251609455951
  0
LINE
  5
1E615
  8
0
 10
3303.7662030017368124
 20
164.7685243343055106
 30
0.0
 11
3303.7777397783329434
 21
164.8270334453611952
 31
0.0
  0
ARC
  5
1E616
  8
0
 10
3303.7970693251600096
 20
164.6690154015774965
 30
0.0
 40
0.1591958967491545
 50
55.6709648143600191
 51
96.974055021960325
  0
ARC
  5
1E617
  8
0
 10
3303.8682527702671905
 20
164.7732529206770948
 30
0.0
 40
0.0329717182200644
 50
16.6037182390753983
 51
55.670964814338511
  0
ARC
  5
1E618
  8
0
 10
3303.8747062392908447
 20
164.8106706663184866
 30
0.0
 40
0.037629422784744
 50
279.5239755701587114
 51
311.9272339927143207
  0
ARC
  5
1E619
  8
0
 10
3303.7927346164237861
 20
164.75890420258429
 30
0.0
 40
0.069759865902565
 50
102.4125560169804032
 51
121.3638109426497067
  0
ARC
  5
1E61A
  8
0
 10
3303.7813827573600065
 20
164.8248172956068913
 30
0.0
 40
0.0257504255034673
 50
194.2683662921255916
 51
249.9027062025297141
  0
ARC
  5
1E61B
  8
0
 10
3303.8079904145788532
 20
164.7014764785168097
 30
0.0
 40
0.0501195579441056
 50
45.0498235337891586
 51
108.3792132650284969
  0
ARC
  5
1E61C
  8
0
 10
3303.8271954670608466
 20
164.7828116703684884
 30
0.0
 40
0.0486428058492108
 50
223.9706662429439064
 51
289.4583864599312051
  0
LINE
  5
1E61D
  8
0
 10
3303.9149659182371579
 20
164.4821107592460976
 30
0.0
 11
3303.9061188422961095
 21
164.444977281519698
 31
0.0
  0
ARC
  5
1E61E
  8
0
 10
3303.9165328758999749
 20
164.4424961310382969
 30
0.0
 40
0.0107055221078185
 50
166.599074727397209
 51
258.8431843000623758
  0
LINE
  5
1E61F
  8
0
 10
3303.9144614115189142
 20
164.4319929296729867
 30
0.0
 11
3303.9807604060961239
 21
164.4051722267197135
 31
0.0
  0
LINE
  5
1E620
  8
0
 10
3303.9807604060961239
 20
164.4051722267197135
 30
0.0
 11
3304.0642534387588967
 21
164.3900279601755017
 31
0.0
  0
ARC
  5
1E621
  8
0
 10
3304.0658373965688952
 20
164.3987606010655043
 30
0.0
 40
0.0088751303799805
 50
259.7192584829995781
 51
305.798155729439884
  0
LINE
  5
1E622
  8
0
 10
3304.0710287404967858
 20
164.3915621368196867
 30
0.0
 11
3304.0895947075878212
 21
164.4049514261479032
 31
0.0
  0
ARC
  5
1E623
  8
0
 10
3304.0822195074511001
 20
164.4151780871534925
 30
0.0
 40
0.0126086546626628
 50
305.7981557294418167
 51
343.3045213471853003
  0
LINE
  5
1E624
  8
0
 10
3304.094296646397197
 20
164.4115558106196886
 30
0.0
 11
3304.1053301109959648
 21
164.4542301479197022
 31
0.0
  0
ARC
  5
1E625
  8
0
 10
3304.0962667579419758
 20
164.4522566590030124
 30
0.0
 40
0.0199017542311538
 50
280.0895358245280136
 51
298.2291076468561073
  0
ARC
  5
1E626
  8
0
 10
3304.1333755375108012
 20
164.4102256110905103
 30
0.0
 40
0.0369743076690689
 50
105.479236968071902
 51
138.5073949082606077
  0
ARC
  5
1E627
  8
0
 10
3304.0449927160220795
 20
164.2992801596525112
 30
0.0
 40
0.1662831924647195
 50
61.8239705733176166
 51
68.7241032904058358
  0
LINE
  5
1E628
  8
0
 10
3304.1053301109959648
 20
164.4542301479197022
 30
0.0
 11
3304.0413576987971283
 21
164.4813089777196922
 31
0.0
  0
ARC
  5
1E629
  8
0
 10
3304.0043919812142121
 20
164.3869014652561873
 30
0.0
 40
0.1013866001300321
 50
68.6169328708064512
 51
79.7517863769269724
  0
LINE
  5
1E62A
  8
0
 10
3304.0224299616961616
 20
164.4866705684196972
 30
0.0
 11
3303.9314011937672149
 21
164.5017972608507932
 31
0.0
  0
ARC
  5
1E62B
  8
0
 10
3303.9236035795229327
 20
164.4611472528002878
 30
0.0
 40
0.0413911336204237
 50
79.1412452403309743
 51
92.2113303885616347
  0
LINE
  5
1E62C
  8
0
 10
3303.9060949808408623
 20
164.4448749017520015
 30
0.0
 11
3303.9253556879962161
 21
164.4589343768197125
 31
0.0
  0
LINE
  5
1E62D
  8
0
 10
3303.9253556879962161
 20
164.4589343768197125
 30
0.0
 11
3304.0194450438962122
 21
164.4422228528196968
 31
0.0
  0
LINE
  5
1E62E
  8
0
 10
3304.0194450438962122
 20
164.4422228528196968
 30
0.0
 11
3304.0943163926331181
 21
164.4116321835097949
 31
0.0
  0
ARC
  5
1E62F
  8
0
 10
3303.9717322365609107
 20
164.3193875712100009
 30
0.0
 40
0.1060588208546457
 50
59.1517900527411911
 51
91.7809172830264828
  0
ARC
  5
1E630
  8
0
 10
3304.0162475391289263
 20
164.4910994297136142
 30
0.0
 40
0.0812587180215911
 50
233.9575366154915059
 51
276.9751707202726152
  0
ARC
  5
1E631
  8
0
 10
3302.7786324451371911
 20
164.0804238818724912
 30
0.0
 40
0.6327521530541308
 50
68.2402714764658072
 51
76.6843152680038003
  0
ARC
  5
1E632
  8
0
 10
3302.9105439563008986
 20
164.6377673038514899
 30
0.0
 40
0.0600110799673434
 50
76.6843152680038003
 51
98.1328534304899733
  0
ARC
  5
1E633
  8
0
 10
3302.9433888430671686
 20
164.7336464375387948
 30
0.0
 40
0.0551246401955897
 50
221.4235940123876105
 51
246.4554350839729011
  0
LINE
  5
1E634
  8
0
 10
3302.9243654763859013
 20
164.696165037552305
 30
0.0
 11
3302.9119651476958097
 21
164.6421498893197111
 31
0.0
  0
ARC
  5
1E635
  8
0
 10
3302.9243890007601294
 20
164.6392977290163913
 30
0.0
 40
0.0127470366488546
 50
167.070565390775613
 51
215.1125324115452884
  0
ARC
  5
1E636
  8
0
 10
3302.9304091081507977
 20
164.6435306988676928
 30
0.0
 40
0.0201063658824614
 50
215.1125324115425883
 51
239.3954285166107923
  0
ARC
  5
1E637
  8
0
 10
3303.1065731050080103
 20
164.9931777914013935
 30
0.0
 40
0.4115815262070003
 50
243.0708708841848988
 51
260.7186846166164855
  0
ARC
  5
1E638
  8
0
 10
3303.0416232544348532
 20
164.6015619631012044
 30
0.0
 40
0.0146474756130552
 50
264.3941269841826056
 51
340.7006798139254897
  0
LINE
  5
1E639
  8
0
 10
3303.0554476132961099
 20
164.5967209256197066
 30
0.0
 11
3303.0633711300461073
 21
164.6263540254566919
 31
0.0
  0
ARC
  5
1E63A
  8
0
 10
3303.3603333930250301
 20
164.2329063177031117
 30
0.0
 40
0.3226108711368664
 50
68.1388274872816169
 51
82.5971392962030251
  0
ARC
  5
1E63B
  8
0
 10
3303.3958236635849062
 20
164.2374470050478124
 30
0.0
 40
0.3154396694844403
 50
88.8961980716162543
 51
92.6418118052041564
  0
ARC
  5
1E63C
  8
0
 10
3303.4605801221828187
 20
164.6539306500928035
 30
0.0
 40
0.128707244546155
 50
231.968580866096687
 51
241.4392401811813897
  0
LINE
  5
1E63D
  8
0
 10
3303.4019002259678928
 20
164.552828140301699
 30
0.0
 11
3303.39033599379718
 21
164.5044257879197005
 31
0.0
  0
ARC
  5
1E63E
  8
0
 10
3303.4030207946680093
 20
164.5013951504587055
 30
0.0
 40
0.0130418149260493
 50
166.5628551399088053
 51
232.5010760491032897
  0
ARC
  5
1E63F
  8
0
 10
3303.5058942168811882
 20
164.697245935641007
 30
0.0
 40
0.2340874205869227
 50
241.7459982785271961
 51
263.9576113971353948
  0
ARC
  5
1E640
  8
0
 10
3303.4801541137221648
 20
164.4841018935809984
 30
0.0
 40
0.0196735812460176
 50
273.2025336265767237
 51
330.5131353997754218
  0
LINE
  5
1E641
  8
0
 10
3303.4972793477400046
 20
164.4744180844716084
 30
0.0
 11
3303.5079573359871574
 21
164.5157956943606052
 31
0.0
  0
ARC
  5
1E642
  8
0
 10
3303.3983739789400715
 20
164.3368172417573021
 30
0.0
 40
0.1506621436698557
 50
63.2805795564270284
 51
82.7270571521814162
  0
ARC
  5
1E643
  8
0
 10
3303.4667411199511662
 20
164.5604893959570916
 30
0.0
 40
0.0891000590884781
 50
236.4102918260390993
 51
269.5973448825743048
  0
ARC
  5
1E644
  8
0
 10
3304.4681668502548746
 20
163.9717100767705915
 30
0.0
 40
0.5316923982513677
 50
66.6641675560431253
 51
86.6330569494389948
  0
ARC
  5
1E645
  8
0
 10
3304.656698156488801
 20
164.4087223587389985
 30
0.0
 40
0.0557472459265174
 50
52.0732499952082506
 51
66.6641675560424858
  0
LINE
  5
1E646
  8
0
 10
3304.6787721196969869
 20
164.4598819250196868
 30
0.0
 11
3304.6669884443958836
 21
164.4143102410197059
 31
0.0
  0
ARC
  5
1E647
  8
0
 10
3304.6555885295028929
 20
164.4172579682870037
 30
0.0
 40
0.0117748526789316
 50
303.2654593644173815
 51
345.5023139451650991
  0
LINE
  5
1E648
  8
0
 10
3304.6620472581957983
 20
164.4074125643197135
 30
0.0
 11
3304.6446553111381945
 21
164.3927536691483908
 31
0.0
  0
ARC
  5
1E649
  8
0
 10
3304.6376678778487985
 20
164.4000418809087876
 30
0.0
 40
0.0100966457124048
 50
265.276710723846179
 51
313.7929941167110997
  0
LINE
  5
1E64A
  8
0
 10
3304.6368364835961984
 20
164.3899795234196972
 30
0.0
 11
3304.5518732557970907
 21
164.4022999451196938
 31
0.0
  0
LINE
  5
1E64B
  8
0
 10
3304.5518732557970907
 20
164.4022999451196938
 30
0.0
 11
3304.4842824078968988
 21
164.4298813931197003
 31
0.0
  0
ARC
  5
1E64C
  8
0
 10
3304.4885354501871007
 20
164.440303860228795
 30
0.0
 40
0.0112568285662085
 50
170.1826415564841
 51
247.8013560424602986
  0
LINE
  5
1E64D
  8
0
 10
3304.4774434633959572
 20
164.4422232399197128
 30
0.0
 11
3304.4864828640311316
 21
164.4801641681162891
 31
0.0
  0
LINE
  5
1E64E
  8
0
 10
3304.4774434633959572
 20
164.4422232399197128
 30
0.0
 11
3304.4973676284957946
 21
164.4589348603196868
 31
0.0
  0
LINE
  5
1E64F
  8
0
 10
3304.4973676284957946
 20
164.4589348603196868
 30
0.0
 11
3304.5921406978959567
 21
164.4449778614196873
 31
0.0
  0
LINE
  5
1E650
  8
0
 10
3304.5921406978959567
 20
164.4449778614196873
 30
0.0
 11
3304.6669884443958836
 21
164.4143102410197059
 31
0.0
  0
ARC
  5
1E651
  8
0
 10
3304.5555030522950801
 20
164.3481767086381069
 30
0.0
 40
0.0762230473706951
 50
54.5239074680379403
 51
100.0503241876438949
  0
ARC
  5
1E652
  8
0
 10
3304.5857645128230615
 20
164.4823167448066101
 30
0.0
 40
0.0734098046008484
 50
233.5994031434860858
 51
280.9748285122095126
  0
LINE
  5
1E653
  8
0
 10
3304.4811578088961141
 20
164.4578134014197133
 30
0.0
 11
3304.4520603974960977
 21
164.4626857359197061
 31
0.0
  0
ARC
  5
1E654
  8
0
 10
3304.4423565904789939
 20
164.404734939452311
 30
0.0
 40
0.0587576265844337
 50
80.4940664618844863
 51
91.8670836199714387
  0
ARC
  5
1E655
  8
0
 10
3304.4405923007311685
 20
164.458857085705489
 30
0.0
 40
0.0046067315468632
 50
91.8670836200236494
 51
123.7884607744698968
  0
LINE
  5
1E656
  8
0
 10
3304.4380303671960064
 20
164.4626857241196944
 30
0.0
 11
3304.4187953731520793
 21
164.4472612124845909
 31
0.0
  0
ARC
  5
1E657
  8
0
 10
3304.4193969876127994
 20
164.4464341993125913
 30
0.0
 40
0.0010226880024049
 50
126.0341817909954045
 51
212.979386074766893
  0
ARC
  5
1E658
  8
0
 10
3304.4232820628490117
 20
164.4489552098754075
 30
0.0
 40
0.0056540273174048
 50
212.9793860747172118
 51
240.0617084485498935
  0
ARC
  5
1E659
  8
0
 10
3304.4508658914969601
 20
164.4968508575537953
 30
0.0
 40
0.0609248213178552
 50
240.0617084485506894
 51
248.6005046967437977
  0
ARC
  5
1E65A
  8
0
 10
3304.3734881824389049
 20
164.299401095953499
 30
0.0
 40
0.1511452572294398
 50
65.5146658125520531
 51
68.6005046967438261
  0
LINE
  5
1E65B
  8
0
 10
3304.4426702456257772
 20
164.4634917288665861
 30
0.0
 11
3304.4361318924961779
 21
164.4369534655195935
 31
0.0
  0
LINE
  5
1E65C
  8
0
 10
3304.4361318924961779
 20
164.4369534655195935
 30
0.0
 11
3304.4273865573959483
 21
164.4002461823197052
 31
0.0
  0
ARC
  5
1E65D
  8
0
 10
3304.4379178967751614
 20
164.397990325207104
 30
0.0
 40
0.01077023678513
 50
167.909708451057611
 51
250.8680119041985961
  0
LINE
  5
1E65E
  8
0
 10
3304.434388001096977
 20
164.3878149708197043
 30
0.0
 11
3304.5020041743960064
 21
164.3609630951197005
 31
0.0
  0
LINE
  5
1E65F
  8
0
 10
3304.5020041743960064
 20
164.3609630951197005
 30
0.0
 11
3304.5867741476699848
 21
164.3484154205816026
 31
0.0
  0
ARC
  5
1E660
  8
0
 10
3304.5880567230460656
 20
164.3570802835446045
 30
0.0
 40
0.0087592722165833
 50
261.5802004973817247
 51
308.7272946376183995
  0
LINE
  5
1E661
  8
0
 10
3304.5935366495959897
 20
164.3502468909196921
 30
0.0
 11
3304.6126850432801803
 21
164.3656026295261086
 31
0.0
  0
ARC
  5
1E662
  8
0
 10
3304.6050325771088865
 20
164.3751451490122975
 30
0.0
 40
0.0122319220334203
 50
308.7272946376438085
 51
344.3331292809397155
  0
LINE
  5
1E663
  8
0
 10
3304.6168100593959025
 20
164.3718419948197038
 30
0.0
 11
3304.6222841172220797
 21
164.3920898018861863
 31
0.0
  0
ARC
  5
1E664
  8
0
 10
3304.5016014069328776
 20
164.2960395963283986
 30
0.0
 40
0.0865533224940399
 50
57.3216321548753101
 51
97.5270231762645921
  0
ARC
  5
1E665
  8
0
 10
3304.5352359530397734
 20
164.4468125051571974
 30
0.0
 40
0.0790128366895089
 50
235.3069645511174031
 51
279.5416776363621238
  0
LINE
  5
1E666
  8
0
 10
3304.4273864025958574
 20
164.4002462234197139
 30
0.0
 11
3304.4470141608931044
 21
164.4157586138724128
 31
0.0
  0
LINE
  5
1E667
  8
0
 10
3304.4470141608931044
 20
164.4157586138724128
 30
0.0
 11
3304.5417850172962062
 21
164.401840214719698
 31
0.0
  0
LINE
  5
1E668
  8
0
 10
3304.5417850172962062
 20
164.401840214719698
 30
0.0
 11
3304.6167955333471582
 21
164.3717855584480105
 31
0.0
  0
LINE
  5
1E669
  8
0
 10
3304.4316777623748749
 20
164.4182578965217942
 30
0.0
 11
3304.4026368377958534
 21
164.423122634219709
 31
0.0
  0
ARC
  5
1E66A
  8
0
 10
3304.3914792014797968
 20
164.3565151221870906
 30
0.0
 40
0.0675355721627624
 50
80.4904933562642952
 51
88.2299788674540792
  0
ARC
  5
1E66B
  8
0
 10
3304.3932040274539759
 20
164.4123301667870862
 30
0.0
 40
0.0116938831809434
 50
88.2299788674800993
 51
112.7356733334617047
  0
LINE
  5
1E66C
  8
0
 10
3304.3886845713250295
 20
164.4231154076350094
 30
0.0
 11
3304.3694495772379014
 21
164.4076908959727064
 31
0.0
  0
ARC
  5
1E66D
  8
0
 10
3304.3700490435930988
 20
164.4068678132188097
 30
0.0
 40
0.0010182461055081
 50
126.0665418857776956
 51
211.70553761988009
  0
LINE
  5
1E66E
  8
0
 10
3304.3873013639331475
 20
164.3994076089772989
 30
0.0
 11
3304.3708829586980755
 21
164.404855320804387
 31
0.0
  0
LINE
  5
1E66F
  8
0
 10
3304.369182760241074
 20
164.4063326699705101
 30
0.0
 11
3304.3695714438840696
 21
164.405778369896808
 31
0.0
  0
ARC
  5
1E670
  8
0
 10
3304.3719267845967806
 20
164.4077316992311069
 30
0.0
 40
0.0030599224438816
 50
219.6695701859048029
 51
250.0543737025242876
  0
LINE
  5
1E671
  8
0
 10
3304.3932040274539759
 20
164.4240240499680112
 30
0.0
 11
3304.3873013639331475
 21
164.3994076089774126
 31
0.0
  0
LINE
  5
1E672
  8
0
 10
3304.3873013639331475
 20
164.3994076089774126
 30
0.0
 11
3304.3788603801958743
 21
164.36390408331971
 31
0.0
  0
ARC
  5
1E673
  8
0
 10
3304.3895357986798444
 20
164.3616777211333044
 30
0.0
 40
0.0109051019438842
 50
168.2197950581366115
 51
253.8899748490468937
  0
LINE
  5
1E674
  8
0
 10
3304.3865098209130338
 20
164.3512008558122943
 30
0.0
 11
3304.4534300507962143
 21
164.3248678800196956
 31
0.0
  0
LINE
  5
1E675
  8
0
 10
3304.4534300507962143
 20
164.3248678800196956
 30
0.0
 11
3304.5379784657961864
 21
164.3116521927196914
 31
0.0
  0
ARC
  5
1E676
  8
0
 10
3304.5393597466591018
 20
164.3204890473564888
 30
0.0
 40
0.0089441565669253
 50
261.116034972324087
 51
312.1258806195035049
  0
LINE
  5
1E677
  8
0
 10
3304.5453591443451842
 20
164.3138554085292071
 30
0.0
 11
3304.5635565496959316
 21
164.3276833902197041
 31
0.0
  0
ARC
  5
1E678
  8
0
 10
3304.5563650754688751
 20
164.3372914051267912
 30
0.0
 40
0.0120013025911946
 50
306.8140518371365033
 51
344.8475805813641273
  0
LINE
  5
1E679
  8
0
 10
3304.567949139495795
 20
164.3341544122197035
 30
0.0
 11
3304.572387724500004
 21
164.3505449028585019
 31
0.0
  0
ARC
  5
1E67A
  8
0
 10
3304.4496716931489573
 20
164.2541983535558927
 30
0.0
 40
0.0914974243532254
 50
57.7677599732613771
 51
94.7045342169676445
  0
ARC
  5
1E67B
  8
0
 10
3304.48755338940191
 20
164.4088461560911014
 30
0.0
 40
0.0780185560927075
 50
234.4273786630930942
 51
278.0449239358180193
  0
LINE
  5
1E67C
  8
0
 10
3304.3788593218969254
 20
164.3639027980196943
 30
0.0
 11
3304.3983265346450935
 21
164.3787794984062032
 31
0.0
  0
LINE
  5
1E67D
  8
0
 10
3304.3983265346450935
 20
164.3787794984062032
 30
0.0
 11
3304.4929496285958521
 21
164.3642118646197048
 31
0.0
  0
LINE
  5
1E67E
  8
0
 10
3304.4929496285958521
 20
164.3642118646197048
 30
0.0
 11
3304.5679506266960743
 21
164.3341560318197025
 31
0.0
  0
ARC
  5
1E67F
  8
0
 10
3302.2214624038069815
 20
165.195763921122392
 30
0.0
 40
0.0791523609578321
 50
139.0130390000643956
 51
175.8602930575910932
  0
ARC
  5
1E680
  8
0
 10
3302.2932177411507837
 20
165.1334166215690971
 30
0.0
 40
0.1742103127501544
 50
115.7141337363815978
 51
139.0130390000643956
  0
ARC
  5
1E681
  8
0
 10
3302.5174860983438521
 20
164.5575091857336929
 30
0.0
 40
0.7918365611934381
 50
93.2038378078108849
 51
112.2521220895618939
  0
ARC
  5
1E682
  8
0
 10
3302.6258070981348283
 20
161.7109862098025133
 30
0.0
 40
3.6403207406499498
 50
85.3349310239586032
 51
92.4021212077281433
  0
ARC
  5
1E683
  8
0
 10
3302.3017186094120916
 20
158.1553295441233047
 30
0.0
 40
7.210635835236042
 50
78.9689759643458586
 51
85.066115421397555
  0
ARC
  5
1E684
  8
0
 10
3301.6872705753157788
 20
154.7544025876210014
 30
0.0
 40
10.6664014957522504
 50
74.7479138723064693
 51
79.2248788995681394
  0
ARC
  5
1E685
  8
0
 10
3302.2137693189529273
 20
156.6478017674500904
 30
0.0
 40
8.7011935955501372
 50
68.5632682928398651
 51
74.8128709803109189
  0
ARC
  5
1E686
  8
0
 10
3304.0482886592590148
 20
161.2590167411995026
 30
0.0
 40
3.7385729271393919
 50
61.4688251204758984
 51
68.9055377569288083
  0
ARC
  5
1E687
  8
0
 10
3305.2169192792389367
 20
163.3610037492952927
 30
0.0
 40
1.3338692708634321
 50
48.8386380057425313
 51
62.4449101408353613
  0
ARC
  5
1E688
  8
0
 10
3305.8333038169212159
 20
164.0910273122701994
 30
0.0
 40
0.3789280549939979
 50
30.3655894510616484
 51
46.3523970855224476
  0
ARC
  5
1E689
  8
0
 10
3306.0873869073179776
 20
164.2398919259846934
 30
0.0
 40
0.0844473424812961
 50
354.7170873882005822
 51
30.3655894510630517
  0
ARC
  5
1E68A
  8
0
 10
3306.0960183769248033
 20
164.2390938050131979
 30
0.0
 40
0.0757790517239649
 50
319.1278843417148892
 51
354.7170873882005822
  0
ARC
  5
1E68B
  8
0
 10
3305.9734753298807846
 20
164.3451395780377027
 30
0.0
 40
0.2378361538676593
 50
294.5839541661383123
 51
319.1278843417148892
  0
ARC
  5
1E68C
  8
0
 10
3305.8640840651141843
 20
164.5842477178771048
 30
0.0
 40
0.5007794012516498
 50
279.8720265910599778
 51
294.5839541661383123
  0
ARC
  5
1E68D
  8
0
 10
3305.588825686934797
 20
166.1659662324638873
 30
0.0
 40
2.1062701779749911
 50
276.9312760859976947
 51
279.8720265910599778
  0
ARC
  5
1E68E
  8
0
 10
3305.7478858901058629
 20
164.8575524015143969
 30
0.0
 40
0.788223554652249
 50
273.5333262823373275
 51
276.9312760859976947
  0
LINE
  5
1E68F
  8
0
 10
3305.2891359897230359
 20
164.0939218788323046
 30
0.0
 11
3305.6422543090461659
 21
163.6402570525197007
 31
0.0
  0
ARC
  5
1E690
  8
0
 10
3305.7489723613921342
 20
163.7301535965403048
 30
0.0
 40
0.1395354124345547
 50
220.1099251149576048
 51
239.7350341888474929
  0
ARC
  5
1E691
  8
0
 10
3305.7109618004569711
 20
163.6652112493837024
 30
0.0
 40
0.0642872234591858
 50
239.8232253698215004
 51
266.6603552981267171
  0
ARC
  5
1E692
  8
0
 10
3305.709010981035135
 20
163.6296249397329063
 30
0.0
 40
0.0286434961176879
 50
269.9758865362749134
 51
321.0209042091271954
  0
LINE
  5
1E693
  8
0
 10
3305.7312777335960163
 20
163.6116071263197114
 30
0.0
 11
3305.9008907055458621
 21
163.8292314356696977
 31
0.0
  0
ARC
  5
1E694
  8
0
 10
3305.877233691877791
 20
163.8431865485038088
 30
0.0
 40
0.027466333390529
 50
329.4639320780494813
 51
12.6043548406276997
  0
ARC
  5
1E695
  8
0
 10
3305.8397921993710042
 20
163.8348143953417093
 30
0.0
 40
0.0658324422593893
 50
12.6043548406292807
 51
28.1028553315676106
  0
ARC
  5
1E696
  8
0
 10
3305.4037637177289071
 20
163.5267076347797968
 30
0.0
 40
0.599278740240389
 50
34.4631514778450097
 51
50.6640199791738723
  0
ARC
  5
1E697
  8
0
 10
3305.4820120179779224
 20
163.6206845334318984
 30
0.0
 40
0.476994988278278
 50
50.7783389594335617
 51
63.1569127564627308
  0
ARC
  5
1E698
  8
0
 10
3305.7147316170239719
 20
164.0527525152022861
 30
0.0
 40
0.018501634786489
 50
180.0258785114617126
 51
200.4717811890749886
  0
LINE
  5
1E699
  8
0
 10
3305.3478457924379654
 20
164.1429189608936952
 30
0.0
 11
3305.6759311865957898
 21
164.0491617982196999
 31
0.0
  0
ARC
  5
1E69A
  8
0
 10
3305.678350747712102
 20
164.082613953737706
 30
0.0
 40
0.0335395435984899
 50
265.8630573718455139
 51
298.3873318593372232
  0
ARC
  5
1E69B
  8
0
 10
3305.0969485801838346
 20
163.8073041134182972
 30
0.0
 40
0.3315459857497681
 50
74.8211098142157027
 51
91.1781535174678766
  0
ARC
  5
1E69C
  8
0
 10
3305.0920189279281658
 20
164.0470084090777902
 30
0.0
 40
0.0917910049277554
 50
91.1781535174678766
 51
102.7017133416715069
  0
ARC
  5
1E69D
  8
0
 10
3305.1171337622290594
 20
164.2093403301973069
 30
0.0
 40
0.0857311957572021
 50
238.1048986490856123
 51
250.0155963861373039
  0
LINE
  5
1E69E
  8
0
 10
3305.090131593895876
 20
164.1387800090197118
 30
0.0
 11
3305.078891745897181
 21
164.0898171042196907
 31
0.0
  0
ARC
  5
1E69F
  8
0
 10
3305.0913036479819311
 20
164.0869678473505076
 30
0.0
 40
0.012734739027466
 50
167.0712662727032978
 51
229.2021900171498885
  0
ARC
  5
1E6A0
  8
0
 10
3305.1122588792140959
 20
164.1182062627345886
 30
0.0
 40
0.0502808733997243
 50
234.3910971849826126
 51
256.8993932306187276
  0
ARC
  5
1E6A1
  8
0
 10
3305.2217494193942002
 20
164.499716278833489
 30
0.0
 40
0.4471338834843237
 50
254.3142876066494011
 51
268.9686401090206118
  0
ARC
  5
1E6A2
  8
0
 10
3305.2130758099938248
 20
164.066798289594999
 30
0.0
 40
0.0141572737766481
 50
272.5316897014225219
 51
342.9884864332094025
  0
LINE
  5
1E6A3
  8
0
 10
3305.2266136461971655
 20
164.0626563828197106
 30
0.0
 11
3305.23244861557896
 21
164.0844750977774993
 31
0.0
  0
LINE
  5
1E6A4
  8
0
 10
3305.2299547319958037
 20
164.0751482383197128
 30
0.0
 11
3305.310570410731998
 21
164.0663842452622987
 31
0.0
  0
LINE
  5
1E6A5
  8
0
 10
3304.6151032728957944
 20
164.2082555759197078
 30
0.0
 11
3304.6039816791958401
 21
164.1598062558196887
 31
0.0
  0
ARC
  5
1E6A6
  8
0
 10
3304.6161328348939605
 20
164.1570169449196044
 30
0.0
 40
0.0124671905449921
 50
167.07166687278891
 51
226.0618132180130999
  0
ARC
  5
1E6A7
  8
0
 10
3304.6226053079708436
 20
164.1637338737820073
 30
0.0
 40
0.0217951078404343
 50
226.0618132180073871
 51
251.5735796308916008
  0
ARC
  5
1E6A8
  8
0
 10
3304.7716632325418686
 20
164.6111296187420123
 30
0.0
 40
0.4933682384213018
 50
251.5735796308916008
 51
265.6618909487372093
  0
ARC
  5
1E6A9
  8
0
 10
3304.7355753233091491
 20
164.135407997068711
 30
0.0
 40
0.0162797785731861
 50
265.6618909487372093
 51
340.148796957133186
  0
LINE
  5
1E6AA
  8
0
 10
3304.7508877196091817
 20
164.129879732425195
 30
0.0
 11
3304.7568887060410816
 21
164.1506651941967903
 31
0.0
  0
LINE
  5
1E6AB
  8
0
 10
3304.7548324193398912
 20
164.1435428870408941
 30
0.0
 11
3305.0795325486337788
 21
164.0926112089128139
 31
0.0
  0
ARC
  5
1E6AC
  8
0
 10
3302.4566618708931856
 20
164.3725623444125858
 30
0.0
 40
0.5029474605982182
 50
68.0276600541153442
 51
78.8995340342403324
  0
ARC
  5
1E6AD
  8
0
 10
3302.5355548493398601
 20
164.774665906296292
 30
0.0
 40
0.0931775537873482
 50
78.8995340342403324
 51
93.3701879435322297
  0
ARC
  5
1E6AE
  8
0
 10
3302.5796216934131735
 20
164.9058928096287104
 30
0.0
 40
0.0625675296730751
 50
217.6407183337921083
 51
241.948338319999209
  0
LINE
  5
1E6AF
  8
0
 10
3302.5537287291522262
 20
164.8660541611126007
 30
0.0
 11
3302.5415652763008438
 21
164.8130708961246
 31
0.0
  0
ARC
  5
1E6B0
  8
0
 10
3302.551478573751865
 20
164.810795084579695
 30
0.0
 40
0.0101711741969058
 50
167.0705500256115101
 51
176.7842927536214006
  0
ARC
  5
1E6B1
  8
0
 10
3302.5573134306609973
 20
164.8104672608222074
 30
0.0
 40
0.016015233023231
 50
176.7842927536036939
 51
219.4432206320338992
  0
ARC
  5
1E6B2
  8
0
 10
3302.5699215403287781
 20
164.8229821702784932
 30
0.0
 40
0.0337433814753272
 50
222.2538294004556008
 51
238.2230772478229994
  0
ARC
  5
1E6B3
  8
0
 10
3302.7314457605780262
 20
165.1182005480627879
 30
0.0
 40
0.3702161286782665
 50
241.0336860163750998
 51
258.4200023291385264
  0
ARC
  5
1E6B4
  8
0
 10
3302.6676440607811855
 20
164.8068310784985044
 30
0.0
 40
0.0523771702829906
 50
258.4200023291385264
 51
274.6925959660285912
  0
ARC
  5
1E6B5
  8
0
 10
3302.6708178799740381
 20
164.7681659842411932
 30
0.0
 40
0.0135820334461249
 50
274.6925959660546255
 51
326.2502075837422808
  0
ARC
  5
1E6B6
  8
0
 10
3302.667954395642937
 20
164.7700792882947098
 30
0.0
 40
0.0170259084311853
 50
326.2502075837649045
 51
343.0954438505618782
  0
LINE
  5
1E6B7
  8
0
 10
3302.6842446224791274
 20
164.7651285239543881
 30
0.0
 11
3302.6935908234268027
 21
164.8004521747220963
 31
0.0
  0
ARC
  5
1E6B8
  8
0
 10
3302.5829264376729952
 20
164.7063342428957924
 30
0.0
 40
0.081368865082874
 50
50.7773088962456072
 51
87.3752789706991564
  0
ARC
  5
1E6B9
  8
0
 10
3302.6373885926677758
 20
164.8487796551875135
 30
0.0
 40
0.079466444888321
 50
230.3231037895581039
 51
267.8294840773688748
  0
ARC
  5
1E6BA
  8
0
 10
3309.9442834528799722
 20
181.7310508182584101
 30
0.0
 40
18.4730343606923206
 50
246.774738694357211
 51
247.6289348257778897
  0
ARC
  5
1E6BB
  8
0
 10
3302.9488163044311477
 20
164.5211344739090862
 30
0.0
 40
0.0971662220127626
 50
53.5651661690744376
 51
86.7944064419237975
  0
ARC
  5
1E6BC
  8
0
 10
3303.022719244558175
 20
164.7261807838245034
 30
0.0
 40
0.1279023557184061
 50
237.633952035224894
 51
262.7256205757840917
  0
ARC
  5
1E6BD
  8
0
 10
3306.3961081366751387
 20
173.7805629222546031
 30
0.0
 40
9.7748890564184059
 50
250.0100094299397142
 51
251.4896680586145123
  0
LINE
  5
1E6BE
  8
0
 10
3303.3006285426959039
 20
164.5453826608197119
 30
0.0
 11
3303.2928187915299532
 21
164.5113638573083108
 31
0.0
  0
LINE
  5
1E6BF
  8
0
 10
3303.2928187915299532
 20
164.5113638573083108
 30
0.0
 11
3303.2885839552959624
 21
164.4929171669197103
 31
0.0
  0
ARC
  5
1E6C0
  8
0
 10
3303.3009420470139048
 20
164.4900801000260913
 30
0.0
 40
0.0126795654290344
 50
167.0705499372587894
 51
233.2001768765397003
  0
ARC
  5
1E6C1
  8
0
 10
3303.3350267301029817
 20
164.539687129632398
 30
0.0
 40
0.0728593052533261
 50
235.1058872070290136
 51
250.0624295600879066
  0
ARC
  5
1E6C2
  8
0
 10
3303.5099041905050399
 20
164.980824672684804
 30
0.0
 40
0.5473679736161542
 50
248.5999629391093038
 51
259.9886283732467973
  0
ARC
  5
1E6C3
  8
0
 10
3303.41831959129604
 20
164.4568081007610942
 30
0.0
 40
0.0154357250966598
 50
256.6204514217370729
 51
338.4510895319608039
  0
LINE
  5
1E6C4
  8
0
 10
3303.4326764265961174
 20
164.4511386308197132
 30
0.0
 11
3303.4385405313960291
 21
164.4730697215196926
 31
0.0
  0
LINE
  5
1E6C5
  8
0
 10
3303.8841222727960485
 20
164.3669745826196902
 30
0.0
 11
3303.8764060866278669
 21
164.3373754902424082
 31
0.0
  0
ARC
  5
1E6C6
  8
0
 10
3303.8626720076008496
 20
164.3421090397027911
 30
0.0
 40
0.0145269204308797
 50
266.5095707179610258
 51
340.9831184913556967
  0
ARC
  5
1E6C7
  8
0
 10
3303.8846685863441053
 20
164.5880855226654091
 30
0.0
 40
0.2614794911908629
 50
245.9989752210346978
 51
264.9798592592111959
  0
ARC
  5
1E6C8
  8
0
 10
3303.7833095395480996
 20
164.3621511079703055
 30
0.0
 40
0.013869149887234
 50
168.4646108299108107
 51
248.874906712442197
  0
LINE
  5
1E6C9
  8
0
 10
3303.7697205273971122
 20
164.3649245656197024
 30
0.0
 11
3303.7809062046608233
 21
164.4136595130497938
 31
0.0
  0
ARC
  5
1E6CA
  8
0
 10
3303.833714803382918
 20
164.5309256798805961
 30
0.0
 40
0.1365250552762028
 50
236.2009782820038879
 51
246.4206292950836996
  0
ARC
  5
1E6CB
  8
0
 10
3303.7338989514100831
 20
164.1997666427758134
 30
0.0
 40
0.2190121591837368
 50
77.6051112191891832
 51
83.7430705553686749
  0
ARC
  5
1E6CC
  8
0
 10
3303.7046567579791372
 20
163.9346178661218119
 30
0.0
 40
0.4850720334246498
 50
71.8456202154710866
 51
80.9560523084416843
  0
LINE
  5
1E6CD
  8
0
 10
3303.8676299045469023
 20
164.4394842593196984
 30
0.0
 11
3303.8557947406020503
 21
164.3955432264779972
 31
0.0
  0
ARC
  5
1E6CE
  8
0
 10
3303.8698659251858771
 20
164.3905894346549132
 30
0.0
 40
0.0149177172857434
 50
160.6052692067354997
 51
227.8375208542611858
  0
ARC
  5
1E6CF
  8
0
 10
3303.9196192320591763
 20
164.4653125854586904
 30
0.0
 40
0.1045485385801305
 50
235.1336769025730007
 51
250.1519948512504925
  0
ARC
  5
1E6D0
  8
0
 10
3303.9611331213041012
 20
164.6027266754248899
 30
0.0
 40
0.2480115320906992
 50
251.9098404294092006
 51
266.6661902105288959
  0
ARC
  5
1E6D1
  8
0
 10
3303.945535232533075
 20
164.3744813371328917
 30
0.0
 40
0.0193821409870189
 50
273.4762786695782211
 51
334.3144857970397084
  0
LINE
  5
1E6D2
  8
0
 10
3303.9630021588968702
 20
164.3660805114197103
 30
0.0
 11
3303.9745433272551054
 21
164.4077102284639977
 31
0.0
  0
ARC
  5
1E6D3
  8
0
 10
3303.7886009730009391
 20
164.2201379471979124
 30
0.0
 40
0.1269087976942527
 50
64.0698470484213516
 51
86.3254709824963413
  0
ARC
  5
1E6D4
  8
0
 10
3303.8434550728511567
 20
164.4277180405593981
 30
0.0
 40
0.093449677455327
 50
240.002942058998002
 51
270.3923759718963993
  0
ARC
  5
1E6D5
  8
0
 10
3303.8036466421522164
 20
163.9714776399237905
 30
0.0
 40
0.4723600889839645
 50
75.339260849559011
 51
82.2151023296862462
  0
ARC
  5
1E6D6
  8
0
 10
3303.8563973555587836
 20
164.357323596017892
 30
0.0
 40
0.0829249344342626
 50
82.2151023296862462
 51
96.4589701129163046
  0
ARC
  5
1E6D7
  8
0
 10
3303.8706968758438052
 20
164.4527135742015105
 30
0.0
 40
0.02696392677312
 50
208.8034559149917868
 51
255.9437993776006124
  0
ARC
  5
1E6D8
  8
0
 10
3303.8811138510850469
 20
164.2743332268113079
 30
0.0
 40
0.1010825518036305
 50
60.1437480938953897
 51
89.0714077461193767
  0
ARC
  5
1E6D9
  8
0
 10
3303.9267407796860425
 20
164.4400662899398924
 30
0.0
 40
0.0782075185672114
 50
235.7737679666423958
 51
273.4413754129333256
  0
LINE
  5
1E6DA
  8
0
 10
3304.4433676872349679
 20
164.322691553596286
 30
0.0
 11
3304.4313364070721946
 21
164.2765398712471097
 31
0.0
  0
ARC
  5
1E6DB
  8
0
 10
3304.4176023280451773
 20
164.2812734207074072
 30
0.0
 40
0.0145269204308797
 50
266.5095707179610258
 51
340.9831184913556967
  0
ARC
  5
1E6DC
  8
0
 10
3304.4395989067879782
 20
164.5272499036699969
 30
0.0
 40
0.2614794911908629
 50
245.9989752210346978
 51
264.9798592592111959
  0
ARC
  5
1E6DD
  8
0
 10
3304.3382398599919725
 20
164.3013154889748932
 30
0.0
 40
0.013869149887234
 50
168.4646108299108107
 51
248.874906712442197
  0
LINE
  5
1E6DE
  8
0
 10
3304.3246508478409851
 20
164.3040889466242902
 30
0.0
 11
3304.3358365251051509
 21
164.3528238940544952
 31
0.0
  0
ARC
  5
1E6DF
  8
0
 10
3304.388645123826791
 20
164.4700900608852123
 30
0.0
 40
0.1365250552762028
 50
236.2009782820038879
 51
246.4206292950836996
  0
ARC
  5
1E6E0
  8
0
 10
3304.288829271853956
 20
164.1389310237804011
 30
0.0
 40
0.2190121591837368
 50
77.6051112191891832
 51
83.7430705553686749
  0
ARC
  5
1E6E1
  8
0
 10
3304.2595870784230101
 20
163.8737822471263996
 30
0.0
 40
0.4850720334246498
 50
67.7361200503423362
 51
80.9560523084416843
  0
ARC
  5
1E6E2
  8
0
 10
3304.343531293444812
 20
164.1593023282026138
 30
0.0
 40
0.1269087976942527
 50
64.0698470484213516
 51
86.3254709824963413
  0
ARC
  5
1E6E3
  8
0
 10
3304.3983853932950296
 20
164.3668824215639859
 30
0.0
 40
0.093449677455327
 50
240.002942058998002
 51
270.3923759718963993
  0
ARC
  5
1E6E4
  8
0
 10
3304.4100318982909812
 20
164.2442218711564976
 30
0.0
 40
0.0852570576944559
 50
49.0622821963395594
 51
66.9830593630413205
  0
ARC
  5
1E6E5
  8
0
 10
3304.4671209457669647
 20
164.4240151121520057
 30
0.0
 40
0.1153946654352871
 50
256.6672706932405958
 51
269.3915715169508189
  0
LINE
  5
1E6E6
  8
0
 10
3304.3542720060668216
 20
164.2819802122432122
 30
0.0
 11
3304.3422407259040483
 21
164.2358285298938938
 31
0.0
  0
ARC
  5
1E6E7
  8
0
 10
3304.328506646877031
 20
164.2405620793543051
 30
0.0
 40
0.0145269204308797
 50
266.5095707179610258
 51
340.9831184913556967
  0
ARC
  5
1E6E8
  8
0
 10
3304.3505032256189224
 20
164.4865385623168947
 30
0.0
 40
0.2614794911908629
 50
245.9989752210346978
 51
264.9798592592111959
  0
ARC
  5
1E6E9
  8
0
 10
3304.2491441788238262
 20
164.2606041476217911
 30
0.0
 40
0.013869149887234
 50
168.4646108299108107
 51
248.874906712442197
  0
LINE
  5
1E6EA
  8
0
 10
3304.2355551666719293
 20
164.263377605271188
 30
0.0
 11
3304.2467408439360952
 21
164.3121125527013078
 31
0.0
  0
ARC
  5
1E6EB
  8
0
 10
3304.2995494426590994
 20
164.4293787195321102
 30
0.0
 40
0.1365250552762028
 50
236.2009782820038879
 51
246.4206292950836996
  0
ARC
  5
1E6EC
  8
0
 10
3304.1997335906858098
 20
164.0982196824272989
 30
0.0
 40
0.2190121591837368
 50
77.6051112191891832
 51
83.7430705553686749
  0
ARC
  5
1E6ED
  8
0
 10
3304.1704913972548638
 20
163.8330709057732975
 30
0.0
 40
0.4850720334246498
 50
67.7361200503423362
 51
80.9560523084416843
  0
ARC
  5
1E6EE
  8
0
 10
3304.2544356122771205
 20
164.1185909868495116
 30
0.0
 40
0.1269087976942527
 50
64.0698470484213516
 51
86.3254709824963413
  0
ARC
  5
1E6EF
  8
0
 10
3304.3092897121259739
 20
164.3261710802109121
 30
0.0
 40
0.093449677455327
 50
240.002942058998002
 51
270.3923759718963993
  0
ARC
  5
1E6F0
  8
0
 10
3304.3209362171228349
 20
164.2035105298033955
 30
0.0
 40
0.0852570576944559
 50
49.0622821963395594
 51
66.9830593630413205
  0
ARC
  5
1E6F1
  8
0
 10
3304.3780252645988185
 20
164.3833037707987899
 30
0.0
 40
0.1153946654352871
 50
256.6672706932405958
 51
269.3915715169508189
  0
ARC
  5
1E6F2
  8
0
 10
3304.0307540860849258
 20
163.5405577512007085
 30
0.0
 40
0.7700088705603098
 50
74.2510903389385817
 51
82.7403630030853634
  0
ARC
  5
1E6F3
  8
0
 10
3304.1673455118761922
 20
164.3400156580177054
 30
0.0
 40
0.0530329745406468
 50
222.197540007844708
 51
243.7077739685869915
  0
LINE
  5
1E6F4
  8
0
 10
3304.1460066733789063
 20
164.3018924357276092
 30
0.0
 11
3304.1438545796549988
 21
164.2924691282601088
 31
0.0
  0
LINE
  5
1E6F5
  8
0
 10
3304.1438545796549988
 20
164.2924691282601088
 30
0.0
 11
3304.134548122096021
 21
164.2519194155196942
 31
0.0
  0
ARC
  5
1E6F6
  8
0
 10
3304.1468107205901106
 20
164.2491050589011081
 30
0.0
 40
0.0125814118837319
 50
167.074046365365291
 51
238.9798965101167028
  0
ARC
  5
1E6F7
  8
0
 10
3304.3156772112229191
 20
164.6855083962109063
 30
0.0
 40
0.4803358216939414
 50
248.5888803870855952
 51
264.182574976959188
  0
ARC
  5
1E6F8
  8
0
 10
3304.2659541197840554
 20
164.2232909700821892
 30
0.0
 40
0.0156789498135797
 50
273.7915588539804048
 51
336.910603906320091
  0
LINE
  5
1E6F9
  8
0
 10
3304.2803770930959217
 20
164.2171422053197034
 30
0.0
 11
3304.2849872327137746
 21
164.2333999066613899
 31
0.0
  0
ARC
  5
1E6FA
  8
0
 10
3304.1600493679820829
 20
164.0379234377107878
 30
0.0
 40
0.1926424016482616
 50
68.9926298542355738
 51
83.6767893174762207
  0
ARC
  5
1E6FB
  8
0
 10
3304.2363718224128206
 20
164.3518369260079908
 30
0.0
 40
0.1342717555856854
 50
245.7699053797419992
 51
266.8995022422824945
  0
ARC
  5
1E6FC
  8
0
 10
3307.5901310637527786
 20
177.8782357361909874
 30
0.0
 40
14.04219953611093
 50
252.7936206197680065
 51
254.2134595155525858
  0
ARC
  5
1E6FD
  8
0
 10
3306.7594554597221759
 20
175.0515820486068037
 30
0.0
 40
11.0949979299471302
 50
254.9392011548821984
 51
256.3376350463773861
  0
ARC
  5
1E6FE
  8
0
 10
3291.6811115572309063
 20
102.4422195940122009
 30
0.0
 40
63.0665302981848512
 50
78.1736713565257446
 51
78.4274206728578065
  0
ARC
  5
1E6FF
  8
0
 10
3304.6389770882660741
 20
163.9530509250458863
 30
0.0
 40
0.185816265762157
 50
70.1019036825238544
 51
86.226022679657774
  0
ARC
  5
1E700
  8
0
 10
3304.7083026211112156
 20
164.2838539926007968
 30
0.0
 40
0.1561986417784132
 50
248.559920830833903
 51
267.7680055313364278
  0
ARC
  5
1E701
  8
0
 10
3305.1234559095050827
 20
163.9018798435504038
 30
0.0
 40
0.1678929800825958
 50
71.6796403223651168
 51
89.4820047579931241
  0
ARC
  5
1E702
  8
0
 10
3305.1658806300310971
 20
164.1576155549311125
 30
0.0
 40
0.0969067733216013
 50
245.0311171098149998
 51
276.1305279705297835
  0
ARC
  5
1E703
  8
0
 10
3306.0430709466518238
 20
164.0655991721853866
 30
0.0
 40
0.0362298876468821
 50
180.1152602733864114
 51
202.2409915738099073
  0
ARC
  5
1E704
  8
0
 10
3306.1556961415108162
 20
164.111654685792189
 30
0.0
 40
0.1579079253143909
 50
202.2409915738099073
 51
215.9945324772243112
  0
ARC
  5
1E705
  8
0
 10
3304.9993215953381878
 20
163.2716679855350037
 30
0.0
 40
1.2713505354426831
 50
30.6463495252712406
 51
35.9945324772243183
  0
ARC
  5
1E706
  8
0
 10
3312.2890515191447776
 20
168.4383426683467064
 30
0.0
 40
7.6686182970349881
 50
216.102752055978101
 51
217.9984007339220966
  0
ARC
  5
1E707
  8
0
 10
3306.0884247974590835
 20
163.5679734269376979
 30
0.0
 40
0.2170237474475948
 50
327.0556882195410253
 51
43.4548032646302076
  0
ARC
  5
1E708
  8
0
 10
3306.1272022285761523
 20
163.5427603355929023
 30
0.0
 40
0.1707702850763414
 50
270.2578689796941944
 51
327.0794193541983077
  0
ARC
  5
1E709
  8
0
 10
3306.1276299999499315
 20
163.5081753649014047
 30
0.0
 40
0.1361840112691168
 50
241.7956729633638133
 51
270.1433849419216813
  0
ARC
  5
1E70A
  8
0
 10
3306.1973366403249202
 20
163.6386658621676133
 30
0.0
 40
0.284125748289699
 50
223.5520801150026955
 51
241.8444444205657931
  0
ARC
  5
1E70B
  8
0
 10
3307.038643314429919
 20
164.4384907209164908
 30
0.0
 40
1.4449516286720889
 50
222.2168185696561977
 51
223.5520801150026955
  0
ARC
  5
1E70C
  8
0
 10
3302.2856711235758667
 20
165.1931523411167859
 30
0.0
 40
0.1433964612547176
 50
176.6715811923099011
 51
213.3264620961940068
  0
ARC
  5
1E70D
  8
0
 10
3302.5262554066171106
 20
165.3513457833477105
 30
0.0
 40
0.4313304162013668
 50
213.3264620961940068
 51
229.7844074410757003
  0
ARC
  5
1E70E
  8
0
 10
3303.0104054162561624
 20
165.9239437976279987
 30
0.0
 40
1.1811768790127819
 50
229.7844074410757003
 51
239.2096010678264975
  0
ARC
  5
1E70F
  8
0
 10
3304.0649537887188671
 20
167.6936393254252948
 30
0.0
 40
3.2412483658719848
 50
239.2096010678257016
 51
242.0460659835979982
  0
ARC
  5
1E710
  8
0
 10
3302.1718413850580873
 20
165.2148175669931902
 30
0.0
 40
0.1257394362652335
 50
117.6561934359024946
 51
156.985458908565704
  0
ARC
  5
1E711
  8
0
 10
3302.3592888058938115
 20
164.857118613235798
 30
0.0
 40
0.5295773704632296
 50
97.1384306054658708
 51
117.6561934359017982
  0
ARC
  5
1E712
  8
0
 10
3302.5932266029790298
 20
162.9891696445222067
 30
0.0
 40
2.412118271113985
 50
89.0265397849589561
 51
97.1384306054658708
  0
ARC
  5
1E713
  8
0
 10
3302.5537845111261959
 20
160.6679161277272101
 30
0.0
 40
4.7337068582334076
 50
79.8948230561553743
 51
89.0265397849589561
  0
ARC
  5
1E714
  8
0
 10
3300.4820088211108668
 20
149.0431176580734984
 30
0.0
 40
16.541678486324269
 50
76.2957447508177751
 51
79.8948230561553743
  0
ARC
  5
1E715
  8
0
 10
3302.7397441985172009
 20
158.3017319761613066
 30
0.0
 40
7.011762005814604
 50
69.7944157466562132
 51
76.2957447508177751
  0
ARC
  5
1E716
  8
0
 10
3302.2192140797092179
 20
156.8873979294533001
 30
0.0
 40
8.51884276020815
 50
65.0760286804246846
 51
69.7944157466562132
  0
ARC
  5
1E717
  8
0
 10
3305.1434092321860589
 20
163.1801419262488082
 30
0.0
 40
1.579855492675686
 50
49.3872431085325587
 51
65.0760286804246846
  0
ARC
  5
1E718
  8
0
 10
3305.9718915772741639
 20
164.1463134202035974
 30
0.0
 40
0.3071142181617235
 50
26.3267959393945183
 51
49.3872431085325587
  0
ARC
  5
1E719
  8
0
 10
3306.1390537588049483
 20
164.2290274126760039
 30
0.0
 40
0.1206073832067398
 50
358.0456946742907007
 51
26.3267959393959714
  0
LINE
  5
1E71A
  8
0
 10
3302.4527195655768992
 20
165.2523449841237095
 30
0.0
 11
3302.2596672890517766
 21
165.3061977733441097
 31
0.0
  0
LINE
  5
1E71B
  8
0
 10
3302.2054636757970911
 20
165.2839106649140888
 30
0.0
 11
3302.3822494042051403
 21
165.1750912106159035
 31
0.0
  0
LINE
  5
1E71C
  8
0
 10
3302.1489144475999638
 20
165.227416571807197
 30
0.0
 11
3302.3469268167509654
 21
165.1677318521574023
 31
0.0
  0
LINE
  5
1E71D
  8
0
 10
3302.1424417818629991
 20
165.1862313026936988
 30
0.0
 11
3302.2748332335568193
 21
165.1096230689385891
 31
0.0
  0
LINE
  5
1E71E
  8
0
 10
3302.2416924488461518
 20
165.0369857038197097
 30
0.0
 11
3302.2566673486771833
 21
165.0412154843307064
 31
0.0
  0
LINE
  5
1E71F
  8
0
 10
3302.5676388047459113
 20
165.2474773244697133
 30
0.0
 11
3302.6447308893361878
 21
165.3512577635376033
 31
0.0
  0
LINE
  5
1E720
  8
0
 10
3302.6459158637808287
 20
165.3355322076691039
 30
0.0
 11
3303.0303733398241093
 21
165.2483705618429042
 31
0.0
  0
LINE
  5
1E721
  8
0
 10
3302.6371642579701984
 20
165.341071655201489
 30
0.0
 11
3302.9735120950472265
 21
165.1281757322720978
 31
0.0
  0
LINE
  5
1E722
  8
0
 10
3302.9424356816030013
 20
165.1240957254242971
 30
0.0
 11
3302.6320211718698374
 21
165.2074865820167133
 31
0.0
  0
LINE
  5
1E723
  8
0
 10
3302.61535727326509
 20
165.1869360517221139
 30
0.0
 11
3302.8673706827098613
 21
165.0282359061164925
 31
0.0
  0
LINE
  5
1E724
  8
0
 10
3302.8384645863329752
 20
165.0245051081170118
 30
0.0
 11
3302.5305603238289223
 21
165.1144947298722911
 31
0.0
  0
LINE
  5
1E725
  8
0
 10
3302.5126228074927894
 20
165.0992696994937887
 30
0.0
 11
3302.7495393865360711
 21
164.959014722869
 31
0.0
  0
LINE
  5
1E726
  8
0
 10
3302.7325532945560553
 20
164.9493195193057034
 30
0.0
 11
3302.4435756136172131
 21
165.0413235726003904
 31
0.0
  0
LINE
  5
1E727
  8
0
 10
3302.4243768106030075
 20
165.0292305374740067
 30
0.0
 11
3302.6587862003011651
 21
164.8984522538806914
 31
0.0
  0
LINE
  5
1E728
  8
0
 10
3302.6397752826101168
 20
164.8921650617897114
 30
0.0
 11
3302.254465424638056
 21
165.0163461177129136
 31
0.0
  0
LINE
  5
1E729
  8
0
 10
3302.2845195720938136
 20
164.9921345034267972
 30
0.0
 11
3302.5455111461128581
 21
164.8673100031637091
 31
0.0
  0
LINE
  5
1E72A
  8
0
 10
3303.1892722359029904
 20
165.3111326233376133
 30
0.0
 11
3303.1359559866918971
 21
165.2486783728213027
 31
0.0
  0
LINE
  5
1E72B
  8
0
 10
3303.0671638825970149
 20
165.1737158798225096
 30
0.0
 11
3303.0200821593530236
 21
165.120606221160898
 31
0.0
  0
LINE
  5
1E72C
  8
0
 10
3302.9477059993519106
 20
165.0484346757843923
 30
0.0
 11
3302.9180747843997779
 21
165.0196858067033077
 31
0.0
  0
LINE
  5
1E72D
  8
0
 10
3302.8385453908949785
 20
164.9534490882087994
 30
0.0
 11
3302.8331679783418622
 21
164.9491367658359877
 31
0.0
  0
LINE
  5
1E72E
  8
0
 10
3302.7393402484181024
 20
164.8861853782258891
 30
0.0
 11
3302.7430698137418403
 21
164.8884749609999005
 31
0.0
  0
LINE
  5
1E72F
  8
0
 10
3302.6403528836731311
 20
164.8407650355048872
 30
0.0
 11
3302.6457946600080504
 21
164.8435716143868035
 31
0.0
  0
LINE
  5
1E730
  8
0
 10
3302.7008580344950133
 20
164.7989296623838982
 30
0.0
 11
3302.9278502186189144
 21
164.6953298448229077
 31
0.0
  0
LINE
  5
1E731
  8
0
 10
3302.7359593150290493
 20
164.7983888843307909
 30
0.0
 11
3303.0039611900201635
 21
164.7130626489536951
 31
0.0
  0
LINE
  5
1E732
  8
0
 10
3302.7608347946670619
 20
164.8449196540690025
 30
0.0
 11
3303.0136721103299351
 21
164.7212995882487121
 31
0.0
  0
LINE
  5
1E733
  8
0
 10
3302.7746366267801932
 20
164.8506797035161071
 30
0.0
 11
3303.103137612206865
 21
164.7550680167433086
 31
0.0
  0
LINE
  5
1E734
  8
0
 10
3302.8550432811598512
 20
164.9000914818076922
 30
0.0
 11
3303.125834353609207
 21
164.7588115808624138
 31
0.0
  0
LINE
  5
1E735
  8
0
 10
3302.8668982811668684
 20
164.9098460616341981
 30
0.0
 11
3303.2014350575800563
 21
164.8210984062415037
 31
0.0
  0
LINE
  5
1E736
  8
0
 10
3302.9575191561598331
 20
164.9754901412802042
 30
0.0
 11
3303.2255548431371608
 21
164.8266484405436074
 31
0.0
  0
LINE
  5
1E737
  8
0
 10
3302.9659065022779032
 20
164.9904892860892005
 30
0.0
 11
3303.3012414252448252
 21
164.9098359665842111
 31
0.0
  0
LINE
  5
1E738
  8
0
 10
3303.0611611340477793
 20
165.0749777798573064
 30
0.0
 11
3303.3293162305308215
 21
164.9166724666970936
 31
0.0
  0
LINE
  5
1E739
  8
0
 10
3303.0688513859108753
 20
165.0933390118073874
 30
0.0
 11
3303.4143321563460631
 21
165.01862535305861
 31
0.0
  0
LINE
  5
1E73A
  8
0
 10
3303.190254610923148
 20
165.1848072218490131
 30
0.0
 11
3303.4426723700548791
 21
165.0258558082805109
 31
0.0
  0
LINE
  5
1E73B
  8
0
 10
3303.2008228933118517
 20
165.2144094713073912
 30
0.0
 11
3303.5046949966999819
 21
165.1556910536147882
 31
0.0
  0
LINE
  5
1E73C
  8
0
 10
3303.3298506191558772
 20
165.2922906424431915
 30
0.0
 11
3303.5278781613869796
 21
165.1748708170568136
 31
0.0
  0
LINE
  5
1E73D
  8
0
 10
3303.6044461444548688
 20
165.1597000383193006
 30
0.0
 11
3303.6667833645810788
 21
165.2355744101280948
 31
0.0
  0
LINE
  5
1E73E
  8
0
 10
3303.4884434661030355
 20
165.0215799025826868
 30
0.0
 11
3303.5400022261269442
 21
165.083132863224904
 31
0.0
  0
LINE
  5
1E73F
  8
0
 10
3303.3835895633837936
 20
164.9098852845311001
 30
0.0
 11
3303.4229824632761847
 21
164.951100870412688
 31
0.0
  0
LINE
  5
1E740
  8
0
 10
3303.2839974143080326
 20
164.8190707804996009
 30
0.0
 11
3303.3093261615531446
 21
164.8415424564267937
 31
0.0
  0
LINE
  5
1E741
  8
0
 10
3303.1887969995627827
 20
164.7482802664015935
 30
0.0
 11
3303.2034937428697958
 21
164.7587423454739906
 31
0.0
  0
LINE
  5
1E742
  8
0
 10
3303.0999484700942048
 20
164.6238980824585099
 30
0.0
 11
3303.3917549721218165
 21
164.5103649534345038
 31
0.0
  0
LINE
  5
1E743
  8
0
 10
3303.1465324699888697
 20
164.6606772487047863
 30
0.0
 11
3303.4013510858239897
 21
164.5528382425414975
 31
0.0
  0
LINE
  5
1E744
  8
0
 10
3303.1939696153090154
 20
164.6586154471243901
 30
0.0
 11
3303.4759132864651292
 21
164.5838200053933917
 31
0.0
  0
LINE
  5
1E745
  8
0
 10
3303.2285208277248785
 20
164.7090705058384117
 30
0.0
 11
3303.4899481845068294
 21
164.5900107654155136
 31
0.0
  0
LINE
  5
1E746
  8
0
 10
3303.2310355291729138
 20
164.7209329112573073
 30
0.0
 11
3303.5261333537141581
 21
164.6501586384943892
 31
0.0
  0
LINE
  5
1E747
  8
0
 10
3303.326621603905096
 20
164.7745722425040071
 30
0.0
 11
3303.5485301995590817
 21
164.666341797802886
 31
0.0
  0
LINE
  5
1E748
  8
0
 10
3303.3338703701260783
 20
164.7893177762466053
 30
0.0
 11
3303.6201413558569584
 21
164.727668646003508
 31
0.0
  0
LINE
  5
1E749
  8
0
 10
3303.4262046105400259
 20
164.8635122574646061
 30
0.0
 11
3303.6535942400928434
 21
164.74508288048591
 31
0.0
  0
LINE
  5
1E74A
  8
0
 10
3303.4351008257840476
 20
164.8809298519500999
 30
0.0
 11
3303.757652735809188
 21
164.8192009731712062
 31
0.0
  0
LINE
  5
1E74B
  8
0
 10
3303.5359748532541744
 20
164.9716400993087007
 30
0.0
 11
3303.7943074525151133
 21
164.8281873388066003
 31
0.0
  0
LINE
  5
1E74C
  8
0
 10
3303.546218703408158
 20
164.9935802832955005
 30
0.0
 11
3303.8599985058840502
 21
164.941037414408413
 31
0.0
  0
LINE
  5
1E74D
  8
0
 10
3303.6629495127490372
 20
165.0949575470739887
 30
0.0
 11
3303.9003985331391959
 21
164.9543879322625912
 31
0.0
  0
LINE
  5
1E74E
  8
0
 10
3303.6675950439080225
 20
165.1282162056388927
 30
0.0
 11
3303.9870592691859201
 21
165.0824964775846979
 31
0.0
  0
LINE
  5
1E74F
  8
0
 10
3303.8257953672878102
 20
165.2042271116359871
 30
0.0
 11
3303.99672072457588
 21
165.1054523745584106
 31
0.0
  0
LINE
  5
1E750
  8
0
 10
3304.1404559789712039
 20
165.0626368063163056
 30
0.0
 11
3304.5698867503951988
 21
165.0239274014469117
 31
0.0
  0
LINE
  5
1E751
  8
0
 10
3304.1418440577172078
 20
165.0276189495710071
 30
0.0
 11
3304.387371441725918
 21
164.8906403725175949
 31
0.0
  0
LINE
  5
1E752
  8
0
 10
3303.9959185720999812
 20
164.92057159497611
 30
0.0
 11
3304.355709540081989
 21
164.8774880661785005
 31
0.0
  0
LINE
  5
1E753
  8
0
 10
3303.9929854072947819
 20
164.9027529729590071
 30
0.0
 11
3304.2692835999341696
 21
164.7586026755085982
 31
0.0
  0
LINE
  5
1E754
  8
0
 10
3303.8920887997642239
 20
164.796034007135205
 30
0.0
 11
3304.2442492520731321
 21
164.7453963291991954
 31
0.0
  0
LINE
  5
1E755
  8
0
 10
3303.892313714789907
 20
164.7774148357671891
 30
0.0
 11
3304.1265665324549445
 21
164.663163469768989
 31
0.0
  0
LINE
  5
1E756
  8
0
 10
3303.5989377077808058
 20
164.5440016702202968
 30
0.0
 11
3303.8650241872041988
 21
164.4397985772345976
 31
0.0
  0
LINE
  5
1E757
  8
0
 10
3303.5706019958579418
 20
164.5024799523862953
 30
0.0
 11
3303.8501590081068571
 21
164.4352421879993926
 31
0.0
  0
LINE
  5
1E758
  8
0
 10
3303.5068587076798394
 20
164.5115384679612021
 30
0.0
 11
3303.7765291401838113
 21
164.4145898092999971
 31
0.0
  0
LINE
  5
1E759
  8
0
 10
3303.4996980916957909
 20
164.4837908091390091
 30
0.0
 11
3303.7664922874992044
 21
164.4120971308005039
 31
0.0
  0
LINE
  5
1E75A
  8
0
 10
3303.7677206596049473
 20
164.7355269557943984
 30
0.0
 11
3303.7773411186390149
 21
164.74483290915569
 31
0.0
  0
LINE
  5
1E75B
  8
0
 10
3303.8515335789711571
 20
164.8186047681732873
 30
0.0
 11
3303.8921143271682013
 21
164.8640249217463065
 31
0.0
  0
LINE
  5
1E75C
  8
0
 10
3303.9603945772510087
 20
164.9422556376592865
 30
0.0
 11
3304.017564835362009
 21
165.0143903703799992
 31
0.0
  0
LINE
  5
1E75D
  8
0
 10
3304.4384329456411251
 20
164.8848326606969863
 30
0.0
 11
3304.5492296725610686
 21
165.0257894552225082
 31
0.0
  0
LINE
  5
1E75E
  8
0
 10
3304.3283459380040767
 20
164.7527809498023998
 30
0.0
 11
3304.3747293228821036
 21
164.8079970488061861
 31
0.0
  0
LINE
  5
1E75F
  8
0
 10
3304.23830736637683
 20
164.656621755303604
 30
0.0
 11
3304.2599272774118617
 21
164.6791963827074028
 31
0.0
  0
LINE
  5
1E760
  8
0
 10
3304.3115166238180791
 20
164.6113275901516886
 30
0.0
 11
3304.6114885499391676
 21
164.5751468303014065
 31
0.0
  0
LINE
  5
1E761
  8
0
 10
3304.3759048902029463
 20
164.7070970179059941
 30
0.0
 11
3304.6310319043850541
 21
164.5909056900325993
 31
0.0
  0
LINE
  5
1E762
  8
0
 10
3304.3760470924880792
 20
164.729368614089708
 30
0.0
 11
3304.737404722869087
 21
164.6943736448471043
 31
0.0
  0
LINE
  5
1E763
  8
0
 10
3304.4878868714690725
 20
164.8388241073307086
 30
0.0
 11
3304.7241606620591483
 21
164.7232951382505917
 31
0.0
  0
LINE
  5
1E764
  8
0
 10
3304.4820424120621283
 20
164.8650232424558055
 30
0.0
 11
3304.8416949543629926
 21
164.839046638713711
 31
0.0
  0
LINE
  5
1E765
  8
0
 10
3304.55632501546188
 20
165.0251498725019985
 30
0.0
 11
3304.8382708709909821
 21
164.8692538319075993
 31
0.0
  0
LINE
  5
1E766
  8
0
 10
3304.9855451338062267
 20
164.8259826761162969
 30
0.0
 11
3305.2249716882320172
 21
164.8113445203537992
 31
0.0
  0
LINE
  5
1E767
  8
0
 10
3304.8644416866568463
 20
164.7768991402247138
 30
0.0
 11
3304.8209683942532138
 21
164.7220446760005075
 31
0.0
  0
LINE
  5
1E768
  8
0
 10
3304.75407974060181
 20
164.6434373715605943
 30
0.0
 11
3304.700478957793166
 21
164.5834444180709113
 31
0.0
  0
LINE
  5
1E769
  8
0
 10
3304.6273091814659892
 20
164.5103223773560899
 30
0.0
 11
3304.6023619394400157
 21
164.4861889241462904
 31
0.0
  0
LINE
  5
1E76A
  8
0
 10
3304.6874409028291666
 20
164.4552265410873133
 30
0.0
 11
3304.9793364120241677
 21
164.4267714754570875
 31
0.0
  0
LINE
  5
1E76B
  8
0
 10
3304.7463945971107933
 20
164.5422754198116877
 30
0.0
 11
3304.9976578053688172
 21
164.4438781407243084
 31
0.0
  0
LINE
  5
1E76C
  8
0
 10
3304.7417352282659522
 20
164.5620768690795046
 30
0.0
 11
3305.098103258610081
 21
164.5357149192880115
 31
0.0
  0
LINE
  5
1E76D
  8
0
 10
3304.8455645905728488
 20
164.6673041846792103
 30
0.0
 11
3305.1157238400760434
 21
164.5529169973688113
 31
0.0
  0
LINE
  5
1E76E
  8
0
 10
3304.6717892813071558
 20
164.4328767932246933
 30
0.0
 11
3304.9043363709502046
 21
164.3490038616176889
 31
0.0
  0
LINE
  5
1E76F
  8
0
 10
3304.6162532670277869
 20
164.3702752378864034
 30
0.0
 11
3304.8818241752610447
 21
164.3382434489606965
 31
0.0
  0
LINE
  5
1E770
  8
0
 10
3304.5930721797622027
 20
164.3498990549803125
 30
0.0
 11
3304.8061747402562105
 21
164.279602568840204
 31
0.0
  0
LINE
  5
1E771
  8
0
 10
3304.4488130818322134
 20
164.3201480569551052
 30
0.0
 11
3304.7873433268878216
 21
164.2714701276659071
 31
0.0
  0
LINE
  5
1E772
  8
0
 10
3304.7103470053561978
 20
164.2327667946053964
 30
0.0
 11
3304.4537870414160352
 21
164.3093934047589926
 31
0.0
  0
LINE
  5
1E773
  8
0
 10
3304.4284738943738375
 20
164.27163804511801
 30
0.0
 11
3304.6988963131138917
 21
164.2263562659948093
 31
0.0
  0
LINE
  5
1E774
  8
0
 10
3304.3474246764890268
 20
164.2557140314756907
 30
0.0
 11
3304.7100274012118462
 21
164.1855443982996121
 31
0.0
  0
LINE
  5
1E775
  8
0
 10
3304.3666117442658106
 20
164.2755001964711141
 30
0.0
 11
3304.6887232798439982
 21
164.1896670986535014
 31
0.0
  0
LINE
  5
1E776
  8
0
 10
3304.9369302480281476
 20
164.2533651654354969
 30
0.0
 11
3305.2695679214148186
 21
164.2211516271773064
 31
0.0
  0
LINE
  5
1E777
  8
0
 10
3304.9276642761610674
 20
164.2434453929635083
 30
0.0
 11
3305.1973028424599761
 21
164.1712102097201011
 31
0.0
  0
LINE
  5
1E778
  8
0
 10
3304.8987852663422018
 20
164.1988480588956918
 30
0.0
 11
3305.1789175848862214
 21
164.1653035136903043
 31
0.0
  0
LINE
  5
1E779
  8
0
 10
3304.8645534907241199
 20
164.1923835528793916
 30
0.0
 11
3305.0914535019092
 21
164.1388045580357016
 31
0.0
  0
LINE
  5
1E77A
  8
0
 10
3304.820409380809906
 20
164.1708198272681898
 30
0.0
 11
3305.0757067397598803
 21
164.1342827540615872
 31
0.0
  0
LINE
  5
1E77B
  8
0
 10
3305.0210798929360863
 20
164.3106541843447985
 30
0.0
 11
3305.2903550866258229
 21
164.2302299973345896
 31
0.0
  0
LINE
  5
1E77C
  8
0
 10
3305.035025882456921
 20
164.3232416727497025
 30
0.0
 11
3305.3713309789859522
 21
164.2983633350297907
 31
0.0
  0
LINE
  5
1E77D
  8
0
 10
3305.1186945578779159
 20
164.4000340524422938
 30
0.0
 11
3305.3856719545187843
 21
164.3121925261260969
 31
0.0
  0
LINE
  5
1E77E
  8
0
 10
3305.4757498434928493
 20
164.3977315242123041
 30
0.0
 11
3305.1069820506950236
 21
164.4164370348001967
 31
0.0
  0
LINE
  5
1E77F
  8
0
 10
3305.2352010468439403
 20
164.506588741503208
 30
0.0
 11
3305.4937518661399736
 21
164.413637088781087
 31
0.0
  0
LINE
  5
1E780
  8
0
 10
3305.2250125289451717
 20
164.5259956939283086
 30
0.0
 11
3305.5844625865988746
 21
164.4649751504443032
 31
0.0
  0
LINE
  5
1E781
  8
0
 10
3305.2201974029558187
 20
164.5291875740994101
 30
0.0
 11
3305.5689617043899489
 21
164.5203540882777986
 31
0.0
  0
LINE
  5
1E782
  8
0
 10
3305.3544547325418534
 20
164.6362068089912896
 30
0.0
 11
3305.6047257292448194
 21
164.5387486670732073
 31
0.0
  0
LINE
  5
1E783
  8
0
 10
3305.3772123036001176
 20
164.6593767068725924
 30
0.0
 11
3305.6245924056179319
 21
164.6490306100141936
 31
0.0
  0
LINE
  5
1E784
  8
0
 10
3305.2975248811580968
 20
164.6840434691312964
 30
0.0
 11
3305.3603885201478079
 21
164.7601107846109869
 31
0.0
  0
LINE
  5
1E785
  8
0
 10
3305.1853024974188884
 20
164.5458211471483025
 30
0.0
 11
3305.2304723251440919
 21
164.6078147786485033
 31
0.0
  0
LINE
  5
1E786
  8
0
 10
3305.0758384224182009
 20
164.4333194520507107
 30
0.0
 11
3305.1130793795541649
 21
164.4722831436544936
 31
0.0
  0
LINE
  5
1E787
  8
0
 10
3304.9809522359309994
 20
164.3469219007365041
 30
0.0
 11
3304.9969640376348252
 21
164.3611267869353867
 31
0.0
  0
LINE
  5
1E788
  8
0
 10
3304.8870677334712127
 20
164.2764987890728889
 30
0.0
 11
3304.8962051503372095
 21
164.2830033915651882
 31
0.0
  0
LINE
  5
1E789
  8
0
 10
3305.5937213217080171
 20
164.3929970611962119
 30
0.0
 11
3306.039988189676933
 21
164.3826131326279096
 31
0.0
  0
LINE
  5
1E78A
  8
0
 10
3305.7271521331049371
 20
164.4927812080003093
 30
0.0
 11
3306.0979899269009366
 21
164.3621872909646129
 31
0.0
  0
LINE
  5
1E78B
  8
0
 10
3305.9508460531260425
 20
164.2941847155805135
 30
0.0
 11
3306.0526953963899359
 21
164.3781381736918945
 31
0.0
  0
LINE
  5
1E78C
  8
0
 10
3305.9937490393717781
 20
164.2592725765605053
 30
0.0
 11
3306.166249010302181
 21
164.2106311485021877
 31
0.0
  0
LINE
  5
1E78D
  8
0
 10
3305.9180341366031826
 20
164.1846570070424036
 30
0.0
 11
3306.1408068184668991
 21
164.1761241674562086
 31
0.0
  0
LINE
  5
1E78E
  8
0
 10
3305.9076726858411348
 20
164.1689487426424137
 30
0.0
 11
3306.0695304482519532
 21
164.1275511092046031
 31
0.0
  0
LINE
  5
1E78F
  8
0
 10
3305.5093892094951116
 20
164.2755737199805992
 30
0.0
 11
3305.7758531741478691
 21
164.2045681378126005
 31
0.0
  0
LINE
  5
1E790
  8
0
 10
3305.4913334098650921
 20
164.2917863953570077
 30
0.0
 11
3305.8302519362860039
 21
164.2832041338845102
 31
0.0
  0
LINE
  5
1E791
  8
0
 10
3305.6138599348319076
 20
164.3747152516897074
 30
0.0
 11
3305.869527293756164
 21
164.2993909873765119
 31
0.0
  0
LINE
  5
1E792
  8
0
 10
3305.4139252246509386
 20
164.2104090732721033
 30
0.0
 11
3305.7354926183079442
 21
164.1944451218008965
 31
0.0
  0
LINE
  5
1E793
  8
0
 10
3305.4165418463840069
 20
164.1969973566679926
 30
0.0
 11
3305.6752202346219747
 21
164.1359138067977881
 31
0.0
  0
LINE
  5
1E794
  8
0
 10
3305.3789772320228622
 20
164.1473769915918126
 30
0.0
 11
3305.6357855095811829
 21
164.1288289643669884
 31
0.0
  0
LINE
  5
1E795
  8
0
 10
3305.8170927187361485
 20
164.1134215967553871
 30
0.0
 11
3305.998582293194886
 21
164.1018679552825006
 31
0.0
  0
LINE
  5
1E796
  8
0
 10
3305.2708480096798667
 20
164.1680973551036118
 30
0.0
 11
3305.2785918793729252
 21
164.1728510530269887
 31
0.0
  0
LINE
  5
1E797
  8
0
 10
3305.363630097001078
 20
164.2284953391445015
 30
0.0
 11
3305.3800222164250044
 21
164.2416395462911964
 31
0.0
  0
LINE
  5
1E798
  8
0
 10
3305.4582897033110385
 20
164.3067966350338907
 30
0.0
 11
3305.4884566042960614
 21
164.3360678764902048
 31
0.0
  0
LINE
  5
1E799
  8
0
 10
3305.5602999661577996
 20
164.4077281312607113
 30
0.0
 11
3305.6056859870409426
 21
164.4590103566488892
 31
0.0
  0
LINE
  5
1E79A
  8
0
 10
3305.6752911197781941
 20
164.5352435304679943
 30
0.0
 11
3305.7296939916132033
 21
164.5981489098734016
 31
0.0
  0
LINE
  5
1E79B
  8
0
 10
3302.5676388047459113
 20
165.2474773244697133
 30
0.0
 11
3302.5668935700277871
 21
165.246589219064191
 31
0.0
  0
LINE
  5
1E79C
  8
0
 10
3302.5017448357511967
 20
165.1689506689129132
 30
0.0
 11
3302.4838004183689009
 21
165.1475660854015075
 31
0.0
  0
LINE
  5
1E79D
  8
0
 10
3304.6909633983918866
 20
164.4526956304586065
 30
0.0
 11
3304.6765904711742223
 21
164.451444710439489
 31
0.0
  0
LINE
  5
1E79E
  8
0
 10
3305.1852363282619081
 20
164.6763346539468102
 30
0.0
 11
3304.8668146511649866
 21
164.6870370071544016
 31
0.0
  0
LINE
  5
1E79F
  8
0
 10
3305.867714800081103
 20
164.2204900480726906
 30
0.0
 11
3305.847323761277039
 21
164.2024136836519972
 31
0.0
  0
LINE
  5
1E7A0
  8
0
 10
3304.0848009243950401
 20
164.6558069301032106
 30
0.0
 11
3304.1041534330988725
 21
164.6515263553802981
 31
0.0
  0
LINE
  5
1E7A1
  8
0
 10
3303.8416475034910036
 20
164.7004870757133972
 30
0.0
 11
3303.8878921044770323
 21
164.695931912685495
 31
0.0
  0
ARC
  5
1E7A2
  8
0
 10
3303.3116243175040836
 20
164.3167201592482911
 30
0.0
 40
0.1650375063536247
 50
58.2039514599366612
 51
85.7937740219670957
  0
ARC
  5
1E7A3
  8
0
 10
3303.4175367408702186
 20
164.6426632146992119
 30
0.0
 40
0.1866378626319349
 50
239.8266643787717101
 51
264.1710763280916012
  0
ARC
  5
1E7A4
  8
0
 10
3303.5081517841867935
 20
164.4272329363288918
 30
0.0
 40
0.1026276216022009
 50
63.4170708789644735
 51
87.6492608441507031
  0
ARC
  5
1E7A5
  8
0
 10
3303.5419253835511881
 20
164.5581383055495905
 30
0.0
 40
0.0409702630112963
 50
223.8132246765136131
 51
287.253107046624109
  0
LINE
  5
1E7A6
  8
0
 10
3305.3265827369500585
 20
164.1444364569418042
 30
0.0
 11
3305.7173278532959557
 21
163.6556377294197091
 31
0.0
  0
ARC
  5
1E7A7
  8
0
 10
3305.6422304662969509
 20
163.5956049683503011
 30
0.0
 40
0.0961433821735163
 50
24.1030833524909482
 51
38.6387983080089299
  0
ARC
  5
1E7A8
  8
0
 10
3305.6858696752410651
 20
163.6151285482771129
 30
0.0
 40
0.0483359483330065
 50
8.0353809065820361
 51
24.1030833524879817
  0
ARC
  5
1E7A9
  8
0
 10
3305.7148520965888565
 20
163.6192200140797013
 30
0.0
 40
0.0190661543532537
 50
344.4057081224182753
 51
8.035380906583649
  0
LINE
  5
1E7AA
  8
0
 10
3313.571330780811877
 20
162.011908399141987
 30
0.0
 11
3313.5860978114988029
 21
158.9270934972529119
 31
0.0
  0
LINE
  5
1E7AB
  8
0
 10
3308.4361635135828692
 20
160.3401089755249984
 30
0.0
 11
3308.6146755875961389
 21
160.1098013047196957
 31
0.0
  0
ARC
  5
1E7AC
  8
0
 10
3308.5366536841861489
 20
160.5476792676786886
 30
0.0
 40
0.2723696639724844
 50
258.4488952730413871
 51
281.2726475808422038
  0
ARC
  5
1E7AD
  8
0
 10
3309.0232264682149435
 20
159.6469049568335947
 30
0.0
 40
0.767658312849605
 50
101.9028416177914949
 51
124.3664376732135963
  0
ARC
  5
1E7AE
  8
0
 10
3307.7615794238349736
 20
161.9739525684310024
 30
0.0
 40
1.923733272040691
 50
304.9966317101661275
 51
309.9108054473699099
  0
ARC
  5
1E7AF
  8
0
 10
3309.6566740873981871
 20
160.1813509118179866
 30
0.0
 40
0.7329425309939899
 50
131.0535920837002095
 51
154.3723237439334071
  0
ARC
  5
1E7B0
  8
0
 10
3308.9249036699998214
 20
160.8480936070598091
 30
0.0
 40
0.2751431149820807
 50
335.5151103802808734
 51
356.9068452023715281
  0
LINE
  5
1E7B1
  8
0
 10
3308.5898959577389178
 20
160.280564134924191
 30
0.0
 11
3308.7204522953229571
 21
160.1101349338630939
 31
0.0
  0
LINE
  5
1E7B2
  8
0
 10
3308.8648948570971697
 20
160.3980576618197063
 30
0.0
 11
3308.9967624095620522
 21
160.2259167914851901
 31
0.0
  0
LINE
  5
1E7B3
  8
0
 10
3308.9958357265190898
 20
160.4983641836697927
 30
0.0
 11
3309.1261048485957872
 21
160.3283099161197072
 31
0.0
  0
LINE
  5
1E7B4
  8
0
 10
3309.1753033309960301
 20
160.7340596494190947
 30
0.0
 11
3309.305872751429888
 21
160.5636133701636084
 31
0.0
  0
ARC
  5
1E7B5
  8
0
 10
3308.5091566024921121
 20
160.4215657711278027
 30
0.0
 40
0.1082755968557579
 50
228.9668571009721916
 51
239.2283569544563875
  0
ARC
  5
1E7B6
  8
0
 10
3308.5177390762769392
 20
160.4359792191172005
 30
0.0
 40
0.125050767173724
 50
239.228356954457297
 51
257.2100878288222816
  0
ARC
  5
1E7B7
  8
0
 10
3308.5403559244900862
 20
160.5356088390144009
 30
0.0
 40
0.2272152570121614
 50
257.2100878288222816
 51
274.2387904538630892
  0
ARC
  5
1E7B8
  8
0
 10
3308.5261537779038008
 20
160.7272290615941017
 30
0.0
 40
0.4193610627668261
 50
274.2387904538630892
 51
286.6486791873604716
  0
ARC
  5
1E7B9
  8
0
 10
3308.2796608499379545
 20
161.5515145381135937
 30
0.0
 40
1.279712915405196
 50
286.6486791873604716
 51
289.0212130964928861
  0
ARC
  5
1E7BA
  8
0
 10
3308.246022954925138
 20
161.3565407379551004
 30
0.0
 40
1.1121781882084429
 50
296.5482237517388171
 51
303.1839699437650779
  0
ARC
  5
1E7BB
  8
0
 10
3308.3442632799888088
 20
161.2063220746800027
 30
0.0
 40
0.9326877754703202
 50
303.1839699437650779
 51
315.5866615840519103
  0
ARC
  5
1E7BC
  8
0
 10
3308.3764396849392142
 20
161.1747979336417984
 30
0.0
 40
0.8876423261587213
 50
315.5866615840519103
 51
321.5809316315230149
  0
ARC
  5
1E7BD
  8
0
 10
3308.7180371772360559
 20
160.9182488901188037
 30
0.0
 40
0.4607520342179377
 50
323.6295401526764977
 51
342.0731455387315236
  0
ARC
  5
1E7BE
  8
0
 10
3308.9764249449158342
 20
160.8346581546697962
 30
0.0
 40
0.1891794849068251
 50
342.0731455387330016
 51
1.9138393743919311
  0
ARC
  5
1E7BF
  8
0
 10
3309.0427345726020576
 20
160.8368739059316965
 30
0.0
 40
0.1228328476333732
 50
1.9138393743919311
 51
25.0209149610585584
  0
LINE
  5
1E7C0
  8
0
 10
3313.4314221166428069
 20
162.2219980135118931
 30
0.0
 11
3317.039054276996012
 21
162.2219980135118931
 31
0.0
  0
ARC
  5
1E7C1
  8
0
 10
3314.0234752144688173
 20
164.8852416596874946
 30
0.0
 40
0.1103949809864427
 50
309.4327513565738172
 51
316.5672483589546005
  0
ARC
  5
1E7C2
  8
0
 10
3305.7145149676989604
 20
163.8216312534648864
 30
0.0
 40
0.2207187445180007
 50
268.1051330368297272
 51
268.5679566606664253
  0
ENDSEC
  0
EOF
