  0
SECTION
  2
HEADER
  9
$ACADVER
  1
AC1009
  9
$INSBASE
 10
2899.3857987126730222
 20
156.2787706745455978
 30
0.0
  9
$EXTMIN
 10
2894.4643249326109071
 20
151.8689526378321091
 30
0.0
  9
$EXTMAX
 10
2904.3072722577189779
 20
159.3283526378320971
 30
0.0
  9
$LIMMIN
 10
0.0
 20
0.0
  9
$LIMMAX
 10
11.6929133858000007
 20
8.2677165353999982
  9
$ORTHOMODE
 70
     0
  9
$REGENMODE
 70
     1
  9
$FILLMODE
 70
     1
  9
$QTEXTMODE
 70
     0
  9
$MIRRTEXT
 70
     0
  9
$DRAGMODE
 70
     2
  9
$LTSCALE
 40
0.6431102362
  9
$OSMODE
 70
  4095
  9
$ATTMODE
 70
     1
  9
$TEXTSIZE
 40
0.2
  9
$TRACEWID
 40
0.05
  9
$TEXTSTYLE
  7
STANDARD
  9
$CLAYER
  8
0
  9
$CELTYPE
  6
BYLAYER
  9
$CECOLOR
 62
   256
  9
$DIMSCALE
 40
1.0
  9
$DIMASZ
 40
0.1875
  9
$DIMEXO
 40
0.0625
  9
$DIMDLI
 40
0.4443307087
  9
$DIMRND
 40
0.0
  9
$DIMDLE
 40
0.0
  9
$DIMEXE
 40
0.125
  9
$DIMTP
 40
0.01
  9
$DIMTM
 40
0.01
  9
$DIMTXT
 40
2.0
  9
$DIMCEN
 40
0.1052362205
  9
$DIMTSZ
 40
0.0
  9
$DIMTOL
 70
     1
  9
$DIMLIM
 70
     0
  9
$DIMTIH
 70
     1
  9
$DIMTOH
 70
     1
  9
$DIMSE1
 70
     0
  9
$DIMSE2
 70
     0
  9
$DIMTAD
 70
     0
  9
$DIMZIN
 70
     0
  9
$DIMBLK
  1

  9
$DIMASO
 70
     1
  9
$DIMSHO
 70
     1
  9
$DIMPOST
  1
\X
  9
$DIMAPOST
  1

  9
$DIMALT
 70
     1
  9
$DIMALTD
 70
     2
  9
$DIMALTF
 40
25.3999999999999986
  9
$DIMLFAC
 40
1.0
  9
$DIMTOFL
 70
     0
  9
$DIMTVP
 40
0.0
  9
$DIMTIX
 70
     0
  9
$DIMSOXD
 70
     0
  9
$DIMSAH
 70
     0
  9
$DIMBLK1
  1

  9
$DIMBLK2
  1

  9
$DIMSTYLE
  2
STANDARD
  9
$DIMCLRD
 70
     0
  9
$DIMCLRE
 70
     0
  9
$DIMCLRT
 70
     0
  9
$DIMTFAC
 40
1.0
  9
$DIMGAP
 40
0.09
  9
$LUNITS
 70
     2
  9
$LUPREC
 70
     4
  9
$SKETCHINC
 40
0.1
  9
$FILLETRAD
 40
0.0
  9
$AUNITS
 70
     0
  9
$AUPREC
 70
     0
  9
$MENU
  1
.
  9
$ELEVATION
 40
0.0
  9
$PELEVATION
 40
0.0
  9
$THICKNESS
 40
0.0
  9
$LIMCHECK
 70
     0
  9
$BLIPMODE
 70
     0
  9
$CHAMFERA
 40
0.0
  9
$CHAMFERB
 40
0.0
  9
$SKPOLY
 70
     0
  9
$TDCREATE
 40
2458060.468368056230247
  9
$TDUPDATE
 40
2459902.5219675931148231
  9
$TDINDWG
 40
0.2978890046
  9
$TDUSRTIMER
 40
0.2978890046
  9
$USRTIMER
 70
     1
  9
$ANGBASE
 50
0.0
  9
$ANGDIR
 70
     0
  9
$PDMODE
 70
     0
  9
$PDSIZE
 40
0.3125
  9
$PLINEWID
 40
0.0
  9
$COORDS
 70
     1
  9
$SPLFRAME
 70
     0
  9
$SPLINETYPE
 70
     6
  9
$SPLINESEGS
 70
     8
  9
$ATTDIA
 70
     1
  9
$ATTREQ
 70
     1
  9
$HANDLING
 70
     1
  9
$HANDSEED
  5
C2AE
  9
$SURFTAB1
 70
     6
  9
$SURFTAB2
 70
     6
  9
$SURFTYPE
 70
     6
  9
$SURFU
 70
     6
  9
$SURFV
 70
     6
  9
$UCSNAME
  2

  9
$UCSORG
 10
0.0
 20
0.0
 30
0.0
  9
$UCSXDIR
 10
1.0
 20
0.0
 30
0.0
  9
$UCSYDIR
 10
0.0
 20
1.0
 30
0.0
  9
$PUCSNAME
  2

  9
$PUCSORG
 10
0.0
 20
0.0
 30
0.0
  9
$PUCSXDIR
 10
1.0
 20
0.0
 30
0.0
  9
$PUCSYDIR
 10
0.0
 20
1.0
 30
0.0
  9
$USERI1
 70
     0
  9
$USERI2
 70
     0
  9
$USERI3
 70
     0
  9
$USERI4
 70
     0
  9
$USERI5
 70
     0
  9
$USERR1
 40
0.0
  9
$USERR2
 40
0.0
  9
$USERR3
 40
0.0
  9
$USERR4
 40
0.0
  9
$USERR5
 40
0.0
  9
$WORLDVIEW
 70
     1
  9
$SHADEDGE
 70
     3
  9
$SHADEDIF
 70
    70
  9
$TILEMODE
 70
     1
  9
$MAXACTVP
 70
    64
  9
$PLIMCHECK
 70
     0
  9
$PEXTMIN
 10
1.0000000000000000E+20
 20
1.0000000000000000E+20
 30
1.0000000000000000E+20
  9
$PEXTMAX
 10
-1.0000000000000000E+20
 20
-1.0000000000000000E+20
 30
-1.0000000000000000E+20
  9
$PLIMMIN
 10
0.0
 20
0.0
  9
$PLIMMAX
 10
12.0
 20
9.0
  9
$UNITMODE
 70
     0
  9
$VISRETAIN
 70
     1
  9
$PLINEGEN
 70
     0
  9
$PSLTSCALE
 70
     1
  0
ENDSEC
  0
SECTION
  2
TABLES
  0
TABLE
  2
VPORT
 70
     1
  0
VPORT
  2
*ACTIVE
 70
     0
 10
0.0
 20
0.0
 11
1.0
 21
1.0
 12
33.0479754585922905
 22
6.2463736362027014
 13
0.0
 23
0.0
 14
1.0
 24
1.0
 15
0.0
 25
0.0
 16
0.0
 26
0.0
 36
28.4933654947647597
 17
2870.15283203125
 27
149.2365341186522869
 37
0.0
 40
10.0381016632363593
 41
2.5251322751322749
 42
50.0
 43
0.0
 44
0.0
 50
0.0
 51
0.0
 71
     0
 72
   100
 73
     1
 74
     1
 75
     0
 76
     0
 77
     0
 78
     0
  0
ENDTAB
  0
TABLE
  2
LTYPE
 70
     2
  0
LTYPE
  2
CONTINUOUS
 70
     0
  3
Solid line
 72
    65
 73
     0
 40
0.0
  0
LTYPE
  2
PHANTOM2
 70
     0
  3
___ _ _ ___ _ _ ___ _ _ ___ _ _
 72
    65
 73
     6
 40
1.25
 49
0.625
 49
-0.125
 49
0.125
 49
-0.125
 49
0.125
 49
-0.125
  0
ENDTAB
  0
TABLE
  2
LAYER
 70
     2
  0
LAYER
  2
0
 70
     0
 62
   255
  6
CONTINUOUS
  0
LAYER
  2
DEFPOINTS
 70
     0
 62
     7
  6
CONTINUOUS
  0
ENDTAB
  0
TABLE
  2
STYLE
 70
     1
  0
STYLE
  2
STANDARD
 70
     0
 40
0.0
 41
0.8
 50
0.0
 71
     0
 42
0.2
  3
txt
  4

  0
ENDTAB
  0
TABLE
  2
VIEW
 70
     0
  0
ENDTAB
  0
TABLE
  2
UCS
 70
     0
  0
ENDTAB
  0
TABLE
  2
APPID
 70
     9
  0
APPID
  2
ACAD
 70
     0
  0
APPID
  2
ACAD_MLEADERVER
 70
     0
  0
APPID
  2
ACAD_EXEMPT_FROM_CAD_STANDARDS
 70
     0
  0
APPID
  2
ACAD_NAV_VCDISPLAY
 70
     0
  0
APPID
  2
ACAECLAYERSTANDARD
 70
     0
  0
APPID
  2
ACCMTRANSPARENCY
 70
     0
  0
APPID
  2
ACAD_DSTYLE_DIMJAG
 70
     0
  0
APPID
  2
ACAD_DSTYLE_DIMTALN
 70
     0
  0
APPID
  2
ACDBATTR
 70
     0
  0
ENDTAB
  0
TABLE
  2
DIMSTYLE
 70
     1
  0
DIMSTYLE
  2
STANDARD
 70
     0
  3

  4

  5

  6

  7

 40
1.0
 41
0.1875
 42
0.0625
 43
0.38
 44
0.125
 45
0.0
 46
0.0
 47
0.01
 48
0.01
140
0.15625
141
0.09
142
0.0
143
25.3999999999999986
144
1.0
145
0.0
146
1.0
147
0.09
 71
     1
 72
     0
 73
     1
 74
     1
 75
     0
 76
     0
 77
     0
 78
     4
170
     0
171
     2
172
     0
173
     0
174
     0
175
     0
176
     0
177
     0
178
     0
  0
ENDTAB
  0
ENDSEC
  0
SECTION
  2
BLOCKS
  0
BLOCK
  8
0
  2
$MODEL_SPACE
 70
     0
 10
0.0
 20
0.0
 30
0.0
  3
$MODEL_SPACE
  1

  0
ENDBLK
  5
21
  8
0
  0
BLOCK
 67
     1
  8
0
  2
$PAPER_SPACE
 70
     0
 10
0.0
 20
0.0
 30
0.0
  3
$PAPER_SPACE
  1

  0
ENDBLK
  5
1D
 67
     1
  8
0
  0
BLOCK
  8
0
  2
_FILLED
 70
     0
 10
0.0
 20
0.0
 30
0.0
  3
_FILLED
  1

  0
SOLID
  5
7FB1
  8
0
  6
BYBLOCK
 62
     0
 10
0.0
 20
0.0
 30
0.0
 11
-1.0
 21
0.1666666667
 31
0.0
 12
-1.0
 22
-0.1666666667
 32
0.0
 13
-1.0
 23
-0.1666666667
 33
0.0
  0
ENDBLK
  5
7FB2
  8
0
  6
BYBLOCK
 62
     0
  0
ENDSEC
  0
SECTION
  2
ENTITIES
  0
ATTDEF
  5
3930
  8
DEFPOINTS
 10
2899.3814165621229222
 20
156.2763946008685991
 30
0.0
 40
0.001
  1
K-76465-Y
  3

  2
MODELNUMBER
 70
     0
1001
ACDBATTR
1070
     0
1070
     1
  0
ATTDEF
  5
3931
  8
DEFPOINTS
 10
2899.3814165621229222
 20
156.2747279342019056
 30
0.0
 40
0.001
  1
AWAKEN
  3

  2
TRADENAME
 70
     0
1001
ACDBATTR
1070
     0
1070
     1
  0
ATTDEF
  5
3932
  8
DEFPOINTS
 10
2899.3814165621229222
 20
156.2730612675352972
 30
0.0
 40
0.001
  1
SHOWERHEAD
  3

  2
PRODUCT
 70
     0
1001
ACDBATTR
1070
     0
1070
     1
  0
ARC
  5
C021
  8
0
 10
2899.4505724970858864
 20
152.1658383771047909
 30
0.0
 40
7.16280714479264
 50
90.518137890986182
 51
105.9397439254232012
  0
ARC
  5
C022
  8
0
 10
2898.7078953598620501
 20
154.4669026273062116
 30
0.0
 40
4.7469693261408867
 50
104.9476723067768944
 51
138.736378888139086
  0
ARC
  5
C023
  8
0
 10
2897.3168966688049295
 20
155.7698335175149964
 30
0.0
 40
2.8427403586810942
 50
139.985960212684887
 51
177.0683863989594045
  0
ARC
  5
C024
  8
0
 10
2897.2128629724129496
 20
155.9221074801745033
 30
0.0
 40
2.6656179051120321
 50
141.0550133352969056
 51
226.0848474461332955
  0
ARC
  5
C025
  8
0
 10
2899.3904976201329191
 20
158.4609233186330925
 30
0.0
 40
6.0079648998982043
 50
227.918155221194894
 51
269.9551871007328145
  0
ARC
  5
C026
  8
0
 10
2897.3984754786270059
 20
155.9582959846364076
 30
0.0
 40
2.9209164544170472
 50
180.8449447253333915
 51
230.8069263529172019
  0
ARC
  5
C027
  8
0
 10
2898.861263329833946
 20
157.5185136491992921
 30
0.0
 40
5.0566640145668611
 50
229.1327512815979901
 51
255.4670457259439047
  0
ARC
  5
C028
  8
0
 10
2899.3741288256542248
 20
159.1183922195185971
 30
0.0
 40
6.734718740263359
 50
254.6589133555060016
 51
270.0992808907536187
  0
LINE
  5
C029
  8
0
 10
2894.4778766330650797
 20
155.9152225939320999
 30
0.0
 11
2894.4643249326109071
 21
155.3545809762289025
 31
0.0
  0
ARC
  5
C02A
  8
0
 10
2897.005863394374046
 20
155.3579481878423962
 30
0.0
 40
2.5415406923224411
 50
180.075909495056095
 51
204.2524515728657946
  0
ARC
  5
C02B
  8
0
 10
2897.9829418785388953
 20
155.8848671225871954
 30
0.0
 40
3.649679375122231
 50
205.4939002155406911
 51
240.4033491625172871
  0
ARC
  5
C02C
  8
0
 10
2899.9157092679051857
 20
160.4046245373556019
 30
0.0
 40
8.5521050097270255
 50
244.101961921214496
 51
266.4475287768325984
  0
LINE
  5
C02D
  8
0
 10
2898.499771789305214
 20
156.3580891702154076
 30
0.0
 11
2898.4921040406838983
 21
156.0475143955439137
 31
0.0
  0
ARC
  5
C02E
  8
0
 10
2898.9532135153358468
 20
156.0361301112201033
 30
0.0
 40
0.461249985955127
 50
178.5857177092150039
 51
210.2302599207575895
  0
ARC
  5
C02F
  8
0
 10
2899.2075251747937727
 20
156.20852164429769
 30
0.0
 40
0.7680572389132824
 50
211.7901496794630987
 51
249.8637005325741995
  0
ARC
  5
C030
  8
0
 10
2899.38096767718298
 20
156.6012642854572903
 30
0.0
 40
1.1968215421762709
 50
248.5404798504295911
 51
270.2312725443060231
  0
ARC
  5
C031
  8
0
 10
2899.0549480347290228
 20
156.3225372058520861
 30
0.0
 40
0.5563134059610723
 50
123.1514528347879036
 51
176.3359384218580033
  0
ARC
  5
C032
  8
0
 10
2899.3675354295969555
 20
155.8886787515629919
 30
0.0
 40
1.09076557030652
 50
89.040626845856508
 51
124.435853438632293
  0
ARC
  5
C033
  8
0
 10
2899.0098956820929743
 20
156.3574816569077939
 30
0.0
 40
0.5101242545351699
 50
179.9317657287583074
 51
229.4741440911913912
  0
ARC
  5
C034
  8
0
 10
2899.3897829307811662
 20
156.8604855778831961
 30
0.0
 40
1.1399478984938449
 50
231.3889868850947096
 51
269.7997399003444912
  0
ARC
  5
C035
  8
0
 10
2899.3751614148318367
 20
156.1030976629465954
 30
0.0
 40
0.336609999724475
 50
88.1891000794872326
 51
133.3227597674824096
  0
ARC
  5
C036
  8
0
 10
2899.3734734945651326
 20
156.112416419152396
 30
0.0
 40
0.3551758925180197
 50
88.0113570028473475
 51
134.9911812969386062
  0
ARC
  5
C037
  8
0
 10
2899.374222577484943
 20
156.0834455390146047
 30
0.0
 40
0.4154124048604369
 50
88.4031703941849401
 51
132.6955729585245933
  0
ARC
  5
C038
  8
0
 10
2899.3769708572258423
 20
156.349264408195296
 30
0.0
 40
0.4306950750885289
 50
88.8255553012991044
 51
126.9051070191879944
  0
ARC
  5
C039
  8
0
 10
2899.2280016646568583
 20
156.5308348116639081
 30
0.0
 40
0.1963104124298842
 50
123.9592249271541959
 51
226.3629340827397129
  0
ARC
  5
C03A
  8
0
 10
2899.3733286383048835
 20
156.6914922374959929
 30
0.0
 40
0.4129099035477185
 50
227.1526331405785015
 51
250.3012791888208142
  0
ARC
  5
C03B
  8
0
 10
2899.3863055340739265
 20
156.7735729457230889
 30
0.0
 40
0.4948025309844794
 50
252.0905867817783133
 51
269.9412988753085187
  0
ARC
  5
C03C
  8
0
 10
2899.1066511640069621
 20
156.3540053472198963
 30
0.0
 40
0.3334123590196201
 50
128.0366523836015062
 51
218.90254808907099
  0
ARC
  5
C03D
  8
0
 10
2899.3758341310049218
 20
156.6555658187799054
 30
0.0
 40
0.735209312164259
 50
224.0242023286523079
 51
270.7765669072230139
  0
LINE
  5
C03E
  8
0
 10
2898.8936726108649964
 20
156.5515908708320865
 30
0.0
 11
2898.8936848149501202
 21
156.2871271867842893
 31
0.0
  0
ARC
  5
C03F
  8
0
 10
2899.1891866581931936
 20
156.2971018437320936
 30
0.0
 40
0.2956701424578885
 50
181.933283493771313
 51
234.3020522949454119
  0
ARC
  5
C040
  8
0
 10
2899.4000240629579821
 20
156.5905353190954088
 30
0.0
 40
0.6569949488470166
 50
234.3020522949454119
 51
268.7593162360789734
  0
LINE
  5
C041
  8
0
 10
2899.1929253870662251
 20
156.2314441473320983
 30
0.0
 11
2899.1929253870662251
 21
156.0365721997320918
 31
0.0
  0
LINE
  5
C042
  8
0
 10
2899.1929253870662251
 20
156.0365721997320918
 30
0.0
 11
2899.5786718032650242
 21
156.0365721997320918
 31
0.0
  0
ARC
  5
C043
  8
0
 10
2899.3857985951649425
 20
156.6908191248994058
 30
0.0
 40
0.682084388835893
 50
253.574385246222505
 51
286.425614753777495
  0
ARC
  5
C044
  8
0
 10
2899.3264370172360032
 20
156.7048174707541932
 30
0.0
 40
0.4918410909209931
 50
222.5162718252358047
 51
254.2492661299934866
  0
ARC
  5
C045
  8
0
 10
2899.1608886232061195
 20
156.5530001900891079
 30
0.0
 40
0.2672197287476559
 50
180.3021798582446991
 51
222.5109597701946882
  0
ARC
  5
C046
  8
0
 10
2899.1670385100587737
 20
156.5528274464178082
 30
0.0
 40
0.2733686960156012
 50
132.9449956472010115
 51
180.2591767263913027
  0
ARC
  5
C047
  8
0
 10
2899.3638222833669715
 20
156.3413346085488911
 30
0.0
 40
0.5622511514427466
 50
106.2162084812229068
 51
132.9407260191775038
  0
ARC
  5
C048
  8
0
 10
2899.2466819041101189
 20
156.7063554497815971
 30
0.0
 40
0.1793499825568152
 50
88.6699985530720909
 51
102.8461002871627983
  0
LINE
  5
C049
  8
0
 10
2899.2508447643408545
 20
156.8856571141321012
 30
0.0
 11
2899.5207524259899401
 21
156.8856571141321012
 31
0.0
  0
ARC
  5
C04A
  8
0
 10
2899.3770859357250629
 20
156.3351887192891922
 30
0.0
 40
0.5310527393063355
 50
89.0599408027229629
 51
120.9983473492568038
  0
ARC
  5
C04B
  8
0
 10
2899.2519119111598229
 20
156.5326303658017082
 30
0.0
 40
0.2973959417827817
 50
119.9171127838680064
 51
162.8915425046160976
  0
ARC
  5
C04C
  8
0
 10
2899.1847308579390301
 20
156.5652864316294881
 30
0.0
 40
0.2238737432138705
 50
165.8225946866571974
 51
216.2590378818333932
  0
ARC
  5
C04D
  8
0
 10
2899.3072877205299847
 20
156.658206155174895
 30
0.0
 40
0.3776616704784852
 50
216.6294143326680057
 51
249.1027992796533965
  0
ARC
  5
C04E
  8
0
 10
2899.3830808016891751
 20
156.8315974467026876
 30
0.0
 40
0.5667532590252888
 50
248.1969315418064923
 51
270.2747557073183202
  0
ARC
  5
C04F
  8
0
 10
2899.3776467582019905
 20
156.305879866423993
 30
0.0
 40
0.5166000540232467
 50
89.0958474836376837
 51
122.7839377882811931
  0
ARC
  5
C050
  8
0
 10
2899.2509635078531574
 20
156.5025748686516067
 30
0.0
 40
0.2826394380633364
 50
122.7839377882811931
 51
178.9469307034129031
  0
ARC
  5
C051
  8
0
 10
2899.3857985951649425
 20
156.0477077396321874
 30
0.0
 40
0.5472637794998895
 50
154.0565047903018865
 51
169.7996426252030062
  0
ARC
  5
C052
  8
0
 10
2899.131377895787864
 20
156.2201175138939107
 30
0.0
 40
0.3202902124159725
 50
137.9139556091911913
 51
183.9066153648309978
  0
ARC
  5
C053
  8
0
 10
2899.3210246932439986
 20
152.1658383771047909
 30
0.0
 40
7.16280714479264
 50
74.060256074576742
 51
89.4818621090138038
  0
ARC
  5
C054
  8
0
 10
2900.063701830467835
 20
154.4669026273062116
 30
0.0
 40
4.7469693261408867
 50
41.2636211118608713
 51
75.0523276932231056
  0
ARC
  5
C055
  8
0
 10
2901.454700521525865
 20
155.7698335175149964
 30
0.0
 40
2.8427403586810942
 50
2.9316136010421578
 51
40.0140397873150491
  0
ARC
  5
C056
  8
0
 10
2901.5587342179178449
 20
155.9221074801745033
 30
0.0
 40
2.6656179051120321
 50
313.915152553866676
 51
38.944986664701851
  0
ARC
  5
C057
  8
0
 10
2899.209627198196813
 20
158.9061525997487081
 30
0.0
 40
6.4555966247753087
 50
271.5637796768422731
 51
310.5628780012165748
  0
ARC
  5
C058
  8
0
 10
2901.3731217117028791
 20
155.9582959846364076
 30
0.0
 40
2.9209164544170472
 50
309.1930736470828265
 51
359.1550552746649032
  0
ARC
  5
C059
  8
0
 10
2899.9103338604968485
 20
157.5185136491992921
 30
0.0
 40
5.0566640145668611
 50
284.5329542740561237
 51
310.8672487184020952
  0
ARC
  5
C05A
  8
0
 10
2899.397468364676115
 20
159.1183922195185971
 30
0.0
 40
6.734718740263359
 50
269.9007191092463813
 51
285.3410866444939984
  0
LINE
  5
C05B
  8
0
 10
2904.2937205572648054
 20
155.9152225939320999
 30
0.0
 11
2904.3072722577189779
 21
155.3545809762289025
 31
0.0
  0
ARC
  5
C05C
  8
0
 10
2901.7657337959572033
 20
155.3579481878423962
 30
0.0
 40
2.5415406923225232
 50
335.747548427134177
 51
359.9240905049405796
  0
ARC
  5
C05D
  8
0
 10
2900.7886553117909898
 20
155.8848671225871954
 30
0.0
 40
3.649679375122231
 50
299.5966508374827981
 51
334.5060997844594226
  0
ARC
  5
C05E
  8
0
 10
2899.3492818743898169
 20
158.5272903182369078
 30
0.0
 40
6.658437815072987
 50
270.3142275303209772
 51
299.1362817716341169
  0
LINE
  5
C05F
  8
0
 10
2900.2718254010251258
 20
156.3580891702154076
 30
0.0
 11
2900.2794931496468962
 21
156.0475143955439137
 31
0.0
  0
ARC
  5
C060
  8
0
 10
2899.8183836749949478
 20
156.0361301112201033
 30
0.0
 40
0.461249985955127
 50
329.7697400792408757
 51
1.4142822907850241
  0
ARC
  5
C061
  8
0
 10
2899.5640720155361123
 20
156.20852164429769
 30
0.0
 40
0.7680572389132824
 50
290.1362994674262836
 51
328.2098503205368729
  0
ARC
  5
C062
  8
0
 10
2899.3906295131469051
 20
156.6012642854572903
 30
0.0
 40
1.1968215421762709
 50
269.7687274556939769
 51
291.4595201495703805
  0
ARC
  5
C063
  8
0
 10
2899.7166491556022265
 20
156.3225372058520861
 30
0.0
 40
0.5563134059610723
 50
3.6640615781419621
 51
56.8485471652120395
  0
ARC
  5
C064
  8
0
 10
2899.4040617607329295
 20
155.8886787515629919
 30
0.0
 40
1.09076557030652
 50
55.5641465613667691
 51
90.959373154143492
  0
ARC
  5
C065
  8
0
 10
2899.7617015082369107
 20
156.3574816569077939
 30
0.0
 40
0.5101242545351699
 50
310.525855908808694
 51
0.0682342712416308
  0
ARC
  5
C066
  8
0
 10
2899.3434898245081968
 20
156.9692795471339934
 30
0.0
 40
1.249451437364214
 50
271.9405135891753957
 51
306.870759625385972
  0
ARC
  5
C067
  8
0
 10
2899.3964357754980483
 20
156.1030976629465954
 30
0.0
 40
0.336609999724475
 50
46.6772402325176117
 51
91.8108999204867331
  0
ARC
  5
C068
  8
0
 10
2899.3981236957661167
 20
156.112416419152396
 30
0.0
 40
0.3551758925180197
 50
45.0088187030613724
 51
91.9886429971526667
  0
ARC
  5
C069
  8
0
 10
2899.3973746128458515
 20
156.0834455390146047
 30
0.0
 40
0.4154124048604369
 50
47.3044270414753711
 51
91.5968296058150457
  0
ARC
  5
C06A
  8
0
 10
2899.3946263331049522
 20
156.349264408195296
 30
0.0
 40
0.4306950750885289
 50
53.0948929808119701
 51
91.1744446987008814
  0
ARC
  5
C06B
  8
0
 10
2899.5435955256739362
 20
156.5308348116639081
 30
0.0
 40
0.1963104124298842
 50
313.6370659172603155
 51
56.0407750728457827
  0
ARC
  5
C06C
  8
0
 10
2899.6649460263238325
 20
156.3540053472198963
 30
0.0
 40
0.3334123590196201
 50
321.0974519109288963
 51
51.9633476163985009
  0
ARC
  5
C06D
  8
0
 10
2899.3747277679321996
 20
156.7061008168352885
 30
0.0
 40
0.7857547763844388
 50
270.8072908794056275
 51
314.3919398847118032
  0
LINE
  5
C06E
  8
0
 10
2899.8779245794648887
 20
156.5515908708320865
 30
0.0
 11
2899.8779123753802196
 21
156.2871271867842893
 31
0.0
  0
ARC
  5
C06F
  8
0
 10
2899.5824105321380557
 20
156.2971018437320936
 30
0.0
 40
0.2956701424578885
 50
305.6979477050546166
 51
358.0667165062287154
  0
ARC
  5
C070
  8
0
 10
2899.3715731273728125
 20
156.5905353190954088
 30
0.0
 40
0.6569949488470166
 50
271.2406837639210266
 51
305.6979477050546166
  0
LINE
  5
C071
  8
0
 10
2899.5786718032650242
 20
156.2314441473320983
 30
0.0
 11
2899.5786718032650242
 21
156.0365721997320918
 31
0.0
  0
ARC
  5
C072
  8
0
 10
2899.4451601730947914
 20
156.7048174707541932
 30
0.0
 40
0.4918410909209931
 50
285.7507338700063997
 51
317.4837281747629731
  0
ARC
  5
C073
  8
0
 10
2899.6107085671251298
 20
156.5530001900891079
 30
0.0
 40
0.2672197287476559
 50
317.4890402298053118
 51
359.6978201417535956
  0
ARC
  5
C074
  8
0
 10
2899.6045586802711114
 20
156.5528274464178082
 30
0.0
 40
0.2733686960156012
 50
359.7408232736070772
 51
47.0550043527990027
  0
ARC
  5
C075
  8
0
 10
2899.4077749069629135
 20
156.3413346085488911
 30
0.0
 40
0.5622511514427466
 50
47.0592739808224678
 51
73.7837915187770363
  0
ARC
  5
C076
  8
0
 10
2899.5249152862211304
 20
156.7063554497815971
 30
0.0
 40
0.1793499825568152
 50
77.1538997128372159
 51
91.3300014469279091
  0
ARC
  5
C077
  8
0
 10
2899.3945112546061864
 20
156.3351887192891922
 30
0.0
 40
0.5310527393063355
 50
59.0016526507431323
 51
90.9400591972770656
  0
ARC
  5
C078
  8
0
 10
2899.5196852791700621
 20
156.5326303658017082
 30
0.0
 40
0.2973959417827817
 50
17.1084574953838704
 51
60.0828872161319367
  0
ARC
  5
C079
  8
0
 10
2899.5868663323899455
 20
156.5652864316294881
 30
0.0
 40
0.2238737432138705
 50
323.7409621181665784
 51
14.1774053133427795
  0
ARC
  5
C07A
  8
0
 10
2899.4643094698008099
 20
156.658206155174895
 30
0.0
 40
0.3776616704784852
 50
290.8972007203465751
 51
323.370585667331909
  0
ARC
  5
C07B
  8
0
 10
2899.3885163886411647
 20
156.8315974467026876
 30
0.0
 40
0.5667532590252888
 50
269.7252442926816798
 51
291.8030684581934793
  0
ARC
  5
C07C
  8
0
 10
2899.3939504321278946
 20
156.305879866423993
 30
0.0
 40
0.5166000540232467
 50
57.2160622117187501
 51
90.9041525163883648
  0
ARC
  5
C07D
  8
0
 10
2899.5206336824780919
 20
156.5025748686516067
 30
0.0
 40
0.2826394380633364
 50
1.053069296587132
 51
57.2160622117187501
  0
ARC
  5
C07E
  8
0
 10
2899.385798595165852
 20
156.0477077396321874
 30
0.0
 40
0.5472637794998895
 50
10.20035737479696
 51
25.9434952096995595
  0
ARC
  5
C07F
  8
0
 10
2899.6402192945420211
 20
156.2201175138939107
 30
0.0
 40
0.3202902124159725
 50
356.0933846351672969
 51
42.0860443908087589
  0
ARC
  5
C080
  8
0
 10
2899.398268552025911
 20
156.6914922374959929
 30
0.0
 40
0.4129099035477185
 50
289.6987208111792143
 51
312.8473668594215269
  0
ARC
  5
C081
  8
0
 10
2899.3852916562559585
 20
156.7735729457230889
 30
0.0
 40
0.4948025309844794
 50
270.0587011246653901
 51
287.9094132182216867
  0
ARC
  5
C082
  8
0
 10
2899.3898285695559025
 20
156.0722493177970023
 30
0.0
 40
0.4691344721627946
 50
90.4921901452449191
 51
112.8356059781809932
  0
ARC
  5
C083
  8
0
 10
2899.3722620385287883
 20
156.1039260874179035
 30
0.0
 40
0.4331406176491969
 50
112.3201947022126035
 51
134.2407270002530026
  0
ARC
  5
C084
  8
0
 10
2899.3898285695559025
 20
156.1122493177969943
 30
0.0
 40
0.4691344721627946
 50
90.4921901452449191
 51
112.8356059781809932
  0
ARC
  5
C085
  8
0
 10
2899.3898021652898933
 20
156.112360455656102
 30
0.0
 40
0.5090202936823727
 50
90.4506500803557572
 51
112.7972200604905026
  0
ARC
  5
C086
  8
0
 10
2899.3897780479310313
 20
156.1124608715093984
 30
0.0
 40
0.5489170821782797
 50
90.415377573299395
 51
112.7641997803485054
  0
ARC
  5
C087
  8
0
 10
2899.3897668904050988
 20
156.1124479601625978
 30
0.0
 40
0.5889274623428258
 50
90.3860718070840079
 51
112.8375756707157933
  0
ARC
  5
C088
  8
0
 10
2899.3897348867990331
 20
156.1126376482910132
 30
0.0
 40
0.6287352506568427
 50
90.3587111914444705
 51
112.7103118602932028
  0
ARC
  5
C089
  8
0
 10
2899.3722620385287883
 20
156.1439260874178956
 30
0.0
 40
0.4331406176491969
 50
112.3201947022126035
 51
137.1434983614593079
  0
ARC
  5
C08A
  8
0
 10
2899.3722620385287883
 20
156.1439260874178956
 30
0.0
 40
0.473140617649197
 50
112.3201947022126035
 51
134.8524931382779926
  0
ARC
  5
C08B
  8
0
 10
2899.3722620385287883
 20
156.1439260874178956
 30
0.0
 40
0.5131406176491971
 50
112.3201947022126035
 51
131.5790178269261901
  0
ARC
  5
C08C
  8
0
 10
2899.3721507120330898
 20
156.1440886317822958
 30
0.0
 40
0.5529440913717217
 50
112.4277731624601984
 51
126.9783436209667968
  0
ARC
  5
C08D
  8
0
 10
2899.3722620385287883
 20
156.1439260874178956
 30
0.0
 40
0.5931406176491971
 50
112.3201947022126035
 51
119.4707798756004991
  0
ARC
  5
C08E
  8
0
 10
2899.381768620774892
 20
156.0722493177970023
 30
0.0
 40
0.4691344721627946
 50
67.1643940218189925
 51
89.5078098547550951
  0
ARC
  5
C08F
  8
0
 10
2899.3993351518020063
 20
156.1039260874179035
 30
0.0
 40
0.4331406176491969
 50
45.7592729997470187
 51
67.6798052977873539
  0
ARC
  5
C090
  8
0
 10
2899.381768620774892
 20
156.1122493177969943
 30
0.0
 40
0.4691344721627946
 50
67.1643940218189925
 51
89.5078098547550951
  0
ARC
  5
C091
  8
0
 10
2899.3817950250409012
 20
156.112360455656102
 30
0.0
 40
0.5090202936823727
 50
67.2027799395095116
 51
89.5493499196703056
  0
ARC
  5
C092
  8
0
 10
2899.381819142400218
 20
156.1124608715093984
 30
0.0
 40
0.5489170821782797
 50
67.2358002196514661
 51
89.5846224267006193
  0
ARC
  5
C093
  8
0
 10
2899.3818302999261505
 20
156.1124479601625978
 30
0.0
 40
0.5889274623428258
 50
67.1624243292841498
 51
89.6139281929160063
  0
ARC
  5
C094
  8
0
 10
2899.3818623035322162
 20
156.1126376482910132
 30
0.0
 40
0.6287352506568427
 50
67.2896881397067972
 51
89.6412888085555437
  0
ARC
  5
C095
  8
0
 10
2899.3993351518020063
 20
156.1439260874178956
 30
0.0
 40
0.4331406176491969
 50
42.8565016385394486
 51
67.6798052977873539
  0
ARC
  5
C096
  8
0
 10
2899.3993351518020063
 20
156.1439260874178956
 30
0.0
 40
0.473140617649197
 50
45.1475068617220074
 51
67.6798052977873539
  0
ARC
  5
C097
  8
0
 10
2899.3993351518020063
 20
156.1439260874178956
 30
0.0
 40
0.5131406176491971
 50
48.4209821730737815
 51
67.6798052977873539
  0
ARC
  5
C098
  8
0
 10
2899.3994464782981595
 20
156.1440886317822958
 30
0.0
 40
0.5529440913717217
 50
53.0216563790331818
 51
67.5722268375398016
  0
ARC
  5
C099
  8
0
 10
2899.3993351518020063
 20
156.1439260874178956
 30
0.0
 40
0.5931406176491971
 50
60.5292201243994796
 51
67.6798052977873539
  0
LINE
  5
C09A
  8
0
 10
2899.2239834857109599
 20
156.2419861901107083
 30
0.0
 11
2899.5476137046189251
 21
156.2419861901107083
 31
0.0
  0
ARC
  5
C09B
  8
0
 10
2899.2284354411817731
 20
156.1778487771746029
 30
0.0
 40
0.0642917385489533
 50
93.9706898145652332
 51
123.5267922381180057
  0
ARC
  5
C09C
  8
0
 10
2899.5434182298840824
 20
156.1786043996009994
 30
0.0
 40
0.0635204957196717
 50
56.2896124080386571
 51
86.2129055392671546
  0
LINE
  5
C09D
  8
0
 10
2899.3385544654661317
 20
156.3013620833108064
 30
0.0
 11
2899.3385544662651228
 21
156.3157591474108017
 31
0.0
  0
ARC
  5
C09E
  8
0
 10
2899.3564736426560557
 20
156.3112817540537947
 30
0.0
 40
0.0184700821277262
 50
104.0290061606537932
 51
165.9709814780937904
  0
LINE
  5
C09F
  8
0
 10
2899.3519962531649981
 20
156.32920093141081
 30
0.0
 11
2899.3802298161572253
 21
156.3292009268884044
 31
0.0
  0
ARC
  5
C0A0
  8
0
 10
2899.3757322855722123
 20
156.3112603100227886
 30
0.0
 40
0.0184957701887497
 50
14.0775900839974906
 51
75.9265620086367221
  0
LINE
  5
C0A1
  8
0
 10
2899.3936725764651783
 20
156.31575914071081
 30
0.0
 11
2899.393673622093047
 21
156.301362076732886
 31
0.0
  0
LINE
  5
C0A2
  8
0
 10
2899.2991843867657735
 20
156.3013620881108068
 30
0.0
 11
2899.2991843875661289
 21
156.3157591522108021
 31
0.0
  0
ARC
  5
C0A3
  8
0
 10
2899.3171035639561524
 20
156.3112817588537951
 30
0.0
 40
0.0184700821277262
 50
104.0290061606537932
 51
165.9709814780937904
  0
LINE
  5
C0A4
  8
0
 10
2899.3126261744650947
 20
156.3292009362108104
 30
0.0
 11
2899.3408597374568672
 21
156.3292009316884048
 31
0.0
  0
ARC
  5
C0A5
  8
0
 10
2899.3363622068718541
 20
156.311260314822789
 30
0.0
 40
0.0184957701887497
 50
14.0775900839974906
 51
75.9265620086367221
  0
LINE
  5
C0A6
  8
0
 10
2899.3543024977661844
 20
156.3157591455108104
 30
0.0
 11
2899.3543035433931436
 21
156.3013620815328864
 31
0.0
  0
LINE
  5
C0A7
  8
0
 10
2899.2598143079649162
 20
156.3013620929108072
 30
0.0
 11
2899.2598143087661811
 21
156.3157591570106888
 31
0.0
  0
ARC
  5
C0A8
  8
0
 10
2899.277733485157114
 20
156.3112817636537955
 30
0.0
 40
0.0184700821277262
 50
104.0290061606537932
 51
165.9709814780937904
  0
LINE
  5
C0A9
  8
0
 10
2899.2732560956660564
 20
156.3292009410108108
 30
0.0
 11
2899.3014896586569193
 21
156.3292009364884052
 31
0.0
  0
ARC
  5
C0AA
  8
0
 10
2899.2969921280728158
 20
156.3112603196229031
 30
0.0
 40
0.0184957701887497
 50
14.0775900839974906
 51
75.9265620086367221
  0
LINE
  5
C0AB
  8
0
 10
2899.3149324189648723
 20
156.3157591503108108
 30
0.0
 11
2899.3149334645931958
 21
156.3013620863328867
 31
0.0
  0
LINE
  5
C0AC
  8
0
 10
2899.220444229630175
 20
156.3079287537908044
 30
0.0
 11
2899.2204442300649134
 21
156.3157591618106892
 31
0.0
  0
ARC
  5
C0AD
  8
0
 10
2899.2383634064558464
 20
156.3112817684537958
 30
0.0
 40
0.0184700821277262
 50
104.0290061606537932
 51
165.9709814780937904
  0
LINE
  5
C0AE
  8
0
 10
2899.2338860169647887
 20
156.3292009458106975
 30
0.0
 11
2899.262119579957016
 21
156.3292009412882919
 31
0.0
  0
ARC
  5
C0AF
  8
0
 10
2899.2576220493720029
 20
156.3112603244229035
 30
0.0
 40
0.0184957701887497
 50
14.0775900839974906
 51
75.9265620086367221
  0
LINE
  5
C0B0
  8
0
 10
2899.275562340264969
 20
156.3157591551108112
 30
0.0
 11
2899.2755633858942019
 21
156.3013620911328871
 31
0.0
  0
ARC
  5
C0B1
  8
0
 10
2899.1989933277059208
 20
156.3112817732038025
 30
0.0
 40
0.0184700821277262
 50
104.0290061606537932
 51
137.2711058818833862
  0
LINE
  5
C0B2
  8
0
 10
2899.1945159382162274
 20
156.3292009505607041
 30
0.0
 11
2899.2227495012070904
 21
156.3292009460384122
 31
0.0
  0
ARC
  5
C0B3
  8
0
 10
2899.2182519706229868
 20
156.3112603291727964
 30
0.0
 40
0.0184957701887497
 50
14.0775900839974906
 51
75.9265620086367221
  0
LINE
  5
C0B4
  8
0
 10
2899.2361922615150434
 20
156.3157591598607041
 30
0.0
 11
2899.2361932542521572
 21
156.3020903393469894
 31
0.0
  0
LINE
  5
C0B5
  8
0
 10
2899.3779245442151478
 20
156.3013620785607998
 30
0.0
 11
2899.3779245450150484
 21
156.3157591426607098
 31
0.0
  0
ARC
  5
C0B6
  8
0
 10
2899.3958437214059813
 20
156.311281749303788
 30
0.0
 40
0.0184700821277262
 50
104.0290061606537932
 51
165.9709814780937904
  0
LINE
  5
C0B7
  8
0
 10
2899.3913663319149236
 20
156.3292009266608034
 30
0.0
 11
2899.4195998949071509
 21
156.3292009221383978
 31
0.0
  0
ARC
  5
C0B8
  8
0
 10
2899.4151023643230474
 20
156.3112603052728105
 30
0.0
 40
0.0184957701887497
 50
14.0775900839974906
 51
75.9265620086367221
  0
LINE
  5
C0B9
  8
0
 10
2899.4330426552160134
 20
156.3157591359608034
 30
0.0
 11
2899.4330437008429726
 21
156.3013620719829078
 31
0.0
  0
LINE
  5
C0BA
  8
0
 10
2899.4172946229650734
 20
156.3013620738107079
 30
0.0
 11
2899.4172946237649739
 21
156.3157591379107032
 31
0.0
  0
ARC
  5
C0BB
  8
0
 10
2899.4352138001559069
 20
156.3112817445538099
 30
0.0
 40
0.0184700821277262
 50
104.0290061606537932
 51
165.9709814780937904
  0
LINE
  5
C0BC
  8
0
 10
2899.4307364106662135
 20
156.3292009219107968
 30
0.0
 11
2899.4589699736570765
 21
156.3292009173883059
 31
0.0
  0
ARC
  5
C0BD
  8
0
 10
2899.454472443072973
 20
156.3112603005228038
 30
0.0
 40
0.0184957701887497
 50
14.0775900839974906
 51
75.9265620086367221
  0
LINE
  5
C0BE
  8
0
 10
2899.4724127339650295
 20
156.3157591312107115
 30
0.0
 11
2899.4724137795928982
 21
156.3013620672329012
 31
0.0
  0
LINE
  5
C0BF
  8
0
 10
2899.4566647016649767
 20
156.3013620690107075
 30
0.0
 11
2899.4566647024657868
 21
156.3157591331107028
 31
0.0
  0
ARC
  5
C0C0
  8
0
 10
2899.4745838788558103
 20
156.3112817397538095
 30
0.0
 40
0.0184700821277262
 50
104.0290061606537932
 51
165.9709814780937904
  0
LINE
  5
C0C1
  8
0
 10
2899.4701064893661169
 20
156.3292009171107111
 30
0.0
 11
2899.4983400523569799
 21
156.3292009125883055
 31
0.0
  0
ARC
  5
C0C2
  8
0
 10
2899.4938425217728764
 20
156.3112602957228034
 30
0.0
 40
0.0184957701887497
 50
14.0775900839974906
 51
75.9265620086367221
  0
LINE
  5
C0C3
  8
0
 10
2899.5117828126649329
 20
156.3157591264107964
 30
0.0
 11
2899.5117838582928016
 21
156.3013620624329008
 31
0.0
  0
LINE
  5
C0C4
  8
0
 10
2899.4962769644557739
 20
156.3014151023998863
 30
0.0
 11
2899.4962769652561292
 21
156.3158121664999101
 31
0.0
  0
ARC
  5
C0C5
  8
0
 10
2899.5141961416470622
 20
156.311334773142903
 30
0.0
 40
0.0184700821277262
 50
104.0290061606537932
 51
165.9709814780937904
  0
LINE
  5
C0C6
  8
0
 10
2899.5097187521560045
 20
156.3292539504998899
 30
0.0
 11
2899.537952315147777
 21
156.3292539459775128
 31
0.0
  0
ARC
  5
C0C7
  8
0
 10
2899.5334547845641282
 20
156.3113133291120107
 30
0.0
 40
0.0184957701887497
 50
14.0775900839974906
 51
75.9265620086367221
  0
LINE
  5
C0C8
  8
0
 10
2899.5513950754561847
 20
156.31581215979989
 30
0.0
 11
2899.5513956409790808
 21
156.3080255726129906
 31
0.0
  0
LINE
  5
C0C9
  8
0
 10
2899.5354048592062099
 20
156.3020906332565971
 30
0.0
 11
2899.5354048599651833
 21
156.315759123510702
 31
0.0
  0
ARC
  5
C0CA
  8
0
 10
2899.5533240363561163
 20
156.3112817301538087
 30
0.0
 40
0.0184700821277262
 50
104.0290061606537932
 51
165.9709814780937904
  0
LINE
  5
C0CB
  8
0
 10
2899.5488466468650586
 20
156.3292009075107103
 30
0.0
 11
2899.5770802098568311
 21
156.3292009029883047
 31
0.0
  0
ARC
  5
C0CC
  8
0
 10
2899.5725826792718181
 20
156.3112602861228027
 30
0.0
 40
0.0184957701887497
 50
42.7371293610435714
 51
75.9265620086367221
  0
ARC
  5
C0CD
  8
0
 10
2899.5929512946208888
 20
156.3112817540537947
 30
0.0
 40
0.0184700821277262
 50
104.0290061606537932
 51
155.8526104142459872
  0
LINE
  5
C0CE
  8
0
 10
2899.5884739051298311
 20
156.32920093141081
 30
0.0
 11
2899.5963584232149515
 21
156.329200930147806
 31
0.0
  0
LINE
  5
C0CF
  8
0
 10
2899.1752387706628724
 20
156.329200928207797
 30
0.0
 11
2899.1834760262058808
 21
156.3292009268884044
 31
0.0
  0
ARC
  5
C0D0
  8
0
 10
2899.1789784956208678
 20
156.3112603100227886
 30
0.0
 40
0.0184957701887497
 50
23.4670027035829989
 51
75.9265620086367221
  0
LINE
  5
C0D1
  8
0
 10
2899.18107415386703
 20
156.3292009521107957
 30
0.0
 11
2899.18107415466784
 21
156.3435980162107057
 31
0.0
  0
ARC
  5
C0D2
  8
0
 10
2899.1989933310578635
 20
156.3391206228536987
 30
0.0
 40
0.0184700821277262
 50
104.0290061606537932
 51
165.9709814780937904
  0
LINE
  5
C0D3
  8
0
 10
2899.1945159415681701
 20
156.3570398002107993
 30
0.0
 11
2899.2227495045599426
 21
156.3570397956883085
 31
0.0
  0
ARC
  5
C0D4
  8
0
 10
2899.2182519739749296
 20
156.3390991788228064
 30
0.0
 40
0.0184957701887497
 50
14.0775900839974906
 51
75.9265620086367221
  0
LINE
  5
C0D5
  8
0
 10
2899.2361922648678956
 20
156.3435980095107141
 30
0.0
 11
2899.2361933104948548
 21
156.3292009455329037
 31
0.0
  0
LINE
  5
C0D6
  8
0
 10
2899.2204442307652243
 20
156.3292009473107953
 30
0.0
 11
2899.2204442315651249
 21
156.3435980114107053
 31
0.0
  0
ARC
  5
C0D7
  8
0
 10
2899.2383634079560579
 20
156.339120618053812
 30
0.0
 40
0.0184700821277262
 50
104.0290061606537932
 51
165.9709814780937904
  0
LINE
  5
C0D8
  8
0
 10
2899.2338860184650002
 20
156.3570397954107989
 30
0.0
 11
2899.2621195814567727
 21
156.3570397908883081
 31
0.0
  0
ARC
  5
C0D9
  8
0
 10
2899.257622050873124
 20
156.339099174022806
 30
0.0
 40
0.0184957701887497
 50
14.0775900839974906
 51
75.9265620086367221
  0
LINE
  5
C0DA
  8
0
 10
2899.2755623417651805
 20
156.3435980047107989
 30
0.0
 11
2899.2755633873930492
 21
156.3292009407329033
 31
0.0
  0
LINE
  5
C0DB
  8
0
 10
2899.2598143094651277
 20
156.3292009425607034
 30
0.0
 11
2899.2598143102650283
 21
156.3435980066606987
 31
0.0
  0
ARC
  5
C0DC
  8
0
 10
2899.2777334866559613
 20
156.3391206133038054
 30
0.0
 40
0.0184700821277262
 50
104.0290061606537932
 51
165.9709814780937904
  0
LINE
  5
C0DD
  8
0
 10
2899.2732560971649036
 20
156.357039790660707
 30
0.0
 11
2899.3014896601571309
 21
156.3570397861383015
 31
0.0
  0
ARC
  5
C0DE
  8
0
 10
2899.2969921295730273
 20
156.3390991692727994
 30
0.0
 40
0.0184957701887497
 50
14.0775900839974906
 51
75.9265620086367221
  0
LINE
  5
C0DF
  8
0
 10
2899.3149324204650839
 20
156.3435979999607071
 30
0.0
 11
2899.3149334660929526
 21
156.3292009359828967
 31
0.0
  0
LINE
  5
C0E0
  8
0
 10
2899.2991843882150533
 20
156.3292009378106968
 30
0.0
 11
2899.2991843890149539
 21
156.3435980019106921
 31
0.0
  0
ARC
  5
C0E1
  8
0
 10
2899.3171035654058869
 20
156.3391206085537988
 30
0.0
 40
0.0184700821277262
 50
104.0290061606537932
 51
165.9709814780937904
  0
LINE
  5
C0E2
  8
0
 10
2899.3126261759161935
 20
156.3570397859107004
 30
0.0
 11
2899.3408597389070565
 21
156.3570397813882948
 31
0.0
  0
ARC
  5
C0E3
  8
0
 10
2899.3363622083229529
 20
156.3390991645229064
 30
0.0
 40
0.0184957701887497
 50
14.0775900839974906
 51
75.9265620086367221
  0
LINE
  5
C0E4
  8
0
 10
2899.3543024992150094
 20
156.3435979952107004
 30
0.0
 11
2899.3543035448428782
 21
156.3292009312328901
 31
0.0
  0
LINE
  5
C0E5
  8
0
 10
2899.3385544669649789
 20
156.3292009330108101
 30
0.0
 11
2899.3385544677648795
 21
156.3435979971106917
 31
0.0
  0
ARC
  5
C0E6
  8
0
 10
2899.3564736441558125
 20
156.3391206037537984
 30
0.0
 40
0.0184700821277262
 50
104.0290061606537932
 51
165.9709814780937904
  0
LINE
  5
C0E7
  8
0
 10
2899.3519962546661191
 20
156.3570397811107
 30
0.0
 11
2899.380229817656982
 21
156.3570397765884081
 31
0.0
  0
ARC
  5
C0E8
  8
0
 10
2899.3757322870728785
 20
156.3390991597229061
 30
0.0
 40
0.0184957701887497
 50
14.0775900839974906
 51
75.9265620086367221
  0
LINE
  5
C0E9
  8
0
 10
2899.393672577964935
 20
156.3435979904108137
 30
0.0
 11
2899.393673623594168
 21
156.3292009264328897
 31
0.0
  0
LINE
  5
C0EA
  8
0
 10
2899.3779245456648823
 20
156.3292009282108097
 30
0.0
 11
2899.3779245464647829
 21
156.343597992310805
 31
0.0
  0
ARC
  5
C0EB
  8
0
 10
2899.3958437228570801
 20
156.339120598953798
 30
0.0
 40
0.0184700821277262
 50
104.0290061606537932
 51
165.9709814780937904
  0
LINE
  5
C0EC
  8
0
 10
2899.391366333365113
 20
156.3570397763106996
 30
0.0
 11
2899.4195998963568854
 21
156.3570397717884077
 31
0.0
  0
ARC
  5
C0ED
  8
0
 10
2899.4151023657727819
 20
156.3390991549229057
 30
0.0
 40
0.0184957701887497
 50
14.0775900839974906
 51
75.9265620086367221
  0
LINE
  5
C0EE
  8
0
 10
2899.4330426566648384
 20
156.3435979856106997
 30
0.0
 11
2899.4330437022931619
 21
156.3292009216328893
 31
0.0
  0
LINE
  5
C0EF
  8
0
 10
2899.4172946244648301
 20
156.3292009234108093
 30
0.0
 11
2899.417294625266095
 21
156.3435979875108046
 31
0.0
  0
ARC
  5
C0F0
  8
0
 10
2899.4352138016561184
 20
156.3391205941537976
 30
0.0
 40
0.0184700821277262
 50
104.0290061606537932
 51
165.9709814780937904
  0
LINE
  5
C0F1
  8
0
 10
2899.4307364121650608
 20
156.3570397715106992
 30
0.0
 11
2899.4589699751568332
 21
156.3570397669884073
 31
0.0
  0
ARC
  5
C0F2
  8
0
 10
2899.4544724445731845
 20
156.3390991501227916
 30
0.0
 40
0.0184957701887497
 50
14.0775900839974906
 51
75.9265620086367221
  0
LINE
  5
C0F3
  8
0
 10
2899.4724127354661505
 20
156.3435979808108129
 30
0.0
 11
2899.4724137810931097
 21
156.3292009168328889
 31
0.0
  0
LINE
  5
C0F4
  8
0
 10
2899.4566647031660978
 20
156.3292009186608027
 30
0.0
 11
2899.4566647039650888
 21
156.3435979827607127
 31
0.0
  0
ARC
  5
C0F5
  8
0
 10
2899.4745838803560218
 20
156.339120589403791
 30
0.0
 40
0.0184700821277262
 50
104.0290061606537932
 51
165.9709814780937904
  0
LINE
  5
C0F6
  8
0
 10
2899.4701064908649641
 20
156.3570397667608063
 30
0.0
 11
2899.4983400538571914
 21
156.3570397622384007
 31
0.0
  0
ARC
  5
C0F7
  8
0
 10
2899.4938425232721784
 20
156.3390991453728134
 30
0.0
 40
0.0184957701887497
 50
14.0775900839974906
 51
75.9265620086367221
  0
LINE
  5
C0F8
  8
0
 10
2899.5117828141651444
 20
156.3435979760608063
 30
0.0
 11
2899.5117838597930131
 21
156.3292009120829107
 31
0.0
  0
LINE
  5
C0F9
  8
0
 10
2899.4960347819151139
 20
156.3292009138606886
 30
0.0
 11
2899.4960347827150144
 21
156.3435979779607123
 31
0.0
  0
ARC
  5
C0FA
  8
0
 10
2899.5139539591059474
 20
156.3391205846037906
 30
0.0
 40
0.0184700821277262
 50
104.0290061606537932
 51
165.9709814780937904
  0
LINE
  5
C0FB
  8
0
 10
2899.5094765696148897
 20
156.3570397619606922
 30
0.0
 11
2899.537710132607117
 21
156.3570397574382866
 31
0.0
  0
ARC
  5
C0FC
  8
0
 10
2899.5332126020230135
 20
156.339099140572813
 30
0.0
 40
0.0184957701887497
 50
14.0775900839974906
 51
75.9265620086367221
  0
LINE
  5
C0FD
  8
0
 10
2899.55115289291507
 20
156.3435979712608059
 30
0.0
 11
2899.5511539385429387
 21
156.3292009072829103
 31
0.0
  0
LINE
  5
C0FE
  8
0
 10
2899.5354048606650395
 20
156.3292009091107104
 30
0.0
 11
2899.53540486146494
 21
156.3435979732107057
 31
0.0
  0
ARC
  5
C0FF
  8
0
 10
2899.5533240378567825
 20
156.3391205798538124
 30
0.0
 40
0.0184700821277262
 50
104.0290061606537932
 51
165.9709814780937904
  0
LINE
  5
C100
  8
0
 10
2899.5488466483648153
 20
156.3570397572107993
 30
0.0
 11
2899.5770802113570426
 21
156.3570397526883085
 31
0.0
  0
ARC
  5
C101
  8
0
 10
2899.5725826807729391
 20
156.3390991358228064
 30
0.0
 40
0.0184957701887497
 50
14.0775900839974906
 51
75.9265620086367221
  0
LINE
  5
C102
  8
0
 10
2899.5905229716649956
 20
156.3435979665107993
 30
0.0
 11
2899.5905240172928643
 21
156.3292009025329037
 31
0.0
  0
LINE
  5
C103
  8
0
 10
2899.4960347834157801
 20
156.3570397635108122
 30
0.0
 11
2899.496034784215226
 21
156.3714368276108075
 31
0.0
  0
ARC
  5
C104
  8
0
 10
2899.5139539606061589
 20
156.3669594342538005
 30
0.0
 40
0.0184700821277262
 50
104.0290061606537932
 51
165.9709814780937904
  0
LINE
  5
C105
  8
0
 10
2899.5094765711151013
 20
156.3848786116107021
 30
0.0
 11
2899.5377101341068737
 21
156.3848786070884103
 31
0.0
  0
ARC
  5
C106
  8
0
 10
2899.5332126035218607
 20
156.3669379902227945
 30
0.0
 40
0.0184957701887497
 50
14.0775900839974906
 51
75.9265620086367221
  0
LINE
  5
C107
  8
0
 10
2899.551152894416191
 20
156.3714368209107022
 30
0.0
 11
2899.5511539400431502
 21
156.3570397569328918
 31
0.0
  0
LINE
  5
C108
  8
0
 10
2899.456664704664945
 20
156.3570397683106989
 30
0.0
 11
2899.4566647054662099
 21
156.3714368324108079
 31
0.0
  0
ARC
  5
C109
  8
0
 10
2899.4745838818557786
 20
156.3669594390538009
 30
0.0
 40
0.0184700821277262
 50
104.0290061606537932
 51
165.9709814780937904
  0
LINE
  5
C10A
  8
0
 10
2899.4701064923660851
 20
156.3848786164107025
 30
0.0
 11
2899.4983400553569481
 21
156.3848786118884107
 31
0.0
  0
ARC
  5
C10B
  8
0
 10
2899.4938425247728446
 20
156.3669379950229086
 30
0.0
 40
0.0184957701887497
 50
14.0775900839974906
 51
75.9265620086367221
  0
LINE
  5
C10C
  8
0
 10
2899.5117828156649011
 20
156.3714368257107026
 30
0.0
 11
2899.5117838612941341
 21
156.3570397617328922
 31
0.0
  0
LINE
  5
C10D
  8
0
 10
2899.4172946259650416
 20
156.357039773110813
 30
0.0
 11
2899.4172946267649422
 21
156.3714368372106946
 31
0.0
  0
ARC
  5
C10E
  8
0
 10
2899.4352138031558752
 20
156.3669594438538013
 30
0.0
 40
0.0184700821277262
 50
104.0290061606537932
 51
165.9709814780937904
  0
LINE
  5
C10F
  8
0
 10
2899.4307364136648175
 20
156.3848786212107029
 30
0.0
 11
2899.4589699766570448
 21
156.3848786166884111
 31
0.0
  0
ARC
  5
C110
  8
0
 10
2899.4544724460720317
 20
156.366937999822909
 30
0.0
 40
0.0184957701887497
 50
14.0775900839974906
 51
75.9265620086367221
  0
LINE
  5
C111
  8
0
 10
2899.4724127369649977
 20
156.371436830510703
 30
0.0
 11
2899.4724137825928665
 21
156.3570397665328926
 31
0.0
  0
LINE
  5
C112
  8
0
 10
2899.3779245471650938
 20
156.357039777860706
 30
0.0
 11
2899.3779245479649944
 21
156.3714368419607013
 31
0.0
  0
ARC
  5
C113
  8
0
 10
2899.3958437243559274
 20
156.3669594486038079
 30
0.0
 40
0.0184700821277262
 50
104.0290061606537932
 51
165.9709814780937904
  0
LINE
  5
C114
  8
0
 10
2899.3913663348657792
 20
156.3848786259607095
 30
0.0
 11
2899.4195998978570969
 21
156.384878621438304
 31
0.0
  0
ARC
  5
C115
  8
0
 10
2899.4151023672729934
 20
156.3669380045728019
 30
0.0
 40
0.0184957701887497
 50
14.0775900839974906
 51
75.9265620086367221
  0
LINE
  5
C116
  8
0
 10
2899.4330426581650499
 20
156.3714368352607949
 30
0.0
 11
2899.4330437037929187
 21
156.3570397712828992
 31
0.0
  0
LINE
  5
C117
  8
0
 10
2899.3385544684660999
 20
156.3570397826607064
 30
0.0
 11
2899.338554469265091
 21
156.3714368467607017
 31
0.0
  0
ARC
  5
C118
  8
0
 10
2899.356473645656024
 20
156.3669594534036946
 30
0.0
 40
0.0184700821277262
 50
104.0290061606537932
 51
165.9709814780937904
  0
LINE
  5
C119
  8
0
 10
2899.3519962561649663
 20
156.3848786307607099
 30
0.0
 11
2899.3802298191571936
 21
156.3848786262383044
 31
0.0
  0
ARC
  5
C11A
  8
0
 10
2899.3757322885721806
 20
156.3669380093728023
 30
0.0
 40
0.0184957701887497
 50
14.0775900839974906
 51
75.9265620086367221
  0
LINE
  5
C11B
  8
0
 10
2899.3936725794651466
 20
156.37143684006071
 30
0.0
 11
2899.3936736250930153
 21
156.3570397760828996
 31
0.0
  0
LINE
  5
C11C
  8
0
 10
2899.2991843897161743
 20
156.3570397874107982
 30
0.0
 11
2899.2991843905151654
 21
156.3714368515107083
 31
0.0
  0
ARC
  5
C11D
  8
0
 10
2899.3171035669060984
 20
156.3669594581537865
 30
0.0
 40
0.0184700821277262
 50
104.0290061606537932
 51
165.9709814780937904
  0
LINE
  5
C11E
  8
0
 10
2899.3126261774150407
 20
156.3848786355108018
 30
0.0
 11
2899.3408597404068132
 21
156.384878630988311
 31
0.0
  0
ARC
  5
C11F
  8
0
 10
2899.3363622098218002
 20
156.3669380141228089
 30
0.0
 40
0.0184957701887497
 50
14.0775900839974906
 51
75.9265620086367221
  0
LINE
  5
C120
  8
0
 10
2899.354302500715221
 20
156.3714368448108019
 30
0.0
 11
2899.3543035463430897
 21
156.3570397808329062
 31
0.0
  0
LINE
  5
C121
  8
0
 10
2899.2598143109648845
 20
156.3570397922107986
 30
0.0
 11
2899.2598143117647851
 21
156.3714368563107087
 31
0.0
  0
ARC
  5
C122
  8
0
 10
2899.2777334881561728
 20
156.3669594629537869
 30
0.0
 40
0.0184700821277262
 50
104.0290061606537932
 51
165.9709814780937904
  0
LINE
  5
C123
  8
0
 10
2899.2732560986651151
 20
156.3848786403108022
 30
0.0
 11
2899.3014896616568876
 21
156.3848786357883967
 31
0.0
  0
ARC
  5
C124
  8
0
 10
2899.2969921310718746
 20
156.3669380189228093
 30
0.0
 40
0.0184957701887497
 50
14.0775900839974906
 51
75.9265620086367221
  0
LINE
  5
C125
  8
0
 10
2899.3149324219662049
 20
156.3714368496106886
 30
0.0
 11
2899.3149334675931641
 21
156.3570397856329066
 31
0.0
  0
LINE
  5
C126
  8
0
 10
2899.2204442322649811
 20
156.3570397970107138
 30
0.0
 11
2899.2204442330648817
 21
156.3714368611107091
 31
0.0
  0
ARC
  5
C127
  8
0
 10
2899.2383634094558147
 20
156.3669594677537873
 30
0.0
 40
0.0184700821277262
 50
104.0290061606537932
 51
165.9709814780937904
  0
LINE
  5
C128
  8
0
 10
2899.2338860199652117
 20
156.3848786451106889
 30
0.0
 11
2899.2621195829569842
 21
156.3848786405883118
 31
0.0
  0
ARC
  5
C129
  8
0
 10
2899.2576220523728807
 20
156.366938023722895
 30
0.0
 40
0.0184957701887497
 50
14.0775900839974906
 51
75.9265620086367221
  0
LINE
  5
C12A
  8
0
 10
2899.2755623432649372
 20
156.371436854410689
 30
0.0
 11
2899.2755633888941702
 21
156.357039790432907
 31
0.0
  0
LINE
  5
C12B
  8
0
 10
2899.259814312465096
 20
156.3848786418608086
 30
0.0
 11
2899.2598143132649966
 21
156.3992757059606902
 31
0.0
  0
ARC
  5
C12C
  8
0
 10
2899.2777334896559296
 20
156.3947983126037968
 30
0.0
 40
0.0184700821277262
 50
104.0290061606537932
 51
165.9709814780937904
  0
LINE
  5
C12D
  8
0
 10
2899.2732561001648719
 20
156.4127174899606985
 30
0.0
 11
2899.3014896631570991
 21
156.4127174854384066
 31
0.0
  0
ARC
  5
C12E
  8
0
 10
2899.2969921325729956
 20
156.3947768685729045
 30
0.0
 40
0.0184957701887497
 50
14.0775900839974906
 51
75.9265620086367221
  0
LINE
  5
C12F
  8
0
 10
2899.3149324234650521
 20
156.3992756992608122
 30
0.0
 11
2899.3149334690929209
 21
156.3848786352828881
 31
0.0
  0
LINE
  5
C130
  8
0
 10
2899.2991843911649994
 20
156.3848786371106883
 30
0.0
 11
2899.2991843919649
 21
156.399275701210712
 31
0.0
  0
ARC
  5
C131
  8
0
 10
2899.3171035683571972
 20
156.3947983078537902
 30
0.0
 40
0.0184700821277262
 50
104.0290061606537932
 51
165.9709814780937904
  0
LINE
  5
C132
  8
0
 10
2899.3126261788647753
 20
156.4127174852106918
 30
0.0
 11
2899.3408597418570025
 21
156.4127174806882863
 31
0.0
  0
ARC
  5
C133
  8
0
 10
2899.3363622112719895
 20
156.3947768638228979
 30
0.0
 40
0.0184957701887497
 50
14.0775900839974906
 51
75.9265620086367221
  0
LINE
  5
C134
  8
0
 10
2899.3543025021649555
 20
156.3992756945108056
 30
0.0
 11
2899.3543035477941885
 21
156.3848786305329099
 31
0.0
  0
LINE
  5
C135
  8
0
 10
2899.3385544699649472
 20
156.3848786323108015
 30
0.0
 11
2899.338554470766212
 21
156.3992756964107116
 31
0.0
  0
ARC
  5
C136
  8
0
 10
2899.3564736471557808
 20
156.3947983030537898
 30
0.0
 40
0.0184700821277262
 50
104.0290061606537932
 51
165.9709814780937904
  0
LINE
  5
C137
  8
0
 10
2899.3519962576651778
 20
156.4127174804108051
 30
0.0
 11
2899.3802298206569503
 21
156.4127174758883996
 31
0.0
  0
ARC
  5
C138
  8
0
 10
2899.3757322900728468
 20
156.3947768590228122
 30
0.0
 40
0.0184957701887497
 50
14.0775900839974906
 51
75.9265620086367221
  0
LINE
  5
C139
  8
0
 10
2899.3936725809649033
 20
156.3992756897106915
 30
0.0
 11
2899.3936736265941363
 21
156.3848786257329095
 31
0.0
  0
LINE
  5
C13A
  8
0
 10
2899.3779245486662148
 20
156.3848786275108012
 30
0.0
 11
2899.3779245494661154
 21
156.3992756916107112
 31
0.0
  0
ARC
  5
C13B
  8
0
 10
2899.3958437258561389
 20
156.3947982982537894
 30
0.0
 40
0.0184700821277262
 50
104.0290061606537932
 51
165.9709814780937904
  0
LINE
  5
C13C
  8
0
 10
2899.3913663363650812
 20
156.4127174756108047
 30
0.0
 11
2899.4195998993568537
 21
156.4127174710883992
 31
0.0
  0
ARC
  5
C13D
  8
0
 10
2899.4151023687718407
 20
156.3947768542228118
 30
0.0
 40
0.0184957701887497
 50
14.0775900839974906
 51
75.9265620086367221
  0
LINE
  5
C13E
  8
0
 10
2899.4330426596661709
 20
156.3992756849108048
 30
0.0
 11
2899.4330437052931302
 21
156.3848786209329091
 31
0.0
  0
LINE
  5
C13F
  8
0
 10
2899.4172946274147762
 20
156.3848786227106871
 30
0.0
 11
2899.4172946282151315
 21
156.3992756868107961
 31
0.0
  0
ARC
  5
C140
  8
0
 10
2899.4352138046060645
 20
156.394798293453789
 30
0.0
 40
0.0184700821277262
 50
104.0290061606537932
 51
165.9709814780937904
  0
LINE
  5
C141
  8
0
 10
2899.4307364151150068
 20
156.4127174708108043
 30
0.0
 11
2899.4589699781081436
 21
156.4127174662883988
 31
0.0
  0
ARC
  5
C142
  8
0
 10
2899.454472447522221
 20
156.3947768494228114
 30
0.0
 40
0.0184957701887497
 50
14.0775900839974906
 51
75.9265620086367221
  0
LINE
  5
C143
  8
0
 10
2899.4724127384151871
 20
156.3992756801108044
 30
0.0
 11
2899.4724137840430558
 21
156.3848786161329087
 31
0.0
  0
LINE
  5
C144
  8
0
 10
2899.456664706166066
 20
156.3848786179607089
 30
0.0
 11
2899.4566647069650571
 21
156.3992756820607042
 31
0.0
  0
ARC
  5
C145
  8
0
 10
2899.4745838833559901
 20
156.3947982887038108
 30
0.0
 40
0.0184700821277262
 50
104.0290061606537932
 51
165.9709814780937904
  0
LINE
  5
C146
  8
0
 10
2899.4701064938649324
 20
156.4127174660607125
 30
0.0
 11
2899.4983400568571597
 21
156.4127174615383069
 31
0.0
  0
ARC
  5
C147
  8
0
 10
2899.4938425262721466
 20
156.3947768446728048
 30
0.0
 40
0.0184957701887497
 50
14.0775900839974906
 51
75.9265620086367221
  0
LINE
  5
C148
  8
0
 10
2899.5117828171651126
 20
156.3992756753607978
 30
0.0
 11
2899.5117838627929814
 21
156.3848786113829021
 31
0.0
  0
LINE
  5
C149
  8
0
 10
2899.2385000605318055
 20
156.3013620959328875
 30
0.0
 11
2899.2621200664111711
 21
156.3013620921495033
 31
0.0
  0
ARC
  5
C14A
  8
0
 10
2899.2576225358261581
 20
156.2834214752840012
 30
0.0
 40
0.0184957701887497
 50
26.3784690841141582
 51
75.9265620086367221
  0
ARC
  5
C14B
  8
0
 10
2899.277733971609905
 20
156.2834429145650006
 30
0.0
 40
0.0184700821277262
 50
104.0290061606537932
 51
143.5633481604766928
  0
LINE
  5
C14C
  8
0
 10
2899.2732565821188473
 20
156.3013620919219022
 30
0.0
 11
2899.3014901451110745
 21
156.3013620873994967
 31
0.0
  0
ARC
  5
C14D
  8
0
 10
2899.296992614526971
 20
156.2834214705341083
 30
0.0
 40
0.0184957701887497
 50
14.0775900839974906
 51
75.9265620086367221
  0
LINE
  5
C14E
  8
0
 10
2899.3149329054190275
 20
156.2879203012219023
 30
0.0
 11
2899.3149331941372111
 21
156.2839449912918042
 31
0.0
  0
LINE
  5
C14F
  8
0
 10
2899.299184873941158
 20
156.2865005329892085
 30
0.0
 11
2899.2991848740189198
 21
156.2879203031218935
 31
0.0
  0
ARC
  5
C150
  8
0
 10
2899.317104050411217
 20
156.2834429097650002
 30
0.0
 40
0.0184700821277262
 50
104.0290061606537932
 51
165.9709814780937904
  0
LINE
  5
C151
  8
0
 10
2899.3126266609187951
 20
156.3013620871219018
 30
0.0
 11
2899.3408602239110223
 21
156.3013620825996099
 31
0.0
  0
ARC
  5
C152
  8
0
 10
2899.3363626933269188
 20
156.2834214657341079
 30
0.0
 40
0.0184957701887497
 50
14.0775900839974906
 51
75.9265620086367221
  0
LINE
  5
C153
  8
0
 10
2899.3543029842189753
 20
156.2879202964219871
 30
0.0
 11
2899.3543035735160629
 21
156.2798063822652068
 31
0.0
  0
LINE
  5
C154
  8
0
 10
2899.3385549523391091
 20
156.2810798730687054
 30
0.0
 11
2899.3385549527201874
 21
156.2879202983720006
 31
0.0
  0
ARC
  5
C155
  8
0
 10
2899.3564741291102109
 20
156.2834429050149936
 30
0.0
 40
0.0184700821277262
 50
104.0290061606537932
 51
165.9709814780937904
  0
LINE
  5
C156
  8
0
 10
2899.3519967396191532
 20
156.3013620823720089
 30
0.0
 11
2899.3802303026109257
 21
156.3013620778494897
 31
0.0
  0
ARC
  5
C157
  8
0
 10
2899.3757327720268222
 20
156.2834214609841013
 30
0.0
 40
0.0184957701887497
 50
14.0775900839974906
 51
75.9265620086367221
  0
LINE
  5
C158
  8
0
 10
2899.3936730629188787
 20
156.2879202916720089
 30
0.0
 11
2899.3936737222988995
 21
156.2788414168738882
 31
0.0
  0
LINE
  5
C159
  8
0
 10
2899.3779250309648887
 20
156.27884139039611
 30
0.0
 11
2899.3779250314692035
 21
156.2879202935718865
 31
0.0
  0
ARC
  5
C15A
  8
0
 10
2899.3958442078601365
 20
156.2834429002149932
 30
0.0
 40
0.0184700821277262
 50
104.0290061606537932
 51
165.9709814780937904
  0
LINE
  5
C15B
  8
0
 10
2899.3913668183690788
 20
156.3013620775720085
 30
0.0
 11
2899.4196003813622156
 21
156.3013620730496029
 31
0.0
  0
ARC
  5
C15C
  8
0
 10
2899.4151028507758383
 20
156.2834214561839872
 30
0.0
 40
0.0184957701887497
 50
14.0775900839974906
 51
75.9265620086367221
  0
LINE
  5
C15D
  8
0
 10
2899.4330431416688043
 20
156.2879202868718949
 30
0.0
 11
2899.4330436384639142
 21
156.2810800088562075
 31
0.0
  0
LINE
  5
C15E
  8
0
 10
2899.4172951097689293
 20
156.2798064790287071
 30
0.0
 11
2899.4172951102200386
 21
156.2879202887718861
 31
0.0
  0
ARC
  5
C15F
  8
0
 10
2899.4352142866100621
 20
156.2834428954149928
 30
0.0
 40
0.0184700821277262
 50
104.0290061606537932
 51
165.9709814780937904
  0
LINE
  5
C160
  8
0
 10
2899.4307368971190044
 20
156.3013620727720081
 30
0.0
 11
2899.4589704601107769
 21
156.3013620682496025
 31
0.0
  0
ARC
  5
C161
  8
0
 10
2899.4544729295271281
 20
156.2834214513839868
 30
0.0
 40
0.0184957701887497
 50
14.0775900839974906
 51
75.9265620086367221
  0
LINE
  5
C162
  8
0
 10
2899.4724132204191847
 20
156.2879202820720081
 30
0.0
 11
2899.4724133235199588
 21
156.286500713131403
 31
0.0
  0
LINE
  5
C163
  8
0
 10
2899.4566651886980253
 20
156.2839451651229865
 30
0.0
 11
2899.4566651889190325
 21
156.2879202839719142
 31
0.0
  0
ARC
  5
C164
  8
0
 10
2899.4745843653099655
 20
156.2834428906149924
 30
0.0
 40
0.0184700821277262
 50
104.0290061606537932
 51
165.9709814780937904
  0
LINE
  5
C165
  8
0
 10
2899.4701069758189078
 20
156.3013620679720077
 30
0.0
 11
2899.498340538811135
 21
156.3013620634496021
 31
0.0
  0
ARC
  5
C166
  8
0
 10
2899.4938430082270315
 20
156.2834214465839864
 30
0.0
 40
0.0184957701887497
 50
36.4571273223766283
 51
75.9265620086367221
  0
ARC
  5
C167
  8
0
 10
2899.5139544441099133
 20
156.2834428858650142
 30
0.0
 40
0.0184700821277262
 50
104.0290061606537932
 51
153.658100845493891
  0
LINE
  5
C168
  8
0
 10
2899.5094770546188556
 20
156.3013620632220011
 30
0.0
 11
2899.533097013205861
 21
156.3013620594385031
 31
0.0
  0
LINE
  5
C169
  8
0
 10
2899.5354048621647962
 20
156.3570397587608056
 30
0.0
 11
2899.5354048629651516
 21
156.3714368228606872
 31
0.0
  0
ARC
  5
C16A
  8
0
 10
2899.5533240393560845
 20
156.3669594295037939
 30
0.0
 40
0.0184700821277262
 50
104.0290061606537932
 51
165.9709814780937904
  0
LINE
  5
C16B
  8
0
 10
2899.5488466498650268
 20
156.3848786068608092
 30
0.0
 11
2899.5770802128567993
 21
156.3848786023384037
 31
0.0
  0
LINE
  5
C16C
  8
0
 10
2899.4960347848650599
 20
156.3848786131607085
 30
0.0
 11
2899.4960347856649605
 21
156.3992756772607038
 31
0.0
  0
ARC
  5
C16D
  8
0
 10
2899.5139539620558935
 20
156.3947982839038104
 30
0.0
 40
0.0184700821277262
 50
104.0290061606537932
 51
165.9709814780937904
  0
LINE
  5
C16E
  8
0
 10
2899.5094765725662
 20
156.4127174612607121
 30
0.0
 11
2899.5285034638009165
 21
156.412717458213109
 31
0.0
  0
LINE
  5
C16F
  8
0
 10
2899.3385544714151365
 20
156.4127174819608115
 30
0.0
 11
2899.3385544722150371
 21
156.4271145460606931
 31
0.0
  0
ARC
  5
C170
  8
0
 10
2899.3564736486059701
 20
156.4226371527037998
 30
0.0
 40
0.0184700821277262
 50
120.6109874132362023
 51
165.9709814780937904
  0
LINE
  5
C171
  8
0
 10
2899.3779245501650621
 20
156.4127174771606974
 30
0.0
 11
2899.3779245509649627
 21
156.4271145412608064
 31
0.0
  0
ARC
  5
C172
  8
0
 10
2899.3958437273558957
 20
156.4226371479037994
 30
0.0
 40
0.0184700821277262
 50
113.1830166306937002
 51
165.9709814780937904
  0
LINE
  5
C173
  8
0
 10
2899.4172946289149877
 20
156.4127174724108045
 30
0.0
 11
2899.4172946297148883
 21
156.4271145365106861
 31
0.0
  0
ARC
  5
C174
  8
0
 10
2899.4352138061071855
 20
156.4226371431537927
 30
0.0
 40
0.0184700821277262
 50
121.1890251048747018
 51
165.9709814780937904
  0
LINE
  5
C175
  8
0
 10
2899.4566647076649133
 20
156.4127174676108041
 30
0.0
 11
2899.4566647084648139
 21
156.4271145317107141
 31
0.0
  0
ARC
  5
C176
  8
0
 10
2899.4745838848562016
 20
156.4226371383537924
 30
0.0
 40
0.0184700821277262
 50
143.2342265251974993
 51
165.9709814780937904
  0
ARC
  5
C177
  8
0
 10
2899.3757317683589463
 20
156.4228545282117864
 30
0.0
 40
0.0184957701887497
 50
14.0775900839974906
 51
64.8900502934107664
  0
LINE
  5
C178
  8
0
 10
2899.3936720592510028
 20
156.4273533588996941
 30
0.0
 11
2899.393673104879781
 21
156.4129562949217984
 31
0.0
  0
ARC
  5
C179
  8
0
 10
2899.3363616896090207
 20
156.4228545330117868
 30
0.0
 40
0.0184957701887497
 50
14.0775900839974906
 51
57.5727789202010882
  0
LINE
  5
C17A
  8
0
 10
2899.3543019805010772
 20
156.4273533636996945
 30
0.0
 11
2899.3543030261289459
 21
156.4129562997217988
 31
0.0
  0
ARC
  5
C17B
  8
0
 10
2899.2969916109082078
 20
156.4228545378117872
 30
0.0
 40
0.0184957701887497
 50
14.0775900839974906
 51
35.9801321811404691
  0
LINE
  5
C17C
  8
0
 10
2899.3149319018011738
 20
156.4273533684996949
 30
0.0
 11
2899.3149329474290425
 21
156.4129563045217992
 31
0.0
  0
ARC
  5
C17D
  8
0
 10
2899.2576215306580707
 20
156.3950156929118123
 30
0.0
 40
0.0184957701887497
 50
14.0775900839974906
 51
75.9265620086367221
  0
LINE
  5
C17E
  8
0
 10
2899.2755618215510367
 20
156.3995145235996915
 30
0.0
 11
2899.2755628845238789
 21
156.3848786399412063
 31
0.0
  0
ARC
  5
C17F
  8
0
 10
2899.2182514504079336
 20
156.3669380285118109
 30
0.0
 40
0.0184957701887497
 50
14.0775900839974906
 51
75.9265620086367221
  0
LINE
  5
C180
  8
0
 10
2899.2361917413008996
 20
156.3714368591996902
 30
0.0
 11
2899.2361927869301326
 21
156.3570397952217945
 31
0.0
  0
ARC
  5
C181
  8
0
 10
2899.4151018471088719
 20
156.422854523411786
 30
0.0
 40
0.0184957701887497
 50
14.0775900839974906
 51
57.7435107996786812
  0
LINE
  5
C182
  8
0
 10
2899.4330421380009284
 20
156.4273533540996937
 30
0.0
 11
2899.4330431836287971
 21
156.412956290121798
 31
0.0
  0
LINE
  5
C183
  8
0
 10
2899.2204346824150889
 20
156.3848786373534949
 30
0.0
 11
2899.2204346832290867
 21
156.3995167959731134
 31
0.0
  0
ARC
  5
C184
  8
0
 10
2899.2383538596200196
 20
156.3950394026161064
 30
0.0
 40
0.0184700821277262
 50
155.8846212481718965
 51
165.9709814780937904
  0
LINE
  5
C185
  8
0
 10
2899.2436604453100699
 20
156.4129585784058918
 30
0.0
 11
2899.2621100331198249
 21
156.4129585754506877
 31
0.0
  0
LINE
  5
C186
  8
0
 10
2899.1810651252508251
 20
156.3570397934066136
 30
0.0
 11
2899.1810651260511804
 21
156.3714368575066089
 31
0.0
  0
ARC
  5
C187
  8
0
 10
2899.1989843024421134
 20
156.3669594641496019
 30
0.0
 40
0.0184700821277262
 50
104.0290061606537932
 51
165.9709814780937904
  0
LINE
  5
C188
  8
0
 10
2899.1945069129510557
 20
156.3848786415065888
 30
0.0
 11
2899.2227404759428282
 21
156.3848786369842117
 31
0.0
  0
ARC
  5
C189
  8
0
 10
2899.1596232523588696
 20
156.3391206276037906
 30
0.0
 40
0.0184700821277262
 50
104.0290061606537932
 51
108.5845626866939995
  0
LINE
  5
C18A
  8
0
 10
2899.1551458628669025
 20
156.3570398049608059
 30
0.0
 11
2899.1833794258600392
 21
156.3570398004384003
 31
0.0
  0
ARC
  5
C18B
  8
0
 10
2899.1788818952750262
 20
156.339099183572813
 30
0.0
 40
0.0184957701887497
 50
14.0775900839974906
 51
75.9265620086367221
  0
LINE
  5
C18C
  8
0
 10
2899.1968221861679922
 20
156.3435980142608059
 30
0.0
 11
2899.1968232317949514
 21
156.3292009502829103
 31
0.0
  0
ARC
  5
C18D
  8
0
 10
2899.1788728636988708
 20
156.36693802491871
 30
0.0
 40
0.0184957701887497
 50
14.0775900839974906
 51
60.0076264235733206
  0
LINE
  5
C18E
  8
0
 10
2899.1968131545918368
 20
156.3714368556065892
 30
0.0
 11
2899.1968142002201603
 21
156.3570397916288073
 31
0.0
  0
ARC
  5
C18F
  8
0
 10
2899.5725826822731506
 20
156.3669379854727879
 30
0.0
 40
0.0184957701887497
 50
14.0775900839974906
 51
75.9265620086367221
  0
LINE
  5
C190
  8
0
 10
2899.5905229731652071
 20
156.3714368161608093
 30
0.0
 11
2899.5905240187930758
 21
156.3570397521829136
 31
0.0
  0
LINE
  5
C191
  8
0
 10
2899.574774939414965
 20
156.32920090431071
 30
0.0
 11
2899.5747749402148656
 21
156.3435979684107906
 31
0.0
  0
ARC
  5
C192
  8
0
 10
2899.5926941166057986
 20
156.339120575053812
 30
0.0
 40
0.0184700821277262
 50
104.0290061606537932
 51
165.9709814780937904
  0
LINE
  5
C193
  8
0
 10
2899.5882167271151957
 20
156.3570397524107989
 30
0.0
 11
2899.6173876016650865
 21
156.357039747738213
 31
0.0
  0
ARC
  5
C194
  8
0
 10
2899.4544724519819283
 20
156.4226156990727929
 30
0.0
 40
0.0184957701887497
 50
14.0775900839974906
 51
28.3636863384941513
  0
LINE
  5
C195
  8
0
 10
2899.4724127428748943
 20
156.4271145297607859
 30
0.0
 11
2899.4724137885018536
 21
156.4127174657828903
 31
0.0
  0
ARC
  5
C196
  8
0
 10
2899.5332126079820227
 20
156.3947768398728044
 30
0.0
 40
0.0184957701887497
 50
14.0775900839974906
 51
25.2564334096747309
  0
LINE
  5
C197
  8
0
 10
2899.5511528988749888
 20
156.3992756705607974
 30
0.0
 11
2899.5511539445028575
 21
156.3848786065829017
 31
0.0
  0
LINE
  5
C198
  8
0
 10
2899.5747749438742176
 20
156.357039754010799
 30
0.0
 11
2899.5747749446741182
 21
156.3714368181107091
 31
0.0
  0
ARC
  5
C199
  8
0
 10
2899.5926941210659606
 20
156.3669594247537873
 30
0.0
 40
0.0184700821277262
 50
119.9565551765208937
 51
165.9709814780937904
  0
LINE
  5
C19A
  8
0
 10
2899.5747749483339248
 20
156.3848786036608089
 30
0.0
 11
2899.5747749485399254
 21
156.3885822181742924
 31
0.0
  0
LINE
  5
C19B
  8
0
 10
2899.5354048666249582
 20
156.3848786084107019
 30
0.0
 11
2899.5354048674248588
 21
156.3992756725108109
 31
0.0
  0
ARC
  5
C19C
  8
0
 10
2899.5533240438148823
 20
156.3947982791538038
 30
0.0
 40
0.0184700821277262
 50
136.2643959288801909
 51
165.9709814780937904
  0
LINE
  5
C19D
  8
0
 10
2899.2598143169630021
 20
156.4129585767215929
 30
0.0
 11
2899.2598143173167955
 21
156.4193275461159942
 31
0.0
  0
LINE
  5
C19E
  8
0
 10
2899.2991843956629054
 20
156.4129585719715863
 30
0.0
 11
2899.299184396462806
 21
156.42735563607161
 31
0.0
  0
ARC
  5
C19F
  8
0
 10
2899.3171035728541938
 20
156.4228782427146029
 30
0.0
 40
0.0184700821277262
 50
152.6330147082873907
 51
165.9709814780937904
  0
ARC
  5
C1A0
  8
0
 10
2899.2182514548680956
 20
156.3947768782117862
 30
0.0
 40
0.0184957701887497
 50
14.0775900839974906
 51
43.7420031812393688
  0
LINE
  5
C1A1
  8
0
 10
2899.2361917457601521
 20
156.3992757088996939
 30
0.0
 11
2899.2361927913889303
 21
156.3848786449217982
 31
0.0
  0
LINE
  5
C1A2
  8
0
 10
2899.5117833871900075
 20
156.4193273585661075
 30
0.0
 11
2899.5117838672517792
 21
156.4127174610329121
 31
0.0
  0
LINE
  5
C1A3
  8
0
 10
2899.4960347893238577
 20
156.4127174628108037
 30
0.0
 11
2899.4960347899868793
 21
156.4246351074650079
 31
0.0
  0
ENDSEC
  0
EOF
