  0
SECTION
  2
HEADER
  9
$ACADVER
  1
AC1009
  9
$INSBASE
 10
976.9419658135677764
 20
142.5112381665130101
 30
0.0
  9
$EXTMIN
 10
972.020880876967567
 20
140.4846599150818065
 30
0.0
  9
$EXTMAX
 10
981.8630507385678357
 20
142.5167381753518043
 30
0.0
  9
$LIMMIN
 10
0.0
 20
0.0
  9
$LIMMAX
 10
11.6929133858000007
 20
8.2677165353999982
  9
$ORTHOMODE
 70
     1
  9
$REGENMODE
 70
     1
  9
$FILLMODE
 70
     1
  9
$QTEXTMODE
 70
     0
  9
$MIRRTEXT
 70
     0
  9
$DRAGMODE
 70
     2
  9
$LTSCALE
 40
0.6431102362
  9
$OSMODE
 70
  4095
  9
$ATTMODE
 70
     1
  9
$TEXTSIZE
 40
0.2
  9
$TRACEWID
 40
0.05
  9
$TEXTSTYLE
  7
STANDARD
  9
$CLAYER
  8
0
  9
$CELTYPE
  6
BYLAYER
  9
$CECOLOR
 62
   256
  9
$DIMSCALE
 40
1.0
  9
$DIMASZ
 40
0.1875
  9
$DIMEXO
 40
0.0625
  9
$DIMDLI
 40
0.4443307087
  9
$DIMRND
 40
0.0
  9
$DIMDLE
 40
0.0
  9
$DIMEXE
 40
0.125
  9
$DIMTP
 40
0.01
  9
$DIMTM
 40
0.01
  9
$DIMTXT
 40
1.0
  9
$DIMCEN
 40
0.1052362205
  9
$DIMTSZ
 40
0.0
  9
$DIMTOL
 70
     1
  9
$DIMLIM
 70
     0
  9
$DIMTIH
 70
     0
  9
$DIMTOH
 70
     1
  9
$DIMSE1
 70
     0
  9
$DIMSE2
 70
     0
  9
$DIMTAD
 70
     0
  9
$DIMZIN
 70
     0
  9
$DIMBLK
  1

  9
$DIMASO
 70
     1
  9
$DIMSHO
 70
     1
  9
$DIMPOST
  1
\X
  9
$DIMAPOST
  1

  9
$DIMALT
 70
     1
  9
$DIMALTD
 70
     2
  9
$DIMALTF
 40
25.3999999999999986
  9
$DIMLFAC
 40
1.0
  9
$DIMTOFL
 70
     0
  9
$DIMTVP
 40
0.0
  9
$DIMTIX
 70
     0
  9
$DIMSOXD
 70
     0
  9
$DIMSAH
 70
     0
  9
$DIMBLK1
  1

  9
$DIMBLK2
  1

  9
$DIMSTYLE
  2
STANDARD
  9
$DIMCLRD
 70
     0
  9
$DIMCLRE
 70
     0
  9
$DIMCLRT
 70
     0
  9
$DIMTFAC
 40
1.0
  9
$DIMGAP
 40
0.09
  9
$LUNITS
 70
     2
  9
$LUPREC
 70
     4
  9
$SKETCHINC
 40
0.1
  9
$FILLETRAD
 40
0.0
  9
$AUNITS
 70
     0
  9
$AUPREC
 70
     0
  9
$MENU
  1
.
  9
$ELEVATION
 40
0.0
  9
$PELEVATION
 40
0.0
  9
$THICKNESS
 40
0.0
  9
$LIMCHECK
 70
     0
  9
$BLIPMODE
 70
     0
  9
$CHAMFERA
 40
0.0
  9
$CHAMFERB
 40
0.0
  9
$SKPOLY
 70
     0
  9
$TDCREATE
 40
2458172.5207638889551163
  9
$TDUPDATE
 40
2460025.387708333786577
  9
$TDINDWG
 40
0.4674196991
  9
$TDUSRTIMER
 40
0.4674196991
  9
$USRTIMER
 70
     1
  9
$ANGBASE
 50
0.0
  9
$ANGDIR
 70
     0
  9
$PDMODE
 70
     0
  9
$PDSIZE
 40
0.3125
  9
$PLINEWID
 40
0.0
  9
$COORDS
 70
     1
  9
$SPLFRAME
 70
     0
  9
$SPLINETYPE
 70
     6
  9
$SPLINESEGS
 70
     8
  9
$ATTDIA
 70
     1
  9
$ATTREQ
 70
     1
  9
$HANDLING
 70
     1
  9
$HANDSEED
  5
E82E
  9
$SURFTAB1
 70
     6
  9
$SURFTAB2
 70
     6
  9
$SURFTYPE
 70
     6
  9
$SURFU
 70
     6
  9
$SURFV
 70
     6
  9
$UCSNAME
  2

  9
$UCSORG
 10
0.0
 20
0.0
 30
0.0
  9
$UCSXDIR
 10
1.0
 20
0.0
 30
0.0
  9
$UCSYDIR
 10
0.0
 20
1.0
 30
0.0
  9
$PUCSNAME
  2

  9
$PUCSORG
 10
0.0
 20
0.0
 30
0.0
  9
$PUCSXDIR
 10
1.0
 20
0.0
 30
0.0
  9
$PUCSYDIR
 10
0.0
 20
1.0
 30
0.0
  9
$USERI1
 70
     0
  9
$USERI2
 70
     0
  9
$USERI3
 70
     0
  9
$USERI4
 70
     0
  9
$USERI5
 70
     0
  9
$USERR1
 40
0.0
  9
$USERR2
 40
0.0
  9
$USERR3
 40
0.0
  9
$USERR4
 40
0.0
  9
$USERR5
 40
0.0
  9
$WORLDVIEW
 70
     1
  9
$SHADEDGE
 70
     3
  9
$SHADEDIF
 70
    70
  9
$TILEMODE
 70
     1
  9
$MAXACTVP
 70
    64
  9
$PLIMCHECK
 70
     0
  9
$PEXTMIN
 10
1.0000000000000000E+20
 20
1.0000000000000000E+20
 30
1.0000000000000000E+20
  9
$PEXTMAX
 10
-1.0000000000000000E+20
 20
-1.0000000000000000E+20
 30
-1.0000000000000000E+20
  9
$PLIMMIN
 10
0.0
 20
0.0
  9
$PLIMMAX
 10
12.0
 20
9.0
  9
$UNITMODE
 70
     0
  9
$VISRETAIN
 70
     1
  9
$PLINEGEN
 70
     0
  9
$PSLTSCALE
 70
     1
  0
ENDSEC
  0
SECTION
  2
TABLES
  0
TABLE
  2
VPORT
 70
     1
  0
VPORT
  2
*ACTIVE
 70
     0
 10
0.0
 20
0.0
 11
1.0
 21
1.0
 12
510.1997640999376245
 22
52.3675519252870387
 13
0.0
 23
0.0
 14
1.0
 24
1.0
 15
0.0
 25
0.0
 16
0.0
 26
0.0
 36
24.1179433675886514
 17
466.74220170783002
 27
89.133147119929788
 37
0.0
 40
4.324296167226354
 41
2.2831541218637992
 42
50.0
 43
0.0
 44
0.0
 50
0.0
 51
0.0
 71
     0
 72
   100
 73
     1
 74
     1
 75
     0
 76
     0
 77
     0
 78
     0
  0
ENDTAB
  0
TABLE
  2
LTYPE
 70
     2
  0
LTYPE
  2
CONTINUOUS
 70
     0
  3
Solid line
 72
    65
 73
     0
 40
0.0
  0
LTYPE
  2
PHANTOM2
 70
     0
  3
___ _ _ ___ _ _ ___ _ _ ___ _ _
 72
    65
 73
     6
 40
1.25
 49
0.625
 49
-0.125
 49
0.125
 49
-0.125
 49
0.125
 49
-0.125
  0
ENDTAB
  0
TABLE
  2
LAYER
 70
     2
  0
LAYER
  2
0
 70
     0
 62
   255
  6
CONTINUOUS
  0
LAYER
  2
DEFPOINTS
 70
     0
 62
     7
  6
CONTINUOUS
  0
ENDTAB
  0
TABLE
  2
STYLE
 70
     1
  0
STYLE
  2
STANDARD
 70
     0
 40
0.0
 41
0.8
 50
0.0
 71
     0
 42
0.2
  3
txt
  4

  0
ENDTAB
  0
TABLE
  2
VIEW
 70
     0
  0
ENDTAB
  0
TABLE
  2
UCS
 70
     0
  0
ENDTAB
  0
TABLE
  2
APPID
 70
    11
  0
APPID
  2
ACAD
 70
     0
  0
APPID
  2
ACAD_MLEADERVER
 70
     0
  0
APPID
  2
ACAD_EXEMPT_FROM_CAD_STANDARDS
 70
     0
  0
APPID
  2
ACAD_DSTYLE_DIMJAG
 70
     0
  0
APPID
  2
ACAD_DSTYLE_DIMTALN
 70
     0
  0
APPID
  2
ACAD_NAV_VCDISPLAY
 70
     0
  0
APPID
  2
ACAECLAYERSTANDARD
 70
     0
  0
APPID
  2
ACCMTRANSPARENCY
 70
     0
  0
APPID
  2
DCO15
 70
     0
  0
APPID
  2
ACDBATTR
 70
     0
  0
APPID
  2
ACADANNOTATIVE
 70
     0
  0
ENDTAB
  0
TABLE
  2
DIMSTYLE
 70
     1
  0
DIMSTYLE
  2
STANDARD
 70
     0
  3

  4

  5

  6

  7

 40
1.0
 41
0.1875
 42
0.0625
 43
0.38
 44
0.125
 45
0.0
 46
0.0
 47
0.01
 48
0.01
140
0.15625
141
0.09
142
0.0
143
25.3999999999999986
144
1.0
145
0.0
146
1.0
147
0.09
 71
     1
 72
     0
 73
     1
 74
     1
 75
     0
 76
     0
 77
     0
 78
     4
170
     0
171
     2
172
     0
173
     0
174
     0
175
     0
176
     0
177
     0
178
     0
  0
ENDTAB
  0
ENDSEC
  0
SECTION
  2
BLOCKS
  0
BLOCK
  8
0
  2
$MODEL_SPACE
 70
     0
 10
0.0
 20
0.0
 30
0.0
  3
$MODEL_SPACE
  1

  0
ENDBLK
  5
21
  8
0
  0
BLOCK
 67
     1
  8
0
  2
$PAPER_SPACE
 70
     0
 10
0.0
 20
0.0
 30
0.0
  3
$PAPER_SPACE
  1

  0
ENDBLK
  5
1D
 67
     1
  8
0
  0
ENDSEC
  0
SECTION
  2
ENTITIES
  0
ATTDEF
  5
DFB6
  8
DEFPOINTS
 10
976.9424443527514086
 20
142.5157381753516859
 30
0.0
 40
0.001
  1
K-76465ME
  3

  2
MODELNUMBER
 70
     0
1001
ACDBATTR
1070
     0
1070
     1
  0
ATTDEF
  5
DFB7
  8
DEFPOINTS
 10
976.9424443527514086
 20
142.5140715086849923
 30
0.0
 40
0.001
  1
AWAKEN
  3

  2
TRADENAME
 70
     0
1001
ACDBATTR
1070
     0
1070
     1
  0
ATTDEF
  5
DFB8
  8
DEFPOINTS
 10
976.9424443527514086
 20
142.5124048420184124
 30
0.0
 40
0.001
  1
SHOWERHEAD
  3

  2
PRODUCT
 70
     0
1001
ACDBATTR
1070
     0
1070
     1
  0
LINE
  5
E3DB
  8
0
 10
981.8506357521956716
 20
141.5059121872571097
 30
0.0
 11
981.863050738567722
 21
140.7944670492213106
 31
0.0
  0
LINE
  5
E3DC
  8
0
 10
972.0307220175130851
 20
140.7846297458679032
 30
0.0
 11
981.8532098579132708
 21
140.7846297458679885
 31
0.0
  0
LINE
  5
E3DD
  8
0
 10
981.8506357521955579
 20
141.505912187357012
 30
0.0
 11
972.0332960267689941
 21
141.505911530777297
 31
0.0
  0
LINE
  5
E3DE
  8
0
 10
981.7806809602221847
 20
141.5761486686400872
 30
0.0
 11
972.1032508095712501
 21
141.5761480213562891
 31
0.0
  0
LINE
  5
E3DF
  8
0
 10
975.9701527575285809
 20
141.6857226401803018
 30
0.0
 11
977.9137789973555073
 21
141.6857226401803871
 31
0.0
  0
LINE
  5
E3E0
  8
0
 10
976.0558039370810093
 20
142.2024378432294895
 30
0.0
 11
976.0481350084676251
 21
141.7630849950164134
 31
0.0
  0
LINE
  5
E3E1
  8
0
 10
972.0967539667369692
 20
141.5732761075479118
 30
0.0
 11
972.0361773349152372
 21
141.5126994675700871
 31
0.0
  0
LINE
  5
E3E2
  8
0
 10
972.0332960267689941
 20
141.505911530777297
 30
0.0
 11
972.020880876967567
 21
140.7943150374169932
 31
0.0
  0
ARC
  5
E3E3
  8
0
 10
976.9419736600302713
 20
39.1035289015375014
 30
0.0
 40
102.5867969482380033
 50
90.5427800716740876
 51
92.7034794527561132
  0
ARC
  5
E3E4
  8
0
 10
981.8518586989622463
 20
140.7958222774682895
 30
0.0
 40
0.0112737923580979
 50
276.8834198168058265
 51
353.095748560050481
  0
ARC
  5
E3E5
  8
0
 10
975.9694069572832404
 20
141.7644591509740053
 30
0.0
 40
0.0787400428621472
 50
270.5426951583452819
 51
359.0000344061535884
  0
ARC
  5
E3E6
  8
0
 10
976.0780808090713663
 20
142.2009845891967075
 30
0.0
 40
0.0223242239550993
 50
96.062275061471567
 51
176.267541420609291
  0
ARC
  5
E3E7
  8
0
 10
972.030721551631359
 20
140.7944716669418881
 30
0.0
 40
0.0098419210849007
 50
180.9118737589564887
 51
270.0027121814442239
  0
ARC
  5
E3E8
  8
0
 10
972.1037136917021826
 20
141.5663163544633107
 30
0.0
 40
0.0098425572825217
 50
92.6955385689884679
 51
134.9998846343910088
  0
ARC
  5
E3E9
  8
0
 10
972.0431370476336497
 20
141.5057397550816063
 30
0.0
 40
0.0098425199542094
 50
135.0000009486741135
 51
179.0000001865437014
  0
ARC
  5
E3EA
  8
0
 10
974.1738744906062948
 20
156.3011364875704885
 30
0.0
 40
15.6301493095006698
 50
263.0866256073364866
 51
264.361637637940305
  0
ARC
  5
E3EB
  8
0
 10
976.8060626927716612
 20
158.5711277448272085
 30
0.0
 40
18.0437867758506982
 50
269.1613429884379229
 51
269.1985827018045256
  0
ARC
  5
E3EC
  8
0
 10
976.8060626927716612
 20
158.5711277448272085
 30
0.0
 40
18.0437867758506982
 50
269.67265200783811
 51
270.1917917228045098
  0
LINE
  5
E3ED
  8
0
 10
976.8679775025584604
 20
140.4951214973424953
 30
0.0
 11
976.8671745914898565
 21
140.512876124399213
 31
0.0
  0
LINE
  5
E3EE
  8
0
 10
977.0161642546581788
 20
140.4951208657539894
 30
0.0
 11
977.0167065448836183
 21
140.5129684677008015
 31
0.0
  0
ARC
  5
E3EF
  8
0
 10
976.9422481588092069
 20
139.7152850100254966
 30
0.0
 40
0.7707281788067827
 50
88.2281739782540484
 51
91.7987928383246583
  0
ARC
  5
E3F0
  8
0
 10
976.9418908945767726
 20
141.2334272988678947
 30
0.0
 40
0.7481736881312614
 50
268.1743357074188907
 51
271.8526311091280832
  0
ARC
  5
E3F1
  8
0
 10
976.9433407297027543
 20
142.8695992860999127
 30
0.0
 40
2.3849393710181301
 50
268.4195493796074743
 51
271.4941559277759211
  0
ARC
  5
E3F2
  8
0
 10
976.8780234079174534
 20
140.4956146314773093
 30
0.0
 40
0.0100580015788874
 50
182.8102835962081087
 51
267.3748959622305961
  0
ARC
  5
E3F3
  8
0
 10
977.0060096776328464
 20
140.4956265629797088
 30
0.0
 40
0.0101671610716892
 50
267.2844788661489019
 51
357.1490294657837126
  0
LINE
  5
E3F4
  8
0
 10
976.8671745914898565
 20
140.512876124399213
 30
0.0
 11
976.8661395679064299
 21
140.5340416917997004
 31
0.0
  0
LINE
  5
E3F5
  8
0
 10
977.0167065448836183
 20
140.5129684677008015
 30
0.0
 11
977.0177581904905537
 21
140.5338463775358093
 31
0.0
  0
ARC
  5
E3F6
  8
0
 10
976.9418580888104771
 20
182.7859692807068086
 30
0.0
 40
42.2590929827425867
 50
275.8453856655056029
 51
276.3314149405414923
  0
ARC
  5
E3F7
  8
0
 10
977.0778667209972355
 20
158.571127763007496
 30
0.0
 40
18.0437867758506982
 50
269.8081082146915151
 51
270.3273554231598155
  0
LINE
  5
E3F8
  8
0
 10
977.8281277486807994
 20
142.2024379617739953
 30
0.0
 11
977.8357967360677776
 21
141.7630851145871134
 31
0.0
  0
LINE
  5
E3F9
  8
0
 10
981.7871777996633682
 20
141.5732767521816982
 30
0.0
 11
981.8477544431150363
 21
141.512700123833298
 31
0.0
  0
ARC
  5
E3FA
  8
0
 10
976.9419856205006454
 20
39.103894302909751
 30
0.0
 40
102.5864313025099932
 50
87.2965262865165812
 51
89.457233367741182
  0
ARC
  5
E3FB
  8
0
 10
977.9145250147289516
 20
141.7644593782490858
 30
0.0
 40
0.0787402721838321
 50
181.0000410648580953
 51
269.4571484210983954
  0
ARC
  5
E3FC
  8
0
 10
977.805813906395656
 20
142.2009934142853069
 30
0.0
 40
0.0223605518090461
 50
3.704029823744178
 51
82.9304417634001965
  0
ARC
  5
E3FD
  8
0
 10
981.7802180877980618
 20
141.5663170383334943
 30
0.0
 40
0.009842520274996
 50
45.0000077796340818
 51
87.3045093192593384
  0
ARC
  5
E3FE
  8
0
 10
981.8407947313272643
 20
141.5057404104140915
 30
0.0
 40
0.009842519954224
 50
1.000007478089201
 51
45.0000067158852914
  0
ARC
  5
E3FF
  8
0
 10
976.8726612034142818
 20
141.2052262414966037
 30
0.0
 40
0.6738164055388473
 50
265.9390123539039905
 51
269.4562633585262006
  0
ARC
  5
E400
  8
0
 10
976.9367967130283432
 20
136.5344187430773104
 30
0.0
 40
4.0002470128859544
 50
88.2636376416397326
 51
91.6023008112565549
  0
ARC
  5
E401
  8
0
 10
977.0129140151410638
 20
141.1893310701969142
 30
0.0
 40
0.6580488977496199
 50
270.410609973703572
 51
273.9292540112390952
  0
LINE
  5
E402
  8
0
 10
976.4133970197941608
 20
140.7068428838933016
 30
0.0
 11
976.4125941087256706
 21
140.7245975109499057
 31
0.0
  0
LINE
  5
E403
  8
0
 10
976.5615837718941066
 20
140.7068422523047104
 30
0.0
 11
976.5621260621195461
 21
140.7246898542514941
 31
0.0
  0
ARC
  5
E404
  8
0
 10
976.4876676760451346
 20
139.9270063965761892
 30
0.0
 40
0.7707281788067827
 50
88.2281739782540484
 51
91.7987928383246583
  0
ARC
  5
E405
  8
0
 10
976.4873104118127003
 20
141.4451486854185873
 30
0.0
 40
0.7481736881312614
 50
268.1743357074188907
 51
271.8526311091280832
  0
ARC
  5
E406
  8
0
 10
976.4887616451903796
 20
143.0831774245924066
 30
0.0
 40
2.386795455705645
 50
268.4207451457417051
 51
271.4929601616391892
  0
ARC
  5
E407
  8
0
 10
976.4234429251532674
 20
140.7073360180280872
 30
0.0
 40
0.0100580015788874
 50
182.8102835962081087
 51
267.3748959622305961
  0
ARC
  5
E408
  8
0
 10
976.5514291948685468
 20
140.7073479495304014
 30
0.0
 40
0.0101671610716892
 50
267.2844788661489019
 51
357.1490294657837126
  0
LINE
  5
E409
  8
0
 10
976.4125941087256706
 20
140.7245975109499057
 30
0.0
 11
976.4115590851422439
 21
140.7457630783503078
 31
0.0
  0
LINE
  5
E40A
  8
0
 10
976.5621260621195461
 20
140.7246898542514941
 30
0.0
 11
976.5631777077262541
 21
140.7455677640865019
 31
0.0
  0
ARC
  5
E40B
  8
0
 10
976.4180807206502095
 20
141.4169476280472963
 30
0.0
 40
0.6738164055388473
 50
265.9390123539039905
 51
269.4562633585262006
  0
ARC
  5
E40C
  8
0
 10
976.4822162302641573
 20
136.746140129628003
 30
0.0
 40
4.0002470128859544
 50
88.2636376416397326
 51
91.6023008112565549
  0
ARC
  5
E40D
  8
0
 10
976.5583335323767642
 20
141.4010524567476068
 30
0.0
 40
0.6580488977496199
 50
270.410609973703572
 51
273.9292540112390952
  0
LINE
  5
E40E
  8
0
 10
976.4335448648472493
 20
140.6466478092897034
 30
0.0
 11
976.4327419537786454
 21
140.6644024363463927
 31
0.0
  0
LINE
  5
E40F
  8
0
 10
976.5817316169470814
 20
140.6466471777011975
 30
0.0
 11
976.5822739071724072
 21
140.6644947796478959
 31
0.0
  0
ARC
  5
E410
  8
0
 10
976.5078155210979958
 20
139.8668113219727047
 30
0.0
 40
0.7707281788067827
 50
88.2281739782540484
 51
91.7987928383246583
  0
ARC
  5
E411
  8
0
 10
976.5074582568655615
 20
141.3849536108151028
 30
0.0
 40
0.7481736881312614
 50
268.1743357074188907
 51
271.8526311091280832
  0
ARC
  5
E412
  8
0
 10
976.5089094902432407
 20
143.0229823499888937
 30
0.0
 40
2.386795455705645
 50
268.4207451457417051
 51
271.4929601616391892
  0
ARC
  5
E413
  8
0
 10
976.443590770206356
 20
140.6471409434246027
 30
0.0
 40
0.0100580015788874
 50
182.8102835962081087
 51
267.3748959622305961
  0
ARC
  5
E414
  8
0
 10
976.571577039921408
 20
140.6471528749268884
 30
0.0
 40
0.0101671610716892
 50
267.2844788661489019
 51
357.1490294657837126
  0
LINE
  5
E415
  8
0
 10
976.4327419537786454
 20
140.6644024363463927
 30
0.0
 11
976.4317069301952188
 21
140.6855680037469085
 31
0.0
  0
LINE
  5
E416
  8
0
 10
976.5822739071724072
 20
140.6644947796478959
 30
0.0
 11
976.5833255527793426
 21
140.685372689482989
 31
0.0
  0
ARC
  5
E417
  8
0
 10
976.4382285657030707
 20
141.3567525534438118
 30
0.0
 40
0.6738164055388473
 50
265.9390123539039905
 51
269.4562633585262006
  0
ARC
  5
E418
  8
0
 10
976.5023640753172458
 20
136.6859450550244901
 30
0.0
 40
4.0002470128859544
 50
88.2636376416397326
 51
91.6023008112565549
  0
ARC
  5
E419
  8
0
 10
976.5784813774298527
 20
141.3408573821442076
 30
0.0
 40
0.6580488977496199
 50
270.410609973703572
 51
273.9292540112390952
  0
LINE
  5
E41A
  8
0
 10
976.4565423245555849
 20
140.5897720245006042
 30
0.0
 11
976.455739413486981
 21
140.6075266515572082
 31
0.0
  0
LINE
  5
E41B
  8
0
 10
976.6047290766556443
 20
140.5897713929120982
 30
0.0
 11
976.6052713668808565
 21
140.6076189948587967
 31
0.0
  0
ARC
  5
E41C
  8
0
 10
976.53190694995169
 20
142.9661065651997092
 30
0.0
 40
2.386795455705645
 50
268.4207451457417051
 51
271.4929601616391892
  0
ARC
  5
E41D
  8
0
 10
976.4665882299145778
 20
140.5902651586353898
 30
0.0
 40
0.0100580015788874
 50
182.8102835962081087
 51
267.3748959622305961
  0
ARC
  5
E41E
  8
0
 10
976.5945744996298572
 20
140.5902770901377039
 30
0.0
 40
0.0101671610716892
 50
267.2844788661489019
 51
357.1490294657837126
  0
LINE
  5
E41F
  8
0
 10
976.455739413486981
 20
140.6075266515572082
 30
0.0
 11
976.454704389903668
 21
140.6286922189576956
 31
0.0
  0
LINE
  5
E420
  8
0
 10
976.6052713668808565
 20
140.6076189948587967
 30
0.0
 11
976.6063230124875645
 21
140.6284969046938045
 31
0.0
  0
ARC
  5
E421
  8
0
 10
976.4612260254114062
 20
141.2998767686547126
 30
0.0
 40
0.6738164055388473
 50
265.9390123539039905
 51
269.4562633585262006
  0
ARC
  5
E422
  8
0
 10
976.5253615350254677
 20
136.6290692702353056
 30
0.0
 40
4.0002470128859544
 50
88.2636376416397326
 51
91.6023008112565549
  0
ARC
  5
E423
  8
0
 10
976.6014788371381883
 20
141.2839815973549946
 30
0.0
 40
0.6580488977496199
 50
270.410609973703572
 51
273.9292540112390952
  0
LINE
  5
E424
  8
0
 10
976.4993635348654379
 20
140.5454742919197031
 30
0.0
 11
976.4985606237969478
 21
140.5632289189763071
 31
0.0
  0
LINE
  5
E425
  8
0
 10
976.6475502869652701
 20
140.5454736603311119
 30
0.0
 11
976.6480925771905959
 21
140.5633212622778956
 31
0.0
  0
ARC
  5
E426
  8
0
 10
976.5747281602616567
 20
142.9218088326188081
 30
0.0
 40
2.386795455705645
 50
268.4207451457417051
 51
271.4929601616391892
  0
ARC
  5
E427
  8
0
 10
976.5094094402243172
 20
140.5459674260544887
 30
0.0
 40
0.0100580015788874
 50
182.8102835962081087
 51
267.3748959622305961
  0
ARC
  5
E428
  8
0
 10
976.6373957099395966
 20
140.5459793575568028
 30
0.0
 40
0.0101671610716892
 50
267.2844788661489019
 51
357.1490294657837126
  0
LINE
  5
E429
  8
0
 10
976.4985606237969478
 20
140.5632289189763071
 30
0.0
 11
976.4977622400623432
 21
140.5795553534794067
 31
0.0
  0
LINE
  5
E42A
  8
0
 10
976.6480925771905959
 20
140.5633212622778956
 30
0.0
 11
976.6491442227973039
 21
140.5841991721129034
 31
0.0
  0
ARC
  5
E42B
  8
0
 10
976.5681827453354344
 20
136.5847715376544045
 30
0.0
 40
4.0002470128859544
 50
88.2636376416397326
 51
89.4987003693136671
  0
ARC
  5
E42C
  8
0
 10
976.6443000474479277
 20
141.2396838647740083
 30
0.0
 40
0.6580488977496199
 50
270.410609973703572
 51
273.9292540112390952
  0
LINE
  5
E42D
  8
0
 10
976.5543711259995234
 20
140.5139513514000953
 30
0.0
 11
976.5535682149311469
 21
140.531705978456813
 31
0.0
  0
LINE
  5
E42E
  8
0
 10
976.7025578780993555
 20
140.5139507198115894
 30
0.0
 11
976.7031001683245677
 21
140.5317983217582878
 31
0.0
  0
ARC
  5
E42F
  8
0
 10
976.6286417822503836
 20
139.7341148640830113
 30
0.0
 40
0.7707281788067827
 50
88.2281739782540484
 51
91.7987928383246583
  0
ARC
  5
E430
  8
0
 10
976.6282845180179493
 20
141.2522571529254947
 30
0.0
 40
0.7481736881312614
 50
268.1743357074188907
 51
271.8526311091280832
  0
ARC
  5
E431
  8
0
 10
976.6297357513956285
 20
142.890285892099314
 30
0.0
 40
2.386795455705645
 50
268.4207451457417051
 51
271.4929601616391892
  0
ARC
  5
E432
  8
0
 10
976.5644170313585164
 20
140.5144444855349093
 30
0.0
 40
0.0100580015788874
 50
182.8102835962081087
 51
267.3748959622305961
  0
ARC
  5
E433
  8
0
 10
976.6924033010735684
 20
140.5144564170373087
 30
0.0
 40
0.0101671610716892
 50
267.2844788661489019
 51
357.1490294657837126
  0
LINE
  5
E434
  8
0
 10
976.5535682149311469
 20
140.531705978456813
 30
0.0
 11
976.5534018196194666
 21
140.5351086556858036
 31
0.0
  0
LINE
  5
E435
  8
0
 10
976.7031001683245677
 20
140.5317983217582878
 30
0.0
 11
976.7041518139315031
 21
140.5526762315934093
 31
0.0
  0
ARC
  5
E436
  8
0
 10
976.6231903364696336
 20
136.5532485971349104
 30
0.0
 40
4.0002470128859544
 50
88.2636376416397326
 51
89.647630516304659
  0
ARC
  5
E437
  8
0
 10
976.6993076385821269
 20
141.2081609242545142
 30
0.0
 40
0.6580488977496199
 50
270.410609973703572
 51
273.9292540112390952
  0
LINE
  5
E438
  8
0
 10
976.3924275539754944
 20
140.4954905220963894
 30
0.0
 11
976.3916246429070043
 21
140.5132451491531071
 31
0.0
  0
LINE
  5
E439
  8
0
 10
976.5406143060754403
 20
140.4954898905079119
 30
0.0
 11
976.5411565963007661
 21
140.5133374924546104
 31
0.0
  0
ARC
  5
E43A
  8
0
 10
976.4666982102263546
 20
139.7156540347793054
 30
0.0
 40
0.7707281788067827
 50
88.2281739782540484
 51
91.7987928383246583
  0
ARC
  5
E43B
  8
0
 10
976.466340945994034
 20
141.2337963236217888
 30
0.0
 40
0.7481736881312614
 50
268.1743357074188907
 51
271.8526311091280832
  0
ARC
  5
E43C
  8
0
 10
976.4677921793714859
 20
142.8718250627956081
 30
0.0
 40
2.386795455705645
 50
268.4207451457417051
 51
271.4929601616391892
  0
ARC
  5
E43D
  8
0
 10
976.4024734593347148
 20
140.4959836562312034
 30
0.0
 40
0.0100580015788874
 50
182.8102835962081087
 51
267.3748959622305961
  0
ARC
  5
E43E
  8
0
 10
976.5304597290497668
 20
140.4959955877336029
 30
0.0
 40
0.0101671610716892
 50
267.2844788661489019
 51
357.1490294657837126
  0
LINE
  5
E43F
  8
0
 10
976.3916246429070043
 20
140.5132451491531071
 30
0.0
 11
976.3905896193235776
 21
140.5344107165535092
 31
0.0
  0
LINE
  5
E440
  8
0
 10
976.5411565963007661
 20
140.5133374924546104
 30
0.0
 11
976.5422082419074741
 21
140.5342154022897034
 31
0.0
  0
ARC
  5
E441
  8
0
 10
976.3971112548315432
 20
141.2055952662504978
 30
0.0
 40
0.6738164055388473
 50
265.9390123539039905
 51
269.4562633585262006
  0
ARC
  5
E442
  8
0
 10
976.4612467644453773
 20
136.5347877678312045
 30
0.0
 40
4.0002470128859544
 50
88.6791443538701571
 51
91.6023008112565549
  0
ARC
  5
E443
  8
0
 10
976.5373640665580979
 20
141.1897000949508083
 30
0.0
 40
0.6580488977496199
 50
270.410609973703572
 51
271.4104087762598851
  0
LINE
  5
E444
  8
0
 10
976.1981211347873568
 20
140.4968622496652984
 30
0.0
 11
976.1973182237189803
 21
140.5146168767219876
 31
0.0
  0
LINE
  5
E445
  8
0
 10
976.3463078868873026
 20
140.4968616180767924
 30
0.0
 11
976.3473647001178506
 21
140.5316429602264918
 31
0.0
  0
ARC
  5
E446
  8
0
 10
976.2723917910383307
 20
139.7170257623482996
 30
0.0
 40
0.7707281788067827
 50
88.2281739782540484
 51
91.7987928383246583
  0
ARC
  5
E447
  8
0
 10
976.2720345268058963
 20
141.2351680511906977
 30
0.0
 40
0.7481736881312614
 50
268.1743357074188907
 51
271.8526311091280832
  0
ARC
  5
E448
  8
0
 10
976.2734857601835756
 20
142.8731967903644886
 30
0.0
 40
2.386795455705645
 50
268.4207451457417051
 51
271.4929601616391892
  0
ARC
  5
E449
  8
0
 10
976.2081670401463498
 20
140.4973553838001123
 30
0.0
 40
0.0100580015788874
 50
182.8102835962081087
 51
267.3748959622305961
  0
ARC
  5
E44A
  8
0
 10
976.3361533098617429
 20
140.4973673153025118
 30
0.0
 40
0.0101671610716892
 50
267.2844788661489019
 51
357.1490294657837126
  0
LINE
  5
E44B
  8
0
 10
976.1973182237189803
 20
140.5146168767219876
 30
0.0
 11
976.1963688196058229
 21
140.5340315809544052
 31
0.0
  0
LINE
  5
E44C
  8
0
 10
976.3907582176765345
 20
140.5309629885387039
 30
0.0
 11
976.3473647001178506
 21
140.5316429602264918
 31
0.0
  0
LINE
  5
E44D
  8
0
 10
976.3473647001178506
 20
140.5316429602264918
 30
0.0
 11
976.1452868710721305
 21
140.5348396520134884
 31
0.0
  0
ARC
  5
E44E
  8
0
 10
975.582717392525069
 20
140.1506178141509054
 30
0.0
 40
0.6120516774775284
 50
75.8968435689547789
 51
99.7629475293184669
  0
LINE
  5
E44F
  8
0
 10
975.5259521997501224
 20
140.7600314411664897
 30
0.0
 11
975.5293524502676519
 21
140.7123436375015899
 31
0.0
  0
ARC
  5
E450
  8
0
 10
975.5403709739171063
 20
140.7131292836807859
 30
0.0
 40
0.0110464973331112
 50
184.0784191397816016
 51
247.7610182226698043
  0
ARC
  5
E451
  8
0
 10
975.5572964211213502
 20
140.7545232996280049
 30
0.0
 40
0.0557671337250221
 50
247.7610182226698043
 51
260.8753798755806201
  0
ARC
  5
E452
  8
0
 10
975.6201719538260022
 20
141.1459911498594977
 30
0.0
 40
0.45225220327721
 50
260.8753798755806201
 51
276.4220368714247797
  0
ARC
  5
E453
  8
0
 10
975.6688245291144312
 20
140.7137445247215908
 30
0.0
 40
0.0172760912604069
 50
276.4220368714247797
 51
339.0044055903268259
  0
LINE
  5
E454
  8
0
 10
975.6849536257676618
 20
140.7075545675016031
 30
0.0
 11
975.6897045227337912
 21
140.7532462318949911
 31
0.0
  0
ARC
  5
E455
  8
0
 10
975.6834920478684126
 20
140.8868122711695037
 30
0.0
 40
0.1505693878867596
 50
271.6941095351829176
 51
288.7355658944985066
  0
ARC
  5
E456
  8
0
 10
975.574120006801536
 20
140.9642249159199991
 30
0.0
 40
0.2309487748141706
 50
245.6589354261224116
 51
258.3594554433913117
  0
ARC
  5
E457
  8
0
 10
975.6005483131201572
 20
140.5234344615141993
 30
0.0
 40
0.1800717023952394
 50
79.7893887084285183
 51
96.3465987359502094
  0
ARC
  5
E458
  8
0
 10
975.610542048483353
 20
140.8196973812430883
 30
0.0
 40
0.1210456223327018
 50
255.6994177661786125
 51
280.4365696782026021
  0
ARC
  5
E459
  8
0
 10
975.6452595510146466
 20
140.0790526759739976
 30
0.0
 40
0.6120516774775284
 50
75.8968435689547789
 51
99.7629475293184669
  0
LINE
  5
E45A
  8
0
 10
975.5884943582395863
 20
140.6884663029894966
 30
0.0
 11
975.5918946087572294
 21
140.6407784993245969
 31
0.0
  0
ARC
  5
E45B
  8
0
 10
975.6029131324065702
 20
140.6415641455037928
 30
0.0
 40
0.0110464973331112
 50
184.0784191397816016
 51
247.7610182226698043
  0
ARC
  5
E45C
  8
0
 10
975.6198385796109278
 20
140.6829581614510118
 30
0.0
 40
0.0557671337250221
 50
247.7610182226698043
 51
260.8753798755806201
  0
ARC
  5
E45D
  8
0
 10
975.6827141123154661
 20
141.0744260116825046
 30
0.0
 40
0.45225220327721
 50
260.8753798755806201
 51
276.4220368714247797
  0
ARC
  5
E45E
  8
0
 10
975.7313666876037814
 20
140.6421793865447114
 30
0.0
 40
0.0172760912604069
 50
276.4220368714247797
 51
339.0044055903268259
  0
LINE
  5
E45F
  8
0
 10
975.7474957842573531
 20
140.63598942932461
 30
0.0
 11
975.7522466812232551
 21
140.681681093717998
 31
0.0
  0
ARC
  5
E460
  8
0
 10
975.7460342063578764
 20
140.8152471329925106
 30
0.0
 40
0.1505693878867596
 50
271.6941095351829176
 51
288.7355658944985066
  0
ARC
  5
E461
  8
0
 10
975.6366621652909998
 20
140.8926597777430061
 30
0.0
 40
0.2309487748141706
 50
245.6589354261224116
 51
258.3594554433913117
  0
ARC
  5
E462
  8
0
 10
975.6630904716097348
 20
140.4518693233372062
 30
0.0
 40
0.1800717023952394
 50
79.7893887084285183
 51
96.3465987359502094
  0
ARC
  5
E463
  8
0
 10
975.6730842069728169
 20
140.748132243066209
 30
0.0
 40
0.1210456223327018
 50
255.6994177661786125
 51
280.4365696782026021
  0
LINE
  5
E464
  8
0
 10
975.6758654357394107
 20
140.6222256678101985
 30
0.0
 11
975.6777180790677448
 21
140.5881527802015967
 31
0.0
  0
ARC
  5
E465
  8
0
 10
975.6883946373446861
 20
140.5887332961441132
 30
0.0
 40
0.0106923288109091
 50
183.1122757623654138
 51
263.0346299716962903
  0
ARC
  5
E466
  8
0
 10
975.7790403327136346
 20
141.3306903123423979
 30
0.0
 40
0.7581659778279505
 50
263.0346299716962903
 51
271.9341345233070797
  0
ARC
  5
E467
  8
0
 10
975.8013739413979692
 20
140.6693426096568942
 30
0.0
 40
0.0964412813534681
 50
271.9341345233070797
 51
280.9887478139398809
  0
ARC
  5
E468
  8
0
 10
975.8171248826297415
 20
140.5882259940800907
 30
0.0
 40
0.0138095836078445
 50
280.9887478139398809
 51
342.7942936214204224
  0
LINE
  5
E469
  8
0
 10
975.8303164722676684
 20
140.5841410752015861
 30
0.0
 11
975.8338806810677397
 21
140.6275741274016013
 31
0.0
  0
ARC
  5
E46A
  8
0
 10
975.7107362319893582
 20
138.9915840003399126
 30
0.0
 40
1.6406182527273909
 50
85.695342732996707
 51
88.7960691388965557
  0
ARC
  5
E46B
  8
0
 10
975.8120572640318642
 20
140.3376471751371071
 30
0.0
 40
0.2907471395912786
 50
76.9842384109381754
 51
85.695342732996707
  0
ARC
  5
E46C
  8
0
 10
975.8336447555150244
 20
140.7651140810091022
 30
0.0
 40
0.1507227632525231
 50
269.678517869625523
 51
286.9313398498495076
  0
ARC
  5
E46D
  8
0
 10
975.7470188905959958
 20
140.3315136779987995
 30
0.0
 40
0.2470697972325747
 50
82.3170428146118667
 51
94.4967561582682833
  0
ARC
  5
E46E
  8
0
 10
975.7598603995730855
 20
140.7932388749441941
 30
0.0
 40
0.217811080352429
 50
261.4952365384099267
 51
275.3185624344683902
  0
LINE
  5
E46F
  8
0
 10
975.8000929074006535
 20
140.5728166823519985
 30
0.0
 11
975.8014063274679302
 21
140.5449795031015867
 31
0.0
  0
ARC
  5
E470
  8
0
 10
975.8115585338841811
 20
140.5454585067934943
 30
0.0
 40
0.010163500364464
 50
182.7013390348953976
 51
253.6322225508992858
  0
ARC
  5
E471
  8
0
 10
975.8193013412070513
 20
140.5718210381861013
 30
0.0
 40
0.0376395649782769
 50
253.6322225508992858
 51
265.309644691098697
  0
ARC
  5
E472
  8
0
 10
975.9011123096555593
 20
141.5689624994770952
 30
0.0
 40
1.038131508166277
 50
265.309644691098697
 51
272.1145136399425724
  0
ARC
  5
E473
  8
0
 10
975.9388813343657603
 20
140.5460212771131125
 30
0.0
 40
0.0144932695101533
 50
272.1145136399425724
 51
341.5089411521623788
  0
ARC
  5
E474
  8
0
 10
975.8303312838180545
 20
138.9956214381001871
 30
0.0
 40
1.591476083104669
 50
83.9241673219417379
 51
89.9917988418311268
  0
LINE
  5
E475
  8
0
 10
975.9555472078196772
 20
140.5821639353156911
 30
0.0
 11
975.9526263621678481
 21
140.5414246401016101
 31
0.0
  0
ARC
  5
E476
  8
0
 10
975.9436337642241597
 20
140.8057769666511092
 30
0.0
 40
0.234204398703206
 50
272.734451274049718
 51
283.6189869691112904
  0
ARC
  5
E477
  8
0
 10
975.8701915952882473
 20
140.2525333024061069
 30
0.0
 40
0.2825046735557566
 50
83.6202593955640765
 51
93.6078941858429801
  0
ARC
  5
E478
  8
0
 10
975.8839009655686141
 20
140.8191850822441893
 30
0.0
 40
0.2864428440944995
 50
263.6890878768767266
 51
273.5390657045330158
  0
LINE
  5
E479
  8
0
 10
975.8017567136774915
 20
140.5427713037317119
 30
0.0
 11
975.7575302398734038
 21
140.5439454271597981
 31
0.0
  0
LINE
  5
E47A
  8
0
 10
975.7578827035835047
 20
140.5496739767013139
 30
0.0
 11
975.7554922279679204
 21
140.5108218691015907
 31
0.0
  0
ARC
  5
E47B
  8
0
 10
975.7456546868104397
 20
140.5114271490647866
 30
0.0
 40
0.0098561442691862
 50
268.3845380460898014
 51
356.4791685348877763
  0
ARC
  5
E47C
  8
0
 10
975.7482762573167747
 20
142.773442579197706
 30
0.0
 40
2.2718695071854609
 50
266.6491190001199243
 51
269.9268773638478933
  0
ARC
  5
E47D
  8
0
 10
975.6157948870701375
 20
140.5152972921142975
 30
0.0
 40
0.009844917411775
 50
182.0189679799252076
 51
268.1914583178772205
  0
LINE
  5
E47E
  8
0
 10
975.6059560811992242
 20
140.5149504522595123
 30
0.0
 11
975.6045717089300524
 21
140.5542209392669122
 31
0.0
  0
ARC
  5
E47F
  8
0
 10
975.6043380068981605
 20
140.8874932988682076
 30
0.0
 40
0.3360275644241457
 50
263.0445656275664987
 51
270.0564084321050018
  0
ARC
  5
E480
  8
0
 10
975.5875383805268939
 20
140.052234106388994
 30
0.0
 40
0.5022731598258935
 50
88.0565750225661645
 51
92.7265053982766005
  0
ARC
  5
E481
  8
0
 10
975.5274708858945587
 20
135.6618096975388994
 30
0.0
 40
4.8930161516275064
 50
86.800164421234058
 51
89.0971336163564445
  0
ARC
  5
E482
  8
0
 10
975.7579503303782076
 20
142.2826869484096903
 30
0.0
 40
1.736013473440936
 50
269.9916750394465907
 51
271.407509759258005
  0
ARC
  5
E483
  8
0
 10
975.6682876670615769
 20
140.0956677843311979
 30
0.0
 40
0.4096155384287857
 50
84.9093477027573016
 51
91.883718942338561
  0
ARC
  5
E484
  8
0
 10
975.6958502700081226
 20
141.0802897525609865
 30
0.0
 40
0.5766890271955029
 50
265.9203839549415989
 51
270.8726826901548179
  0
ARC
  5
E485
  8
0
 10
974.7569895496773142
 20
140.150094391474795
 30
0.0
 40
0.6120516774775284
 50
75.8968435689547789
 51
99.7629475293184669
  0
LINE
  5
E486
  8
0
 10
974.7002243569022539
 20
140.7595080184904077
 30
0.0
 11
974.7036246074200108
 21
140.7118202148255932
 31
0.0
  0
ARC
  5
E487
  8
0
 10
974.7146431310693515
 20
140.7126058610047039
 30
0.0
 40
0.0110464973331112
 50
184.0784191397816016
 51
247.7610182226698043
  0
ARC
  5
E488
  8
0
 10
974.7315685782734818
 20
140.7539998769518945
 30
0.0
 40
0.0557671337250221
 50
247.7610182226698043
 51
260.8753798755806201
  0
ARC
  5
E489
  8
0
 10
974.7944441109782474
 20
141.1454677271833873
 30
0.0
 40
0.45225220327721
 50
260.8753798755806201
 51
276.4220368714247797
  0
ARC
  5
E48A
  8
0
 10
974.8430966862666764
 20
140.7132211020455941
 30
0.0
 40
0.0172760912604069
 50
276.4220368714247797
 51
339.0044055903268259
  0
LINE
  5
E48B
  8
0
 10
974.8592257829200207
 20
140.7070311448256064
 30
0.0
 11
974.8639766798861501
 21
140.7527228092189944
 31
0.0
  0
ARC
  5
E48C
  8
0
 10
974.8577642050205441
 20
140.8862888484933933
 30
0.0
 40
0.1505693878867596
 50
271.6941095351829176
 51
288.7355658944985066
  0
ARC
  5
E48D
  8
0
 10
974.7483921639536675
 20
140.9637014932438888
 30
0.0
 40
0.2309487748141706
 50
245.6589354261224116
 51
258.3594554433913117
  0
ARC
  5
E48E
  8
0
 10
974.7748204702722887
 20
140.5229110388382026
 30
0.0
 40
0.1800717023952394
 50
79.7893887084285183
 51
96.3465987359502094
  0
ARC
  5
E48F
  8
0
 10
974.7848142056354845
 20
140.8191739585670916
 30
0.0
 40
0.1210456223327018
 50
255.6994177661786125
 51
280.4365696782026021
  0
ARC
  5
E490
  8
0
 10
974.8828055029689494
 20
140.0789699829715005
 30
0.0
 40
0.6120516774775284
 50
75.8968435689547789
 51
99.7629475293184669
  0
LINE
  5
E491
  8
0
 10
974.8260403101941165
 20
140.6883836099871132
 30
0.0
 11
974.829440560711646
 21
140.6406958063222135
 31
0.0
  0
ARC
  5
E492
  8
0
 10
974.8404590843611004
 20
140.6414814525014094
 30
0.0
 40
0.0110464973331112
 50
184.0784191397816016
 51
247.7610182226698043
  0
ARC
  5
E493
  8
0
 10
974.8573845315653443
 20
140.6828754684486
 30
0.0
 40
0.0557671337250221
 50
247.7610182226698043
 51
260.8753798755806201
  0
ARC
  5
E494
  8
0
 10
974.9202600642702237
 20
141.0743433186800928
 30
0.0
 40
0.45225220327721
 50
260.8753798755806201
 51
276.4220368714247797
  0
ARC
  5
E495
  8
0
 10
974.9689126395583116
 20
140.6420966935422996
 30
0.0
 40
0.0172760912604069
 50
276.4220368714247797
 51
339.0044055903268259
  0
LINE
  5
E496
  8
0
 10
974.9850417362117696
 20
140.6359067363221982
 30
0.0
 11
974.989792633177899
 21
140.6815984007155862
 31
0.0
  0
ARC
  5
E497
  8
0
 10
974.983580158312634
 20
140.8151644399900988
 30
0.0
 40
0.1505693878867596
 50
271.6941095351829176
 51
288.7355658944985066
  0
ARC
  5
E498
  8
0
 10
974.87420811724553
 20
140.8925770847405943
 30
0.0
 40
0.2309487748141706
 50
245.6589354261224116
 51
258.3594554433913117
  0
ARC
  5
E499
  8
0
 10
974.9006364235640376
 20
140.4517866303347944
 30
0.0
 40
0.1800717023952394
 50
79.7893887084285183
 51
96.3465987359502094
  0
ARC
  5
E49A
  8
0
 10
974.9106301589273471
 20
140.7480495500637971
 30
0.0
 40
0.1210456223327018
 50
255.6994177661786125
 51
280.4365696782026021
  0
ARC
  5
E49B
  8
0
 10
975.0444129614269286
 20
140.0261585546894025
 30
0.0
 40
0.6120516774775284
 50
75.8968435689547789
 51
95.5898122139641657
  0
LINE
  5
E49C
  8
0
 10
974.9876477686517546
 20
140.6355721817049016
 30
0.0
 11
974.9910480191696251
 21
140.5878843780400018
 31
0.0
  0
ARC
  5
E49D
  8
0
 10
975.0020665428189659
 20
140.5886700242191978
 30
0.0
 40
0.0110464973331112
 50
184.0784191397816016
 51
247.7610182226698043
  0
ARC
  5
E49E
  8
0
 10
975.0189919900233235
 20
140.6300640401663884
 30
0.0
 40
0.0557671337250221
 50
247.7610182226698043
 51
260.8753798755806201
  0
ARC
  5
E49F
  8
0
 10
975.0818675227278618
 20
141.0215318903979096
 30
0.0
 40
0.45225220327721
 50
260.8753798755806201
 51
276.4220368714247797
  0
ARC
  5
E4A0
  8
0
 10
975.1305200980161771
 20
140.589285265260088
 30
0.0
 40
0.0172760912604069
 50
276.4220368714247797
 51
339.0044055903268259
  0
LINE
  5
E4A1
  8
0
 10
975.1466491946697488
 20
140.5830953080399865
 30
0.0
 11
975.1514000916356508
 21
140.628786972433403
 31
0.0
  0
ARC
  5
E4A2
  8
0
 10
975.1451876167702721
 20
140.7623530117078872
 30
0.0
 40
0.1505693878867596
 50
271.6941095351829176
 51
288.7355658944985066
  0
ARC
  5
E4A3
  8
0
 10
975.0358155757033956
 20
140.8397656564584111
 30
0.0
 40
0.2309487748141706
 50
249.5117216268417053
 51
258.3594554433913117
  0
ARC
  5
E4A4
  8
0
 10
975.0622438820219031
 20
140.3989752020526112
 30
0.0
 40
0.1800717023952394
 50
79.7893887084285183
 51
96.3465987359502094
  0
ARC
  5
E4A5
  8
0
 10
975.0722376173852126
 20
140.6952381217816139
 30
0.0
 40
0.1210456223327018
 50
255.6994177661786125
 51
280.4365696782026021
  0
ARC
  5
E4A6
  8
0
 10
975.2915134429107411
 20
139.9808308885531005
 30
0.0
 40
0.6120516774775284
 50
75.8968435689547789
 51
99.7629475293184669
  0
LINE
  5
E4A7
  8
0
 10
975.2347482501355671
 20
140.5902445155687133
 30
0.0
 11
975.2381485006534376
 21
140.5425567119038135
 31
0.0
  0
ARC
  5
E4A8
  8
0
 10
975.2491670243027784
 20
140.5433423580830095
 30
0.0
 40
0.0110464973331112
 50
184.0784191397816016
 51
247.7610182226698043
  0
ARC
  5
E4A9
  8
0
 10
975.2660924715069086
 20
140.5847363740300864
 30
0.0
 40
0.0557671337250221
 50
247.7610182226698043
 51
260.8753798755806201
  0
ARC
  5
E4AA
  8
0
 10
975.3289680042116743
 20
140.9762042242616928
 30
0.0
 40
0.45225220327721
 50
260.8753798755806201
 51
276.4220368714247797
  0
ARC
  5
E4AB
  8
0
 10
975.3776205794999896
 20
140.5439575991237859
 30
0.0
 40
0.0172760912604069
 50
276.4220368714247797
 51
339.0044055903268259
  0
LINE
  5
E4AC
  8
0
 10
975.3937496761533339
 20
140.5377676419037982
 30
0.0
 11
975.3985005731194633
 21
140.5834593062971862
 31
0.0
  0
ARC
  5
E4AD
  8
0
 10
975.3922880982540846
 20
140.7170253455716136
 30
0.0
 40
0.1505693878867596
 50
271.6941095351829176
 51
288.7355658944985066
  0
ARC
  5
E4AE
  8
0
 10
975.2829160571869807
 20
140.7944379903221943
 30
0.0
 40
0.2309487748141706
 50
245.6589354261224116
 51
258.3594554433913117
  0
ARC
  5
E4AF
  8
0
 10
975.3093443635057156
 20
140.3536475359163944
 30
0.0
 40
0.1800717023952394
 50
79.7893887084285183
 51
96.3465987359502094
  0
ARC
  5
E4B0
  8
0
 10
975.3193380988689114
 20
140.6499104556453119
 30
0.0
 40
0.1210456223327018
 50
255.6994177661786125
 51
280.4365696782026021
  0
LINE
  5
E4B1
  8
0
 10
975.3956062750007732
 20
140.5556234472516053
 30
0.0
 11
975.6047272514820179
 21
140.5486184280632074
 31
0.0
  0
LINE
  5
E4B2
  8
0
 10
975.4659844904000465
 20
140.5532659565893994
 30
0.0
 11
975.4673233917677635
 21
140.5151638570015962
 31
0.0
  0
ARC
  5
E4B3
  8
0
 10
975.4771626613307944
 20
140.5155096072782896
 30
0.0
 40
0.0098453424921382
 50
182.012535958057498
 51
268.0057749042347837
  0
LINE
  5
E4B4
  8
0
 10
975.4768200555529347
 20
140.5056702277211969
 30
0.0
 11
975.6070242978746592
 21
140.5011365347735079
 31
0.0
  0
ARC
  5
E4B5
  8
0
 10
975.6073379256088174
 20
140.5101436867684868
 30
0.0
 40
0.0090126105772322
 50
268.0057749042413775
 51
328.8420033955135864
  0
ARC
  5
E4B6
  8
0
 10
973.423934712039113
 20
140.1486314094194086
 30
0.0
 40
0.6120516774775284
 50
75.8968435689547789
 51
99.7629475293184669
  0
LINE
  5
E4B7
  8
0
 10
973.3671695192641664
 20
140.7580450364349929
 30
0.0
 11
973.3705697697818096
 21
140.7103572327700931
 31
0.0
  0
ARC
  5
E4B8
  8
0
 10
973.3815882934311503
 20
140.7111428789492891
 30
0.0
 40
0.0110464973331112
 50
184.0784191397816016
 51
247.7610182226698043
  0
ARC
  5
E4B9
  8
0
 10
973.3985137406352806
 20
140.7525368948965081
 30
0.0
 40
0.0557671337250221
 50
247.7610182226698043
 51
260.8753798755806201
  0
ARC
  5
E4BA
  8
0
 10
973.4613892733400462
 20
141.1440047451280009
 30
0.0
 40
0.45225220327721
 50
260.8753798755806201
 51
276.4220368714247797
  0
ARC
  5
E4BB
  8
0
 10
973.5100418486283615
 20
140.711758119990094
 30
0.0
 40
0.0172760912604069
 50
276.4220368714247797
 51
339.0044055903268259
  0
LINE
  5
E4BC
  8
0
 10
973.5261709452817058
 20
140.7055681627701063
 30
0.0
 11
973.5309218422479489
 21
140.7512598271634943
 31
0.0
  0
ARC
  5
E4BD
  8
0
 10
973.5247093673824565
 20
140.8848258664378932
 30
0.0
 40
0.1505693878867596
 50
271.6941095351829176
 51
288.7355658944985066
  0
ARC
  5
E4BE
  8
0
 10
973.41533732631558
 20
140.9622385111885023
 30
0.0
 40
0.2309487748141706
 50
245.6589354261224116
 51
258.3594554433913117
  0
ARC
  5
E4BF
  8
0
 10
973.4417656326340875
 20
140.5214480567827025
 30
0.0
 40
0.1800717023952394
 50
79.7893887084285183
 51
96.3465987359502094
  0
ARC
  5
E4C0
  8
0
 10
973.451759367997397
 20
140.8177109765117052
 30
0.0
 40
0.1210456223327018
 50
255.6994177661786125
 51
280.4365696782026021
  0
ARC
  5
E4C1
  8
0
 10
974.0308248343650348
 20
140.1494403017593129
 30
0.0
 40
0.6120516774775284
 50
75.8968435689547789
 51
99.7629475293184669
  0
LINE
  5
E4C2
  8
0
 10
973.9740596415898608
 20
140.7588539287748972
 30
0.0
 11
973.9774598921076176
 21
140.7111661251099974
 31
0.0
  0
ARC
  5
E4C3
  8
0
 10
973.9884784157568447
 20
140.7119517712891934
 30
0.0
 40
0.0110464973331112
 50
184.0784191397816016
 51
247.7610182226698043
  0
ARC
  5
E4C4
  8
0
 10
974.0054038629612023
 20
140.7533457872364124
 30
0.0
 40
0.0557671337250221
 50
247.7610182226698043
 51
260.8753798755806201
  0
ARC
  5
E4C5
  8
0
 10
974.068279395665968
 20
141.1448136374679052
 30
0.0
 40
0.45225220327721
 50
260.8753798755806201
 51
276.4220368714247797
  0
ARC
  5
E4C6
  8
0
 10
974.1169319709542833
 20
140.712567012330112
 30
0.0
 40
0.0172760912604069
 50
276.4220368714247797
 51
339.0044055903268259
  0
LINE
  5
E4C7
  8
0
 10
974.1330610676076276
 20
140.7063770551100106
 30
0.0
 11
974.1378119645736433
 21
140.7520687195033986
 31
0.0
  0
ARC
  5
E4C8
  8
0
 10
974.1315994897082646
 20
140.8856347587779112
 30
0.0
 40
0.1505693878867596
 50
271.6941095351829176
 51
288.7355658944985066
  0
ARC
  5
E4C9
  8
0
 10
974.0222274486412743
 20
140.9630474035284067
 30
0.0
 40
0.2309487748141706
 50
245.6589354261224116
 51
258.3594554433913117
  0
ARC
  5
E4CA
  8
0
 10
974.0486557549600093
 20
140.5222569491226068
 30
0.0
 40
0.1800717023952394
 50
79.7893887084285183
 51
96.3465987359502094
  0
ARC
  5
E4CB
  8
0
 10
974.0586494903230914
 20
140.8185198688516095
 30
0.0
 40
0.1210456223327018
 50
255.6994177661786125
 51
280.4365696782026021
  0
ARC
  5
E4CC
  8
0
 10
974.2290808671812101
 20
140.0798622542035901
 30
0.0
 40
0.6120516774775284
 50
75.8968435689547789
 51
99.7629475293184669
  0
LINE
  5
E4CD
  8
0
 10
974.1723156744062635
 20
140.6892758812190891
 30
0.0
 11
974.175715924924134
 21
140.6415880775541893
 31
0.0
  0
ARC
  5
E4CE
  8
0
 10
974.1867344485732474
 20
140.6423737237334137
 30
0.0
 40
0.0110464973331112
 50
184.0784191397816016
 51
247.7610182226698043
  0
ARC
  5
E4CF
  8
0
 10
974.2036598957773776
 20
140.6837677396806043
 30
0.0
 40
0.0557671337250221
 50
247.7610182226698043
 51
260.8753798755806201
  0
ARC
  5
E4D0
  8
0
 10
974.2665354284823707
 20
141.0752355899120971
 30
0.0
 40
0.45225220327721
 50
260.8753798755806201
 51
276.4220368714247797
  0
ARC
  5
E4D1
  8
0
 10
974.315188003770686
 20
140.6429889647743039
 30
0.0
 40
0.0172760912604069
 50
276.4220368714247797
 51
339.0044055903268259
  0
LINE
  5
E4D2
  8
0
 10
974.3313171004240303
 20
140.6367990075542025
 30
0.0
 11
974.3360679973901597
 21
140.6824906719475905
 31
0.0
  0
ARC
  5
E4D3
  8
0
 10
974.3298555225245536
 20
140.8160567112221031
 30
0.0
 40
0.1505693878867596
 50
271.6941095351829176
 51
288.7355658944985066
  0
ARC
  5
E4D4
  8
0
 10
974.220483481457677
 20
140.8934693559725986
 30
0.0
 40
0.2309487748141706
 50
245.6589354261224116
 51
258.3594554433913117
  0
ARC
  5
E4D5
  8
0
 10
974.2469117877761846
 20
140.4526789015667987
 30
0.0
 40
0.1800717023952394
 50
79.7893887084285183
 51
96.3465987359502094
  0
ARC
  5
E4D6
  8
0
 10
974.2569055231394941
 20
140.7489418212958014
 30
0.0
 40
0.1210456223327018
 50
255.6994177661786125
 51
280.4365696782026021
  0
ARC
  5
E4D7
  8
0
 10
974.5153826819165488
 20
140.0224661722153883
 30
0.0
 40
0.6120516774775284
 50
75.8968435689547789
 51
99.7629475293184669
  0
LINE
  5
E4D8
  8
0
 10
974.4586174891416022
 20
140.631879799231001
 30
0.0
 11
974.4620177396592453
 21
140.5841919955661012
 31
0.0
  0
ARC
  5
E4D9
  8
0
 10
974.4730362633085861
 20
140.5849776417452119
 30
0.0
 40
0.0110464973331112
 50
184.0784191397816016
 51
247.7610182226698043
  0
ARC
  5
E4DA
  8
0
 10
974.48996171051283
 20
140.6263716576924026
 30
0.0
 40
0.0557671337250221
 50
247.7610182226698043
 51
260.8753798755806201
  0
ARC
  5
E4DB
  8
0
 10
974.552837243217482
 20
141.017839507924009
 30
0.0
 40
0.45225220327721
 50
260.8753798755806201
 51
276.4220368714247797
  0
ARC
  5
E4DC
  8
0
 10
974.601489818505911
 20
140.5855928827861021
 30
0.0
 40
0.0172760912604069
 50
276.4220368714247797
 51
339.0044055903268259
  0
LINE
  5
E4DD
  8
0
 10
974.6176189151592553
 20
140.579402925566086
 30
0.0
 11
974.622369812125271
 21
140.6250945899595024
 31
0.0
  0
ARC
  5
E4DE
  8
0
 10
974.6161573372598923
 20
140.7586606292339013
 30
0.0
 40
0.1505693878867596
 50
271.6941095351829176
 51
288.7355658944985066
  0
ARC
  5
E4DF
  8
0
 10
974.5067852961931294
 20
140.8360732739845105
 30
0.0
 40
0.2309487748141706
 50
245.6589354261224116
 51
258.3594554433913117
  0
ARC
  5
E4E0
  8
0
 10
974.5332136025115233
 20
140.3952828195787106
 30
0.0
 40
0.1800717023952394
 50
79.7893887084285183
 51
96.3465987359502094
  0
ARC
  5
E4E1
  8
0
 10
974.5432073378749465
 20
140.6915457393075997
 30
0.0
 40
0.1210456223327018
 50
255.6994177661786125
 51
280.4365696782026021
  0
ARC
  5
E4E2
  8
0
 10
973.7382638590419219
 20
140.0788069101600115
 30
0.0
 40
0.6120516774775284
 50
75.8968435689547789
 51
99.7629475293184669
  0
LINE
  5
E4E3
  8
0
 10
973.6814986662667479
 20
140.6882205371755106
 30
0.0
 11
973.6848989167846185
 21
140.6405327335106108
 31
0.0
  0
ARC
  5
E4E4
  8
0
 10
973.6959174404339592
 20
140.6413183796898068
 30
0.0
 40
0.0110464973331112
 50
184.0784191397816016
 51
247.7610182226698043
  0
ARC
  5
E4E5
  8
0
 10
973.7128428876380895
 20
140.6827123956369974
 30
0.0
 40
0.0557671337250221
 50
247.7610182226698043
 51
260.8753798755806201
  0
ARC
  5
E4E6
  8
0
 10
973.7757184203428551
 20
141.0741802458684901
 30
0.0
 40
0.45225220327721
 50
260.8753798755806201
 51
276.4220368714247797
  0
ARC
  5
E4E7
  8
0
 10
973.8243709956312841
 20
140.6419336207306969
 30
0.0
 40
0.0172760912604069
 50
276.4220368714247797
 51
339.0044055903268259
  0
LINE
  5
E4E8
  8
0
 10
973.8405000922845147
 20
140.6357436635105955
 30
0.0
 11
973.8452509892506441
 21
140.681435327904012
 31
0.0
  0
ARC
  5
E4E9
  8
0
 10
973.8390385143852654
 20
140.8150013671784961
 30
0.0
 40
0.1505693878867596
 50
271.6941095351829176
 51
288.7355658944985066
  0
ARC
  5
E4EA
  8
0
 10
973.7296664733181615
 20
140.8924140119289916
 30
0.0
 40
0.2309487748141706
 50
245.6589354261224116
 51
258.3594554433913117
  0
ARC
  5
E4EB
  8
0
 10
973.7560947796368964
 20
140.4516235575233054
 30
0.0
 40
0.1800717023952394
 50
79.7893887084285183
 51
96.3465987359502094
  0
ARC
  5
E4EC
  8
0
 10
973.7660885150000922
 20
140.7478864772521945
 30
0.0
 40
0.1210456223327018
 50
255.6994177661786125
 51
280.4365696782026021
  0
LINE
  5
E4ED
  8
0
 10
972.5435419985572025
 20
140.7564093498201032
 30
0.0
 11
972.5449870888677424
 21
140.717548043701612
 31
0.0
  0
ARC
  5
E4EE
  8
0
 10
972.5548484046113344
 20
140.7179147450108019
 30
0.0
 40
0.0098681314361445
 50
182.1296104509540044
 51
263.4120991273338177
  0
LINE
  5
E4EF
  8
0
 10
972.5537162597676115
 20
140.7081117727016135
 30
0.0
 11
972.6873326153178141
 21
140.6944206604015903
 31
0.0
  0
ARC
  5
E4F0
  8
0
 10
972.6894346163581986
 20
140.7053366670463959
 30
0.0
 40
0.0111165466510137
 50
259.100458077960127
 51
348.5925578709022261
  0
LINE
  5
E4F1
  8
0
 10
972.6377995188677232
 20
140.7583857807015875
 30
0.0
 11
972.639278026467764
 21
140.7173901142016064
 31
0.0
  0
ARC
  5
E4F2
  8
0
 10
972.6493008583677238
 20
140.7177515873621019
 30
0.0
 40
0.0100293480416066
 50
182.0654755348091101
 51
261.3608564607118865
  0
ARC
  5
E4F3
  8
0
 10
972.3208497370997065
 20
136.7555825383450951
 30
0.0
 40
3.965753453742292
 50
83.2917125029567842
 51
85.2710547365183089
  0
ARC
  5
E4F4
  8
0
 10
972.7845904609447416
 20
140.7040811035637091
 30
0.0
 40
0.0099074098139752
 50
267.2019107787613166
 51
351.2160787182966146
  0
LINE
  5
E4F5
  8
0
 10
972.7943816694677253
 20
140.7025681578016076
 30
0.0
 11
972.7998994676463553
 21
140.7421374055352032
 31
0.0
  0
ARC
  5
E4F6
  8
0
 10
972.6653620072069089
 20
141.1078159093476927
 30
0.0
 40
0.3547189712530367
 50
258.38309802171608
 51
265.5681979756387818
  0
ARC
  5
E4F7
  8
0
 10
972.4451377182691658
 20
136.9796354355673884
 30
0.0
 40
3.7836544985143248
 50
87.0812629911709308
 51
87.7462104658514619
  0
ARC
  5
E4F8
  8
0
 10
972.159191133249351
 20
135.1268728591720105
 30
0.0
 40
5.65181007017945
 50
83.4906069607822872
 51
85.1422412253343879
  0
ARC
  5
E4F9
  8
0
 10
972.7760271443936517
 20
140.4343232224354097
 30
0.0
 40
0.3088492604677242
 50
77.493275173183136
 51
85.564084052060835
  0
ARC
  5
E4FA
  8
0
 10
972.8332128034005564
 20
141.0524850630092999
 30
0.0
 40
0.3167898354072056
 50
263.8465610237487908
 51
271.7540994101713068
  0
LINE
  5
E4FB
  8
0
 10
972.7982960452538919
 20
140.7306325296626142
 30
0.0
 11
972.9182099173083316
 21
140.7190122092102911
 31
0.0
  0
LINE
  5
E4FC
  8
0
 10
972.9166021414631587
 20
140.7597499746437961
 30
0.0
 11
972.9182099173090137
 21
140.7190122092102058
 31
0.0
  0
ARC
  5
E4FD
  8
0
 10
972.9314774158671071
 20
140.7195358305598063
 30
0.0
 40
0.0132778272810456
 50
182.2600892784539894
 51
247.9510191893606077
  0
ARC
  5
E4FE
  8
0
 10
973.0813380272041968
 20
141.6176578131565122
 30
0.0
 40
0.9235028127550643
 50
260.3475377475995742
 51
268.8519458380671949
  0
ARC
  5
E4FF
  8
0
 10
973.060000348970334
 20
140.7085918235279109
 30
0.0
 40
0.014530563458094
 50
281.2484643963102258
 51
338.1524958853215139
  0
LINE
  5
E500
  8
0
 10
973.0734872925678474
 20
140.7031844557016029
 30
0.0
 11
973.0791639916176337
 21
140.744531461301591
 31
0.0
  0
ARC
  5
E501
  8
0
 10
972.7652183535534505
 20
138.2668515600622925
 30
0.0
 40
2.4974906519674178
 50
82.7785624842086492
 51
86.5249230306778827
  0
ARC
  5
E502
  8
0
 10
972.8940999866713355
 20
140.3891978383811079
 30
0.0
 40
0.3712347406414648
 50
86.5249230306778827
 51
93.2992323378588253
  0
ARC
  5
E503
  8
0
 10
973.0765272722669579
 20
141.6225150862306918
 30
0.0
 40
0.8864415954384224
 50
256.7088711344817966
 51
259.6300657617927072
  0
ARC
  5
E504
  8
0
 10
973.0592192975852868
 20
140.5317065743882097
 30
0.0
 40
0.2137573935791566
 50
71.1081612739616133
 51
84.6462136152025835
  0
ARC
  5
E505
  8
0
 10
973.1034261716329183
 20
140.9615541345636984
 30
0.0
 40
0.2289742793138378
 50
263.5544642782326719
 51
276.2692189492199191
  0
ARC
  5
E506
  8
0
 10
972.9490876224535896
 20
140.2495862267037978
 30
0.0
 40
0.4548706688163651
 50
80.7770849553683661
 51
87.4506159745950953
  0
ARC
  5
E507
  8
0
 10
973.0283010150218388
 20
141.0179348770122942
 30
0.0
 40
0.3194207420512756
 50
259.3593650462888149
 51
268.8683358836731259
  0
LINE
  5
E508
  8
0
 10
973.0736615112900836
 20
140.704460493331311
 30
0.0
 11
973.3785056035882235
 21
140.6777734153633048
 31
0.0
  0
LINE
  5
E509
  8
0
 10
973.5370160672963493
 20
140.664512942471589
 30
0.0
 11
973.6840163814887319
 21
140.6529101067939962
 31
0.0
  0
LINE
  5
E50A
  8
0
 10
973.538306757629698
 20
140.6751368528703097
 30
0.0
 11
973.533509056773255
 21
140.6358152913819879
 31
0.0
  0
ARC
  5
E50B
  8
0
 10
973.5235798087827561
 20
140.6370267784081136
 30
0.0
 40
0.010002882907795
 50
263.5483628874138731
 51
353.0436132830934071
  0
ARC
  5
E50C
  8
0
 10
973.5836429106112746
 20
142.1640707348738886
 30
0.0
 40
1.53820093333464
 50
262.7177220117682737
 51
267.7202678532385107
  0
ARC
  5
E50D
  8
0
 10
973.3891835213936474
 20
140.6478391157197905
 30
0.0
 40
0.0095758261429609
 50
181.8669179500413975
 51
266.889626977594105
  0
LINE
  5
E50E
  8
0
 10
973.3796127781678251
 20
140.6475271535016134
 30
0.0
 11
973.3782808691457831
 21
140.688389022356489
 31
0.0
  0
ARC
  5
E50F
  8
0
 10
973.3935636274035232
 20
140.9854501548227859
 30
0.0
 40
0.3015588719450703
 50
258.5787875973618952
 51
267.1205816157494723
  0
ARC
  5
E510
  8
0
 10
973.3420862156038993
 20
140.2722366404989884
 30
0.0
 40
0.4177073621968643
 50
85.0289716455631748
 51
91.1299682294559545
  0
ARC
  5
E511
  8
0
 10
973.0159831361920624
 20
135.3341457028359969
 30
0.0
 40
5.3664707611480207
 50
84.4145055181335948
 51
86.1289340512909263
  0
ARC
  5
E512
  8
0
 10
973.4914386939433371
 20
140.1292940067401105
 30
0.0
 40
0.5478512827996818
 50
80.5655913147330267
 51
85.0924116487796596
  0
ARC
  5
E513
  8
0
 10
973.5595651196194922
 20
141.3271030337949128
 30
0.0
 40
0.6577253262672955
 50
268.0906956145310005
 51
271.8886245289770045
  0
ARC
  5
E514
  8
0
 10
973.4105432863345868
 20
140.117564312372906
 30
0.0
 40
0.5182009797955068
 50
82.1624918472577832
 51
87.6755766520937954
  0
ARC
  5
E515
  8
0
 10
973.4847025281040942
 20
140.9516316447493978
 30
0.0
 40
0.3207260259665746
 50
260.4624804746766245
 51
269.3755880246745846
  0
ARC
  5
E516
  8
0
 10
973.4192280701496429
 20
140.6369879520927952
 30
0.0
 40
0.0100849224269935
 50
256.4838576635521008
 51
340.8974291110819195
  0
LINE
  5
E517
  8
0
 10
973.4168710290678064
 20
140.6271823405515988
 30
0.0
 11
973.2842752482678179
 21
140.6384551214015914
 31
0.0
  0
ARC
  5
E518
  8
0
 10
973.2851418402568697
 20
140.6482617658072058
 30
0.0
 40
0.0098474041766381
 50
181.9992574583563965
 51
266.4558104497385784
  0
LINE
  5
E519
  8
0
 10
973.2753004303998523
 20
140.6479182239002057
 30
0.0
 11
973.2739387007438836
 21
140.6869275540184105
 31
0.0
  0
LINE
  5
E51A
  8
0
 10
974.004752972067763
 20
140.6294826950015988
 30
0.0
 11
974.0060974765676747
 21
140.5909811961016089
 31
0.0
  0
ARC
  5
E51B
  8
0
 10
974.0159361983653525
 20
140.5913247724845974
 30
0.0
 40
0.0098447189569497
 50
182.0000037631288023
 51
266.0176157056142188
  0
LINE
  5
E51C
  8
0
 10
974.015252484924531
 20
140.5815038240949093
 30
0.0
 11
974.1475811060345222
 21
140.5722913882601119
 31
0.0
  0
ARC
  5
E51D
  8
0
 10
974.148296672267179
 20
140.5825698742760039
 30
0.0
 40
0.0103033640046127
 50
266.0176157056142188
 51
337.115245517413598
  0
LINE
  5
E51E
  8
0
 10
974.1204324485217967
 20
140.6310288721016093
 30
0.0
 11
974.1219424005677183
 21
140.5907829820015991
 31
0.0
  0
ARC
  5
E51F
  8
0
 10
974.1318218271683236
 20
140.5911536399835882
 30
0.0
 40
0.0098863773594389
 50
182.148624886793101
 51
266.0627114951485055
  0
ARC
  5
E520
  8
0
 10
974.1836535406951043
 20
140.9627683276520997
 30
0.0
 40
0.3850748213849788
 50
262.1624669895301736
 51
266.1486891008028124
  0
ARC
  5
E521
  8
0
 10
974.3073481375957954
 20
142.3244787379886986
 30
0.0
 40
1.7523097006211821
 50
265.1038662750597723
 51
268.579616292886783
  0
ARC
  5
E522
  8
0
 10
974.2636395225308661
 20
140.5835912745027088
 30
0.0
 40
0.0108872273919457
 50
271.4350379727650875
 51
349.2778379534888131
  0
LINE
  5
E523
  8
0
 10
974.274336668807905
 20
140.5815657420270099
 30
0.0
 11
974.2782832803677593
 21
140.6208026320016131
 31
0.0
  0
ARC
  5
E524
  8
0
 10
975.6758161737237742
 20
158.4252549478601964
 30
0.0
 40
17.8592194730515104
 50
265.3992403719229856
 51
265.5118587626536737
  0
ARC
  5
E525
  8
0
 10
974.2090263954626153
 20
139.7384765246152085
 30
0.0
 40
0.8850372498240762
 50
82.5496863409723858
 51
85.5118587626536169
  0
ARC
  5
E526
  8
0
 10
974.306223636952609
 20
142.0543031279918864
 30
0.0
 40
1.4383683426679781
 50
268.8686395559994935
 51
270.699592886636708
  0
ARC
  5
E527
  8
0
 10
976.1002486271951284
 20
159.054389258075588
 30
0.0
 40
18.533245708192009
 50
263.7343319783162769
 51
263.8681194787466211
  0
ARC
  5
E528
  8
0
 10
974.0702427701354509
 20
139.1324734724925065
 30
0.0
 40
1.4993956414215719
 50
88.0817644470528904
 51
89.7205950699306527
  0
ARC
  5
E529
  8
0
 10
973.7037382833673291
 20
132.6184554604438119
 30
0.0
 40
8.0234011930402751
 50
86.2779592953404944
 51
87.0230127939967275
  0
LINE
  5
E52A
  8
0
 10
974.120784976020218
 20
140.6216326909460008
 30
0.0
 11
974.004752972067763
 21
140.6294826950015988
 31
0.0
  0
LINE
  5
E52B
  8
0
 10
974.004752972067763
 20
140.6294826950015988
 30
0.0
 11
973.8410553464068471
 21
140.64108380984311
 31
0.0
  0
LINE
  5
E52C
  8
0
 10
974.2773283563088853
 20
140.6113088549566896
 30
0.0
 11
974.4608849215480859
 21
140.6000795330853919
 31
0.0
  0
LINE
  5
E52D
  8
0
 10
974.6188411533114504
 20
140.5911577785678901
 30
0.0
 11
974.863824568167729
 21
140.5785467071015944
 31
0.0
  0
LINE
  5
E52E
  8
0
 10
974.9947098131367511
 20
140.580429658225313
 30
0.0
 11
974.8634964473977789
 21
140.586359480751014
 31
0.0
  0
ARC
  5
E52F
  8
0
 10
974.832626951885004
 20
139.9032883791527979
 30
0.0
 40
0.6837682762396808
 50
87.4124374607368964
 51
91.0256266675865646
  0
ARC
  5
E530
  8
0
 10
974.9421801924810325
 20
141.5135974959557075
 30
0.0
 40
0.9346198881355126
 50
262.5123633982876754
 51
265.1797968802835044
  0
LINE
  5
E531
  8
0
 10
974.863496355367829
 20
140.5863620092015935
 30
0.0
 11
974.8649455366479515
 21
140.5465469732216945
 31
0.0
  0
ARC
  5
E532
  8
0
 10
974.8748090847128651
 20
140.5469059850587996
 30
0.0
 40
0.0098700795301244
 50
182.0845223715417944
 51
267.1314646619093196
  0
ARC
  5
E533
  8
0
 10
975.0260666259372329
 20
142.3601143342235957
 30
0.0
 40
1.8293710332066719
 50
265.2416857681619149
 51
269.3659478885272733
  0
ARC
  5
E534
  8
0
 10
975.0062570451409556
 20
140.540709944515811
 30
0.0
 40
0.0098641979199622
 50
267.4761689947777086
 51
355.1323889276333716
  0
LINE
  5
E535
  8
0
 10
975.0160856670676139
 20
140.5398729310016108
 30
0.0
 11
975.0189639188932915
 21
140.5736707712098905
 31
0.0
  0
ARC
  5
E536
  8
0
 10
974.9189060718200608
 20
140.0719112641841946
 30
0.0
 40
0.4637422237899886
 50
84.0527298101438163
 51
90.3519350078747578
  0
ARC
  5
E537
  8
0
 10
975.0316969383006835
 20
142.3800138613912054
 30
0.0
 40
1.8479907782671581
 50
266.4123314580269266
 51
267.992333359992017
  0
ARC
  5
E538
  8
0
 10
974.8778862451857776
 20
140.5402868396199949
 30
0.0
 40
0.009648687224267
 50
266.750257876440628
 51
334.0852304795980103
  0
LINE
  5
E539
  8
0
 10
974.8773392775677848
 20
140.5306536682016088
 30
0.0
 11
974.7458810937486078
 21
140.5381178112724001
 31
0.0
  0
ARC
  5
E53A
  8
0
 10
974.7464498379224551
 20
140.5481345105023934
 30
0.0
 40
0.0100328327705082
 50
187.8815010241306993
 51
266.750257876440628
  0
LINE
  5
E53B
  8
0
 10
974.7365117774166947
 20
140.546758760967208
 30
0.0
 11
974.7351449831254513
 21
140.585170777731804
 31
0.0
  0
ARC
  5
E53C
  8
0
 10
975.9829573463548513
 20
140.1061487442077862
 30
0.0
 40
0.4483382687996734
 50
88.7464722575925151
 51
93.7680870612750255
  0
ARC
  5
E53D
  8
0
 10
976.6752089481310577
 20
171.7422787522195904
 30
0.0
 40
31.1953646460614493
 50
268.7464722575859923
 51
269.0285525569263996
  0
ARC
  5
E53E
  8
0
 10
976.1403301365318157
 20
140.1982544389923078
 30
0.0
 40
0.353194199257816
 50
82.2207269680133948
 51
89.0285525569264138
  0
ARC
  5
E53F
  8
0
 10
976.150679082229999
 20
140.8071907700137899
 30
0.0
 40
0.2616874318625803
 50
268.9544623020080962
 51
278.2296912293957121
  0
LINE
  5
E540
  8
0
 10
976.1462425106301453
 20
140.5513991572364887
 30
0.0
 11
976.1439383351678316
 21
140.5114541037015954
 31
0.0
  0
ARC
  5
E541
  8
0
 10
976.1339333043971465
 20
140.512031230138092
 30
0.0
 40
0.0100216623193994
 50
275.1542896829957954
 51
356.6986301947899847
  0
ARC
  5
E542
  8
0
 10
976.0977810398001111
 20
141.8233385250944139
 30
0.0
 40
1.321807860155517
 50
265.9313073613075744
 51
271.6063115382445972
  0
ARC
  5
E543
  8
0
 10
976.0054842026210054
 20
140.5159940207354907
 30
0.0
 40
0.0112310970913036
 50
188.6479727139094962
 51
262.38332921656081
  0
LINE
  5
E544
  8
0
 10
975.994380793767732
 20
140.5143052775015917
 30
0.0
 11
975.9927653920677812
 21
140.5543797176015914
 31
0.0
  0
LINE
  5
E545
  8
0
 10
975.9929594580160028
 20
140.5495507539523032
 30
0.0
 11
975.9853271626782316
 21
140.550262838262114
 31
0.0
  0
LINE
  5
E546
  8
0
 10
975.9853271626782316
 20
140.550262838262114
 30
0.0
 11
975.9534037426642499
 21
140.552267367583994
 31
0.0
  0
ARC
  5
E547
  8
0
 10
976.058400729507639
 20
140.00897491262279
 30
0.0
 40
0.4958280588269463
 50
85.6078478574041242
 51
91.7575684562372942
  0
ARC
  5
E548
  8
0
 10
976.076841931624358
 20
140.8109360569924888
 30
0.0
 40
0.3082086347126791
 50
263.7322694898620057
 51
273.6331468237763147
  0
LINE
  5
E549
  8
0
 10
977.4340918157678288
 20
142.2231839692925064
 30
0.0
 11
977.4340917978676089
 21
142.4915530956016028
 31
0.0
  0
ARC
  5
E54A
  8
0
 10
977.4144066938442847
 20
142.4915530680646043
 30
0.0
 40
0.0196851040235077
 50
0.0000801497825596
 51
89.9998119058335675
  0
LINE
  5
E54B
  8
0
 10
977.4144067584677487
 20
142.5112381720880137
 30
0.0
 11
976.4695248686678042
 21
142.5112381720880137
 31
0.0
  0
ARC
  5
E54C
  8
0
 10
976.4695248230785865
 20
142.4915531783765061
 30
0.0
 40
0.0196849937114849
 50
89.9998673069899837
 51
180.0004289919712051
  0
LINE
  5
E54D
  8
0
 10
976.449839829367761
 20
142.491553030988598
 30
0.0
 11
976.4498415887037481
 21
142.2231839692983044
 31
0.0
  0
LINE
  5
E54E
  8
0
 10
976.7490926234676181
 20
142.2231839855730016
 30
0.0
 11
976.7490926055318141
 21
142.4915530510016026
 31
0.0
  0
ARC
  5
E54F
  8
0
 10
976.8196542983583868
 20
142.2671180510110958
 30
0.0
 40
0.2453372056975403
 50
95.7094728680020665
 51
101.0982305893837037
  0
ARC
  5
E550
  8
0
 10
976.782975990155478
 20
142.4566603788076122
 30
0.0
 40
0.052281638527867
 50
101.6384600372357028
 51
121.0615819818455066
  0
ARC
  5
E551
  8
0
 10
976.7646783237480577
 20
142.4870388027094918
 30
0.0
 40
0.0168182315466113
 50
121.0615819818446965
 51
151.4365428800637119
  0
ARC
  5
E552
  8
0
 10
976.7573897814243082
 20
142.4914946656373047
 30
0.0
 40
0.0082973813123167
 50
154.3977948770663033
 51
179.5968291153214125
  0
LINE
  5
E553
  8
0
 10
977.1348390010676894
 20
142.2231839855730016
 30
0.0
 11
977.1348390190038344
 21
142.4915530510016026
 31
0.0
  0
ARC
  5
E554
  8
0
 10
977.0727691916041522
 20
142.3173124160582006
 30
0.0
 40
0.1944514730553196
 50
78.5101894264889069
 51
85.7858894224766146
  0
ARC
  5
E555
  8
0
 10
977.1009556343800568
 20
142.4566603788076122
 30
0.0
 40
0.052281638527867
 50
58.9384180181544934
 51
78.3615399627642546
  0
ARC
  5
E556
  8
0
 10
977.1192533007874772
 20
142.4870388027094918
 30
0.0
 40
0.0168182315466113
 50
28.563457119936249
 51
58.9384180181553319
  0
ARC
  5
E557
  8
0
 10
977.1265418431111129
 20
142.4914946656373047
 30
0.0
 40
0.0082973813123167
 50
0.4031708846785439
 51
25.6022051229337215
  0
LINE
  5
E558
  8
0
 10
977.4705347350899274
 20
140.7068428838933016
 30
0.0
 11
977.4713376461583039
 21
140.7245975109499057
 31
0.0
  0
LINE
  5
E559
  8
0
 10
977.3223479829899816
 20
140.7068422523047104
 30
0.0
 11
977.3218056927646558
 21
140.7246898542514941
 31
0.0
  0
ARC
  5
E55A
  8
0
 10
977.3962640788389535
 20
139.9270063965761892
 30
0.0
 40
0.7707281788067827
 50
88.2012071616753559
 51
91.7718260217459658
  0
ARC
  5
E55B
  8
0
 10
977.3966213430713879
 20
141.4451486854185873
 30
0.0
 40
0.7481736881312614
 50
268.1473688908718032
 51
271.8256642925811093
  0
ARC
  5
E55C
  8
0
 10
977.395170109693936
 20
143.0831774245924066
 30
0.0
 40
2.386795455705645
 50
268.5070398383606971
 51
271.5792548542581812
  0
ARC
  5
E55D
  8
0
 10
977.460488829730707
 20
140.7073360180280872
 30
0.0
 40
0.0100580015788874
 50
272.6251040377694039
 51
357.1897164037919197
  0
ARC
  5
E55E
  8
0
 10
977.332502560015655
 20
140.7073479495304014
 30
0.0
 40
0.0101671610716892
 50
182.8509705342162022
 51
272.7155211338509844
  0
LINE
  5
E55F
  8
0
 10
977.4713376461583039
 20
140.7245975109499057
 30
0.0
 11
977.4723726697418442
 21
140.7457630783503078
 31
0.0
  0
LINE
  5
E560
  8
0
 10
977.3218056927646558
 20
140.7246898542514941
 30
0.0
 11
977.3207540471579478
 21
140.7455677640865019
 31
0.0
  0
ARC
  5
E561
  8
0
 10
977.4658510342338786
 20
141.4169476280472963
 30
0.0
 40
0.6738164055388473
 50
270.5437366414737994
 51
274.0609876460960095
  0
ARC
  5
E562
  8
0
 10
977.4017155246198172
 20
136.746140129628003
 30
0.0
 40
4.0002470128859544
 50
88.3976991887434451
 51
91.7363623583602816
  0
ARC
  5
E563
  8
0
 10
977.3255982225070966
 20
141.4010524567476068
 30
0.0
 40
0.6580488977496199
 50
266.0707459887607911
 51
269.589390026296428
  0
LINE
  5
E564
  8
0
 10
977.4503868900369525
 20
140.6466478092897034
 30
0.0
 11
977.4511898011054427
 21
140.6644024363463927
 31
0.0
  0
LINE
  5
E565
  8
0
 10
977.3022001379372341
 20
140.6466471777011975
 30
0.0
 11
977.3016578477117946
 21
140.6644947796478959
 31
0.0
  0
ARC
  5
E566
  8
0
 10
977.3761162337859787
 20
139.8668113219727047
 30
0.0
 40
0.7707281788067827
 50
88.2012071616753559
 51
91.7718260217459658
  0
ARC
  5
E567
  8
0
 10
977.3764734980185267
 20
141.3849536108151028
 30
0.0
 40
0.7481736881312614
 50
268.1473688908718032
 51
271.8256642925811093
  0
ARC
  5
E568
  8
0
 10
977.3750222646408474
 20
143.0229823499888937
 30
0.0
 40
2.386795455705645
 50
268.5070398383606971
 51
271.5792548542581812
  0
ARC
  5
E569
  8
0
 10
977.4403409846779596
 20
140.6471409434246027
 30
0.0
 40
0.0100580015788874
 50
272.6251040377694039
 51
357.1897164037919197
  0
ARC
  5
E56A
  8
0
 10
977.3123547149627939
 20
140.6471528749268884
 30
0.0
 40
0.0101671610716892
 50
182.8509705342162022
 51
272.7155211338509844
  0
LINE
  5
E56B
  8
0
 10
977.4511898011054427
 20
140.6644024363463927
 30
0.0
 11
977.4522248246889831
 21
140.6855680037469085
 31
0.0
  0
LINE
  5
E56C
  8
0
 10
977.3016578477117946
 20
140.6644947796478959
 30
0.0
 11
977.3006062021049729
 21
140.685372689482989
 31
0.0
  0
ARC
  5
E56D
  8
0
 10
977.4457031891810175
 20
141.3567525534438118
 30
0.0
 40
0.6738164055388473
 50
270.5437366414737994
 51
274.0609876460960095
  0
ARC
  5
E56E
  8
0
 10
977.381567679566956
 20
136.6859450550244901
 30
0.0
 40
4.0002470128859544
 50
88.3976991887434451
 51
91.7363623583602816
  0
ARC
  5
E56F
  8
0
 10
977.3054503774543491
 20
141.3408573821442076
 30
0.0
 40
0.6580488977496199
 50
266.0707459887607911
 51
269.589390026296428
  0
LINE
  5
E570
  8
0
 10
977.4273894303283896
 20
140.5897720245006042
 30
0.0
 11
977.4281923413968798
 21
140.6075266515572082
 31
0.0
  0
LINE
  5
E571
  8
0
 10
977.2792026782286712
 20
140.5897713929120982
 30
0.0
 11
977.2786603880033454
 21
140.6076189948587967
 31
0.0
  0
ARC
  5
E572
  8
0
 10
977.3520248049323982
 20
142.9661065651997092
 30
0.0
 40
2.386795455705645
 50
268.5070398383606971
 51
271.5792548542581812
  0
ARC
  5
E573
  8
0
 10
977.4173435249695103
 20
140.5902651586353898
 30
0.0
 40
0.0100580015788874
 50
272.6251040377694039
 51
357.1897164037919197
  0
ARC
  5
E574
  8
0
 10
977.2893572552543446
 20
140.5902770901377039
 30
0.0
 40
0.0101671610716892
 50
182.8509705342162022
 51
272.7155211338509844
  0
LINE
  5
E575
  8
0
 10
977.4281923413968798
 20
140.6075266515572082
 30
0.0
 11
977.4292273649805338
 21
140.6286922189576956
 31
0.0
  0
LINE
  5
E576
  8
0
 10
977.2786603880033454
 20
140.6076189948587967
 30
0.0
 11
977.2776087423965237
 21
140.6284969046938045
 31
0.0
  0
ARC
  5
E577
  8
0
 10
977.4227057294725682
 20
141.2998767686547126
 30
0.0
 40
0.6738164055388473
 50
270.5437366414737994
 51
274.0609876460960095
  0
ARC
  5
E578
  8
0
 10
977.3585702198586205
 20
136.6290692702353056
 30
0.0
 40
4.0002470128859544
 50
88.3976991887434451
 51
91.7363623583602816
  0
ARC
  5
E579
  8
0
 10
977.2824529177458999
 20
141.2839815973549946
 30
0.0
 40
0.6580488977496199
 50
266.0707459887607911
 51
269.589390026296428
  0
LINE
  5
E57A
  8
0
 10
977.3845682200186502
 20
140.5454742919197031
 30
0.0
 11
977.3853711310872541
 21
140.5632289189763071
 31
0.0
  0
LINE
  5
E57B
  8
0
 10
977.2363814679190455
 20
140.5454736603311119
 30
0.0
 11
977.235839177693606
 21
140.5633212622778956
 31
0.0
  0
ARC
  5
E57C
  8
0
 10
977.3092035946226588
 20
142.9218088326188081
 30
0.0
 40
2.386795455705645
 50
268.5070398383606971
 51
271.5792548542581812
  0
ARC
  5
E57D
  8
0
 10
977.3745223146596572
 20
140.5459674260544887
 30
0.0
 40
0.0100580015788874
 50
272.6251040377694039
 51
357.1897164037919197
  0
ARC
  5
E57E
  8
0
 10
977.2465360449443779
 20
140.5459793575568028
 30
0.0
 40
0.0101671610716892
 50
182.8509705342162022
 51
272.7155211338509844
  0
LINE
  5
E57F
  8
0
 10
977.3853711310872541
 20
140.5632289189763071
 30
0.0
 11
977.386169514821745
 21
140.5795553534794067
 31
0.0
  0
LINE
  5
E580
  8
0
 10
977.235839177693606
 20
140.5633212622778956
 30
0.0
 11
977.2347875320867843
 21
140.5841991721129034
 31
0.0
  0
ARC
  5
E581
  8
0
 10
977.3157490095486537
 20
136.5847715376544045
 30
0.0
 40
4.0002470128859544
 50
90.5012996306863187
 51
91.7363623583602816
  0
ARC
  5
E582
  8
0
 10
977.2396317074360468
 20
141.2396838647740083
 30
0.0
 40
0.6580488977496199
 50
266.0707459887607911
 51
269.589390026296428
  0
LINE
  5
E583
  8
0
 10
977.3295606288846784
 20
140.5139513514000953
 30
0.0
 11
977.3303635399531686
 21
140.531705978456813
 31
0.0
  0
LINE
  5
E584
  8
0
 10
977.1813738767848463
 20
140.5139507198115894
 30
0.0
 11
977.1808315865595205
 21
140.5317983217582878
 31
0.0
  0
ARC
  5
E585
  8
0
 10
977.2552899726338183
 20
139.7341148640830113
 30
0.0
 40
0.7707281788067827
 50
88.2012071616753559
 51
91.7718260217459658
  0
ARC
  5
E586
  8
0
 10
977.2556472368662526
 20
141.2522571529254947
 30
0.0
 40
0.7481736881312614
 50
268.1473688908718032
 51
271.8256642925811093
  0
ARC
  5
E587
  8
0
 10
977.2541960034884596
 20
142.890285892099314
 30
0.0
 40
2.386795455705645
 50
268.5070398383606971
 51
271.5792548542581812
  0
ARC
  5
E588
  8
0
 10
977.3195147235255718
 20
140.5144444855349093
 30
0.0
 40
0.0100580015788874
 50
272.6251040377694039
 51
357.1897164037919197
  0
ARC
  5
E589
  8
0
 10
977.1915284538104061
 20
140.5144564170373087
 30
0.0
 40
0.0101671610716892
 50
182.8509705342162022
 51
272.7155211338509844
  0
LINE
  5
E58A
  8
0
 10
977.3303635399531686
 20
140.531705978456813
 30
0.0
 11
977.3305299352646216
 21
140.5351086556858036
 31
0.0
  0
LINE
  5
E58B
  8
0
 10
977.1808315865595205
 20
140.5317983217582878
 30
0.0
 11
977.1797799409525851
 21
140.5526762315934093
 31
0.0
  0
ARC
  5
E58C
  8
0
 10
977.2607414184146819
 20
136.5532485971349104
 30
0.0
 40
4.0002470128859544
 50
90.3523694836953553
 51
91.7363623583602816
  0
ARC
  5
E58D
  8
0
 10
977.1846241163019613
 20
141.2081609242545142
 30
0.0
 40
0.6580488977496199
 50
266.0707459887607911
 51
269.589390026296428
  0
LINE
  5
E58E
  8
0
 10
977.4915042009085937
 20
140.4954905220963894
 30
0.0
 11
977.4923071119769702
 21
140.5132451491531071
 31
0.0
  0
LINE
  5
E58F
  8
0
 10
977.3433174488087616
 20
140.4954898905079119
 30
0.0
 11
977.3427751585835495
 21
140.5133374924546104
 31
0.0
  0
ARC
  5
E590
  8
0
 10
977.4172335446577335
 20
139.7156540347793054
 30
0.0
 40
0.7707281788067827
 50
88.2012071616753559
 51
91.7718260217459658
  0
ARC
  5
E591
  8
0
 10
977.4175908088902816
 20
141.2337963236217888
 30
0.0
 40
0.7481736881312614
 50
268.1473688908718032
 51
271.8256642925811093
  0
ARC
  5
E592
  8
0
 10
977.4161395755124886
 20
142.8718250627956081
 30
0.0
 40
2.386795455705645
 50
268.5070398383606971
 51
271.5792548542581812
  0
ARC
  5
E593
  8
0
 10
977.4814582955496007
 20
140.4959836562312034
 30
0.0
 40
0.0100580015788874
 50
272.6251040377694039
 51
357.1897164037919197
  0
ARC
  5
E594
  8
0
 10
977.3534720258345487
 20
140.4959955877336029
 30
0.0
 40
0.0101671610716892
 50
182.8509705342162022
 51
272.7155211338509844
  0
LINE
  5
E595
  8
0
 10
977.4923071119769702
 20
140.5132451491531071
 30
0.0
 11
977.4933421355607379
 21
140.5344107165535092
 31
0.0
  0
LINE
  5
E596
  8
0
 10
977.3427751585835495
 20
140.5133374924546104
 30
0.0
 11
977.3417235129766141
 21
140.5342154022897034
 31
0.0
  0
ARC
  5
E597
  8
0
 10
977.4868205000527723
 20
141.2055952662504978
 30
0.0
 40
0.6738164055388473
 50
270.5437366414737994
 51
274.0609876460960095
  0
ARC
  5
E598
  8
0
 10
977.4226849904387109
 20
136.5347877678312045
 30
0.0
 40
4.0002470128859544
 50
88.3976991887434451
 51
91.3208556461298286
  0
ARC
  5
E599
  8
0
 10
977.3465676883259903
 20
141.1897000949508083
 30
0.0
 40
0.6580488977496199
 50
268.5895912237401149
 51
269.589390026296428
  0
LINE
  5
E59A
  8
0
 10
977.6858106200966176
 20
140.4968622496652984
 30
0.0
 11
977.6866135311651078
 21
140.5146168767219876
 31
0.0
  0
LINE
  5
E59B
  8
0
 10
977.5376238679968992
 20
140.4968616180767924
 30
0.0
 11
977.5365670547662376
 21
140.5316429602264918
 31
0.0
  0
ARC
  5
E59C
  8
0
 10
977.6115399638457575
 20
139.7170257623482996
 30
0.0
 40
0.7707281788067827
 50
88.2012071616753559
 51
91.7718260217459658
  0
ARC
  5
E59D
  8
0
 10
977.6118972280781918
 20
141.2351680511906977
 30
0.0
 40
0.7481736881312614
 50
268.1473688908718032
 51
271.8256642925811093
  0
ARC
  5
E59E
  8
0
 10
977.6104459947006262
 20
142.8731967903644886
 30
0.0
 40
2.386795455705645
 50
268.5070398383606971
 51
271.5792548542581812
  0
ARC
  5
E59F
  8
0
 10
977.6757647147377384
 20
140.4973553838001123
 30
0.0
 40
0.0100580015788874
 50
272.6251040377694039
 51
357.1897164037919197
  0
ARC
  5
E5A0
  8
0
 10
977.5477784450223453
 20
140.4973673153025118
 30
0.0
 40
0.0101671610716892
 50
182.8509705342162022
 51
272.7155211338509844
  0
LINE
  5
E5A1
  8
0
 10
977.6866135311651078
 20
140.5146168767219876
 30
0.0
 11
977.6875629352782653
 21
140.5340315809544052
 31
0.0
  0
LINE
  5
E5A2
  8
0
 10
977.4931735372075536
 20
140.5309629885387039
 30
0.0
 11
977.5365670547662376
 21
140.5316429602264918
 31
0.0
  0
LINE
  5
E5A3
  8
0
 10
977.5365670547662376
 20
140.5316429602264918
 30
0.0
 11
977.7386448838119577
 21
140.5348396520134884
 31
0.0
  0
ARC
  5
E5A4
  8
0
 10
978.3012143623590191
 20
140.1506178141509054
 30
0.0
 40
0.6120516774775284
 50
80.2370524706815473
 51
104.1031564310452069
  0
LINE
  5
E5A5
  8
0
 10
978.3579795551340794
 20
140.7600314411664897
 30
0.0
 11
978.3545793046164363
 21
140.7123436375015899
 31
0.0
  0
ARC
  5
E5A6
  8
0
 10
978.3435607809670955
 20
140.7131292836807859
 30
0.0
 40
0.0110464973331112
 50
292.2389817773301957
 51
355.9215808602182847
  0
ARC
  5
E5A7
  8
0
 10
978.3266353337628516
 20
140.7545232996280049
 30
0.0
 40
0.0557671337250221
 50
279.1246201244193799
 51
292.2389817773301957
  0
ARC
  5
E5A8
  8
0
 10
978.2637598010579723
 20
141.1459911498594977
 30
0.0
 40
0.45225220327721
 50
263.5779631285686833
 51
279.1246201244193799
  0
ARC
  5
E5A9
  8
0
 10
978.2151072257696569
 20
140.7137445247215908
 30
0.0
 40
0.0172760912604069
 50
200.9955944096732026
 51
263.5779631285751066
  0
LINE
  5
E5AA
  8
0
 10
978.1989781291164263
 20
140.7075545675016031
 30
0.0
 11
978.1942272321502969
 21
140.7532462318949911
 31
0.0
  0
ARC
  5
E5AB
  8
0
 10
978.2004397070155619
 20
140.8868122711695037
 30
0.0
 40
0.1505693878867596
 50
251.2644341055014934
 51
268.3058904648170824
  0
ARC
  5
E5AC
  8
0
 10
978.3098117480826659
 20
140.9642249159199991
 30
0.0
 40
0.2309487748141706
 50
281.6405445566086883
 51
294.3410645738775884
  0
ARC
  5
E5AD
  8
0
 10
978.2833834417640446
 20
140.5234344615141993
 30
0.0
 40
0.1800717023952394
 50
83.6534012640498048
 51
100.2106112915714959
  0
ARC
  5
E5AE
  8
0
 10
978.2733897064008488
 20
140.8196973812430883
 30
0.0
 40
0.1210456223327018
 50
259.5634303217972843
 51
284.3005822338215012
  0
ARC
  5
E5AF
  8
0
 10
978.2386722038695552
 20
140.0790526759739976
 30
0.0
 40
0.6120516774775284
 50
80.2370524706815473
 51
104.1031564310452069
  0
LINE
  5
E5B0
  8
0
 10
978.2954373966445019
 20
140.6884663029894966
 30
0.0
 11
978.2920371461268587
 21
140.6407784993245969
 31
0.0
  0
ARC
  5
E5B1
  8
0
 10
978.281018622477518
 20
140.6415641455037928
 30
0.0
 40
0.0110464973331112
 50
292.2389817773301957
 51
355.9215808602182847
  0
ARC
  5
E5B2
  8
0
 10
978.2640931752733877
 20
140.6829581614510118
 30
0.0
 40
0.0557671337250221
 50
279.1246201244193799
 51
292.2389817773301957
  0
ARC
  5
E5B3
  8
0
 10
978.2012176425686221
 20
141.0744260116825046
 30
0.0
 40
0.45225220327721
 50
263.5779631285686833
 51
279.1246201244193799
  0
ARC
  5
E5B4
  8
0
 10
978.152565067280193
 20
140.6421793865447114
 30
0.0
 40
0.0172760912604069
 50
200.9955944096732026
 51
263.5779631285751066
  0
LINE
  5
E5B5
  8
0
 10
978.1364359706269624
 20
140.63598942932461
 30
0.0
 11
978.131685073660833
 21
140.681681093717998
 31
0.0
  0
ARC
  5
E5B6
  8
0
 10
978.1378975485262117
 20
140.8152471329925106
 30
0.0
 40
0.1505693878867596
 50
251.2644341055014934
 51
268.3058904648170824
  0
ARC
  5
E5B7
  8
0
 10
978.2472695895930883
 20
140.8926597777430061
 30
0.0
 40
0.2309487748141706
 50
281.6405445566086883
 51
294.3410645738775884
  0
ARC
  5
E5B8
  8
0
 10
978.2208412832745807
 20
140.4518693233372062
 30
0.0
 40
0.1800717023952394
 50
83.6534012640498048
 51
100.2106112915714959
  0
ARC
  5
E5B9
  8
0
 10
978.2108475479113849
 20
140.748132243066209
 30
0.0
 40
0.1210456223327018
 50
259.5634303217972843
 51
284.3005822338215012
  0
LINE
  5
E5BA
  8
0
 10
978.2080663191447911
 20
140.6222256678101985
 30
0.0
 11
978.206213675816457
 21
140.5881527802015967
 31
0.0
  0
ARC
  5
E5BB
  8
0
 10
978.1955371175394021
 20
140.5887332961441132
 30
0.0
 40
0.0106923288109091
 50
276.965370028303596
 51
356.8877242376344725
  0
ARC
  5
E5BC
  8
0
 10
978.1048914221705672
 20
141.3306903123423979
 30
0.0
 40
0.7581659778279505
 50
268.0658654766929203
 51
276.965370028303596
  0
ARC
  5
E5BD
  8
0
 10
978.0825578134862326
 20
140.6693426096568942
 30
0.0
 40
0.0964412813534681
 50
259.0112521860600054
 51
268.0658654766929203
  0
ARC
  5
E5BE
  8
0
 10
978.0668068722543467
 20
140.5882259940800907
 30
0.0
 40
0.0138095836078445
 50
197.2057063785796061
 51
259.0112521860600054
  0
LINE
  5
E5BF
  8
0
 10
978.0536152826163061
 20
140.5841410752015861
 30
0.0
 11
978.0500510738163484
 21
140.6275741274016013
 31
0.0
  0
ARC
  5
E5C0
  8
0
 10
978.1731955228947299
 20
138.9915840003399126
 30
0.0
 40
1.6406182527273909
 50
91.2039308611034443
 51
94.3046572670033072
  0
ARC
  5
E5C1
  8
0
 10
978.0718744908524513
 20
140.3376471751371071
 30
0.0
 40
0.2907471395912786
 50
94.3046572670033072
 51
103.0157615890617961
  0
ARC
  5
E5C2
  8
0
 10
978.0502869993692912
 20
140.7651140810091022
 30
0.0
 40
0.1507227632525231
 50
253.0686601501504924
 51
270.321482130374477
  0
ARC
  5
E5C3
  8
0
 10
978.1369128642879787
 20
140.3315136779987995
 30
0.0
 40
0.2470697972325747
 50
85.5032438417317167
 51
97.6829571853881333
  0
ARC
  5
E5C4
  8
0
 10
978.1240713553110027
 20
140.7932388749441941
 30
0.0
 40
0.217811080352429
 50
264.6814375655316098
 51
278.504763461590187
  0
LINE
  5
E5C5
  8
0
 10
978.0838388474835483
 20
140.5728166823519985
 30
0.0
 11
978.0825254274163854
 21
140.5449795031015867
 31
0.0
  0
ARC
  5
E5C6
  8
0
 10
978.0723732210001344
 20
140.5454585067934943
 30
0.0
 40
0.010163500364464
 50
286.3677774491001742
 51
357.2986609651046024
  0
ARC
  5
E5C7
  8
0
 10
978.0646304136769231
 20
140.5718210381861013
 30
0.0
 40
0.0376395649782769
 50
274.690355308901303
 51
286.3677774491006858
  0
ARC
  5
E5C8
  8
0
 10
977.9828194452285288
 20
141.5689624994770952
 30
0.0
 40
1.038131508166277
 50
267.8854863600574276
 51
274.690355308901303
  0
ARC
  5
E5C9
  8
0
 10
977.9450504205184416
 20
140.5460212771131125
 30
0.0
 40
0.0144932695101533
 50
198.4910588478375928
 51
267.8854863600574276
  0
ARC
  5
E5CA
  8
0
 10
978.0536004710659199
 20
138.9956214381001871
 30
0.0
 40
1.591476083104669
 50
90.0082011581688874
 51
96.0758326780582905
  0
LINE
  5
E5CB
  8
0
 10
977.928384547064411
 20
140.5821639353156911
 30
0.0
 11
977.9313053927163537
 21
140.5414246401016101
 31
0.0
  0
ARC
  5
E5CC
  8
0
 10
977.9402979906601558
 20
140.8057769666511092
 30
0.0
 40
0.234204398703206
 50
256.3810130308885959
 51
267.265548725950282
  0
ARC
  5
E5CD
  8
0
 10
978.0137401595958409
 20
140.2525333024061069
 30
0.0
 40
0.2825046735557566
 50
86.3921058141570342
 51
96.3797406044359377
  0
ARC
  5
E5CE
  8
0
 10
978.0000307893154741
 20
140.8191850822441893
 30
0.0
 40
0.2864428440944995
 50
266.4609342954669842
 51
276.3109121231232166
  0
LINE
  5
E5CF
  8
0
 10
978.0821750412065967
 20
140.5427713037317119
 30
0.0
 11
978.126401515010798
 21
140.5439454271597981
 31
0.0
  0
LINE
  5
E5D0
  8
0
 10
978.1260490513004697
 20
140.5496739767013139
 30
0.0
 11
978.1284395269163952
 21
140.5108218691015907
 31
0.0
  0
ARC
  5
E5D1
  8
0
 10
978.1382770680735348
 20
140.5114271490647866
 30
0.0
 40
0.0098561442691862
 50
183.5208314651121952
 51
271.615461953910085
  0
ARC
  5
E5D2
  8
0
 10
978.1356554975674271
 20
142.773442579197706
 30
0.0
 40
2.2718695071854609
 50
270.0731226361521067
 51
273.3508809998800757
  0
ARC
  5
E5D3
  8
0
 10
978.268136867814178
 20
140.5152972921142975
 30
0.0
 40
0.009844917411775
 50
271.8085416821227795
 51
357.9810320200749061
  0
LINE
  5
E5D4
  8
0
 10
978.2779756736847503
 20
140.5149504522595123
 30
0.0
 11
978.2793600459542631
 21
140.5542209392669122
 31
0.0
  0
ARC
  5
E5D5
  8
0
 10
978.2795937479859276
 20
140.8874932988682076
 30
0.0
 40
0.3360275644241457
 50
269.9435915678949982
 51
276.9554343724335013
  0
ARC
  5
E5D6
  8
0
 10
978.2963933743573079
 20
140.052234106388994
 30
0.0
 40
0.5022731598258935
 50
87.2734946017234137
 51
91.9434249774338355
  0
ARC
  5
E5D7
  8
0
 10
978.3564608689896431
 20
135.6618096975388994
 30
0.0
 40
4.8930161516275064
 50
90.9028663836435413
 51
93.1998355787659563
  0
ARC
  5
E5D8
  8
0
 10
978.1259814245058806
 20
142.2826869484096903
 30
0.0
 40
1.736013473440936
 50
268.5924902407421087
 51
270.0083249605534093
  0
ARC
  5
E5D9
  8
0
 10
978.2156440878225112
 20
140.0956677843311979
 30
0.0
 40
0.4096155384287857
 50
88.116281057661439
 51
95.0906522972426842
  0
ARC
  5
E5DA
  8
0
 10
978.1880814848759655
 20
141.0802897525609865
 30
0.0
 40
0.5766890271955029
 50
269.1273173098451821
 51
274.0796160450584011
  0
ARC
  5
E5DB
  8
0
 10
979.1269422052068876
 20
140.150094391474795
 30
0.0
 40
0.6120516774775284
 50
80.2370524706815473
 51
104.1031564310452069
  0
LINE
  5
E5DC
  8
0
 10
979.1837073979818342
 20
140.7595080184904077
 30
0.0
 11
979.1803071474641911
 21
140.7118202148255932
 31
0.0
  0
ARC
  5
E5DD
  8
0
 10
979.1692886238148503
 20
140.7126058610047039
 30
0.0
 40
0.0110464973331112
 50
292.2389817773301957
 51
355.9215808602182847
  0
ARC
  5
E5DE
  8
0
 10
979.1523631766107201
 20
140.7539998769518945
 30
0.0
 40
0.0557671337250221
 50
279.1246201244193799
 51
292.2389817773301957
  0
ARC
  5
E5DF
  8
0
 10
979.0894876439057271
 20
141.1454677271833873
 30
0.0
 40
0.45225220327721
 50
263.5779631285686833
 51
279.1246201244193799
  0
ARC
  5
E5E0
  8
0
 10
979.0408350686176391
 20
140.7132211020455941
 30
0.0
 40
0.0172760912604069
 50
200.9955944096732026
 51
263.5779631285751066
  0
LINE
  5
E5E1
  8
0
 10
979.0247059719640674
 20
140.7070311448256064
 30
0.0
 11
979.0199550749980517
 21
140.7527228092189944
 31
0.0
  0
ARC
  5
E5E2
  8
0
 10
979.0261675498635441
 20
140.8862888484933933
 30
0.0
 40
0.1505693878867596
 50
251.2644341055014934
 51
268.3058904648170824
  0
ARC
  5
E5E3
  8
0
 10
979.1355395909304207
 20
140.9637014932438888
 30
0.0
 40
0.2309487748141706
 50
281.6405445566086883
 51
294.3410645738775884
  0
ARC
  5
E5E4
  8
0
 10
979.1091112846119131
 20
140.5229110388382026
 30
0.0
 40
0.1800717023952394
 50
83.6534012640498048
 51
100.2106112915714959
  0
ARC
  5
E5E5
  8
0
 10
979.0991175492486036
 20
140.8191739585670916
 30
0.0
 40
0.1210456223327018
 50
259.5634303217972843
 51
284.3005822338215012
  0
ARC
  5
E5E6
  8
0
 10
979.0011262519151387
 20
140.0789699829715005
 30
0.0
 40
0.6120516774775284
 50
80.2370524706815473
 51
104.1031564310452069
  0
LINE
  5
E5E7
  8
0
 10
979.0578914446899716
 20
140.6883836099871132
 30
0.0
 11
979.0544911941724422
 21
140.6406958063222135
 31
0.0
  0
ARC
  5
E5E8
  8
0
 10
979.0434726705229878
 20
140.6414814525014094
 30
0.0
 40
0.0110464973331112
 50
292.2389817773301957
 51
355.9215808602182847
  0
ARC
  5
E5E9
  8
0
 10
979.0265472233188575
 20
140.6828754684486
 30
0.0
 40
0.0557671337250221
 50
279.1246201244193799
 51
292.2389817773301957
  0
ARC
  5
E5EA
  8
0
 10
978.9636716906140919
 20
141.0743433186800928
 30
0.0
 40
0.45225220327721
 50
263.5779631285686833
 51
279.1246201244193799
  0
ARC
  5
E5EB
  8
0
 10
978.9150191153256628
 20
140.6420966935422996
 30
0.0
 40
0.0172760912604069
 50
200.9955944096732026
 51
263.5779631285751066
  0
LINE
  5
E5EC
  8
0
 10
978.8988900186724322
 20
140.6359067363221982
 30
0.0
 11
978.8941391217063028
 21
140.6815984007155862
 31
0.0
  0
ARC
  5
E5ED
  8
0
 10
978.9003515965716815
 20
140.8151644399900988
 30
0.0
 40
0.1505693878867596
 50
251.2644341055014934
 51
268.3058904648170824
  0
ARC
  5
E5EE
  8
0
 10
979.0097236376385581
 20
140.8925770847405943
 30
0.0
 40
0.2309487748141706
 50
281.6405445566086883
 51
294.3410645738775884
  0
ARC
  5
E5EF
  8
0
 10
978.9832953313200505
 20
140.4517866303347944
 30
0.0
 40
0.1800717023952394
 50
83.6534012640498048
 51
100.2106112915714959
  0
ARC
  5
E5F0
  8
0
 10
978.973301595956741
 20
140.7480495500637971
 30
0.0
 40
0.1210456223327018
 50
259.5634303217972843
 51
284.3005822338215012
  0
ARC
  5
E5F1
  8
0
 10
978.8395187934571595
 20
140.0261585546894025
 30
0.0
 40
0.6120516774775284
 50
84.4101877860358343
 51
104.1031564310452069
  0
LINE
  5
E5F2
  8
0
 10
978.8962839862321061
 20
140.6355721817049016
 30
0.0
 11
978.892883735714463
 21
140.5878843780400018
 31
0.0
  0
ARC
  5
E5F3
  8
0
 10
978.8818652120651223
 20
140.5886700242191978
 30
0.0
 40
0.0110464973331112
 50
292.2389817773301957
 51
355.9215808602182847
  0
ARC
  5
E5F4
  8
0
 10
978.864939764860992
 20
140.6300640401663884
 30
0.0
 40
0.0557671337250221
 50
279.1246201244193799
 51
292.2389817773301957
  0
ARC
  5
E5F5
  8
0
 10
978.8020642321562264
 20
141.0215318903979096
 30
0.0
 40
0.45225220327721
 50
263.5779631285686833
 51
279.1246201244193799
  0
ARC
  5
E5F6
  8
0
 10
978.753411656867911
 20
140.589285265260088
 30
0.0
 40
0.0172760912604069
 50
200.9955944096732026
 51
263.5779631285751066
  0
LINE
  5
E5F7
  8
0
 10
978.7372825602145667
 20
140.5830953080399865
 30
0.0
 11
978.7325316632484373
 21
140.628786972433403
 31
0.0
  0
ARC
  5
E5F8
  8
0
 10
978.738744138113816
 20
140.7623530117078872
 30
0.0
 40
0.1505693878867596
 50
251.2644341055014934
 51
268.3058904648170824
  0
ARC
  5
E5F9
  8
0
 10
978.8481161791806926
 20
140.8397656564584111
 30
0.0
 40
0.2309487748141706
 50
281.6405445566086883
 51
290.4882783731583231
  0
ARC
  5
E5FA
  8
0
 10
978.821687872862185
 20
140.3989752020526112
 30
0.0
 40
0.1800717023952394
 50
83.6534012640498048
 51
100.2106112915714959
  0
ARC
  5
E5FB
  8
0
 10
978.8116941374989892
 20
140.6952381217816139
 30
0.0
 40
0.1210456223327018
 50
259.5634303217972843
 51
284.3005822338215012
  0
ARC
  5
E5FC
  8
0
 10
978.592418311973347
 20
139.9808308885531005
 30
0.0
 40
0.6120516774775284
 50
80.2370524706815473
 51
104.1031564310452069
  0
LINE
  5
E5FD
  8
0
 10
978.649183504748521
 20
140.5902445155687133
 30
0.0
 11
978.6457832542308779
 21
140.5425567119038135
 31
0.0
  0
ARC
  5
E5FE
  8
0
 10
978.6347647305815372
 20
140.5433423580830095
 30
0.0
 40
0.0110464973331112
 50
292.2389817773301957
 51
355.9215808602182847
  0
ARC
  5
E5FF
  8
0
 10
978.6178392833772932
 20
140.5847363740300864
 30
0.0
 40
0.0557671337250221
 50
279.1246201244193799
 51
292.2389817773301957
  0
ARC
  5
E600
  8
0
 10
978.5549637506726413
 20
140.9762042242616928
 30
0.0
 40
0.45225220327721
 50
263.5779631285686833
 51
279.1246201244193799
  0
ARC
  5
E601
  8
0
 10
978.5063111753839848
 20
140.5439575991237859
 30
0.0
 40
0.0172760912604069
 50
200.9955944096732026
 51
263.5779631285751066
  0
LINE
  5
E602
  8
0
 10
978.4901820787308679
 20
140.5377676419037982
 30
0.0
 11
978.4854311817648522
 21
140.5834593062971862
 31
0.0
  0
ARC
  5
E603
  8
0
 10
978.4916436566302309
 20
140.7170253455716136
 30
0.0
 40
0.1505693878867596
 50
251.2644341055014934
 51
268.3058904648170824
  0
ARC
  5
E604
  8
0
 10
978.6010156976971075
 20
140.7944379903221943
 30
0.0
 40
0.2309487748141706
 50
281.6405445566086883
 51
294.3410645738775884
  0
ARC
  5
E605
  8
0
 10
978.5745873913783726
 20
140.3536475359163944
 30
0.0
 40
0.1800717023952394
 50
83.6534012640498048
 51
100.2106112915714959
  0
ARC
  5
E606
  8
0
 10
978.5645936560151767
 20
140.6499104556453119
 30
0.0
 40
0.1210456223327018
 50
259.5634303217972843
 51
284.3005822338215012
  0
LINE
  5
E607
  8
0
 10
978.488325479883315
 20
140.5556234472516053
 30
0.0
 11
978.2792045034020703
 21
140.5486184280632074
 31
0.0
  0
LINE
  5
E608
  8
0
 10
978.4179472644841553
 20
140.5532659565893994
 30
0.0
 11
978.416608363116552
 21
140.5151638570015962
 31
0.0
  0
ARC
  5
E609
  8
0
 10
978.4067690935534074
 20
140.5155096072782896
 30
0.0
 40
0.0098453424921382
 50
271.9942250957652163
 51
357.9874640419424736
  0
LINE
  5
E60A
  8
0
 10
978.4071116993311534
 20
140.5056702277211969
 30
0.0
 11
978.276907457009429
 21
140.5011365347735079
 31
0.0
  0
ARC
  5
E60B
  8
0
 10
978.2765938292752708
 20
140.5101436867684868
 30
0.0
 40
0.0090126105772322
 50
211.1579966044864136
 51
271.9942250957586225
  0
ARC
  5
E60C
  8
0
 10
980.4599970428449751
 20
140.1486314094194086
 30
0.0
 40
0.6120516774775284
 50
80.2370524706815473
 51
104.1031564310452069
  0
LINE
  5
E60D
  8
0
 10
980.5167622356201491
 20
140.7580450364349929
 30
0.0
 11
980.5133619851022786
 21
140.7103572327700931
 31
0.0
  0
ARC
  5
E60E
  8
0
 10
980.5023434614529378
 20
140.7111428789492891
 30
0.0
 40
0.0110464973331112
 50
292.2389817773301957
 51
355.9215808602182847
  0
ARC
  5
E60F
  8
0
 10
980.4854180142488076
 20
140.7525368948965081
 30
0.0
 40
0.0557671337250221
 50
279.1246201244193799
 51
292.2389817773301957
  0
ARC
  5
E610
  8
0
 10
980.4225424815440419
 20
141.1440047451280009
 30
0.0
 40
0.45225220327721
 50
263.5779631285686833
 51
279.1246201244193799
  0
ARC
  5
E611
  8
0
 10
980.3738899062556129
 20
140.711758119990094
 30
0.0
 40
0.0172760912604069
 50
200.9955944096732026
 51
263.5779631285751066
  0
LINE
  5
E612
  8
0
 10
980.3577608096022686
 20
140.7055681627701063
 30
0.0
 11
980.3530099126362529
 21
140.7512598271634943
 31
0.0
  0
ARC
  5
E613
  8
0
 10
980.3592223875016316
 20
140.8848258664378932
 30
0.0
 40
0.1505693878867596
 50
251.2644341055014934
 51
268.3058904648170824
  0
ARC
  5
E614
  8
0
 10
980.4685944285687356
 20
140.9622385111885023
 30
0.0
 40
0.2309487748141706
 50
281.6405445566086883
 51
294.3410645738775884
  0
ARC
  5
E615
  8
0
 10
980.4421661222500006
 20
140.5214480567827025
 30
0.0
 40
0.1800717023952394
 50
83.6534012640498048
 51
100.2106112915714959
  0
ARC
  5
E616
  8
0
 10
980.4321723868868048
 20
140.8177109765117052
 30
0.0
 40
0.1210456223327018
 50
259.5634303217972843
 51
284.3005822338215012
  0
ARC
  5
E617
  8
0
 10
979.8531069205190533
 20
140.1494403017593129
 30
0.0
 40
0.6120516774775284
 50
80.2370524706815473
 51
104.1031564310452069
  0
LINE
  5
E618
  8
0
 10
979.9098721132942273
 20
140.7588539287748972
 30
0.0
 11
979.9064718627765842
 21
140.7111661251099974
 31
0.0
  0
ARC
  5
E619
  8
0
 10
979.8954533391272435
 20
140.7119517712891934
 30
0.0
 40
0.0110464973331112
 50
292.2389817773301957
 51
355.9215808602182847
  0
ARC
  5
E61A
  8
0
 10
979.8785278919228858
 20
140.7533457872364124
 30
0.0
 40
0.0557671337250221
 50
279.1246201244193799
 51
292.2389817773301957
  0
ARC
  5
E61B
  8
0
 10
979.8156523592181202
 20
141.1448136374679052
 30
0.0
 40
0.45225220327721
 50
263.5779631285686833
 51
279.1246201244193799
  0
ARC
  5
E61C
  8
0
 10
979.7669997839300322
 20
140.712567012330112
 30
0.0
 40
0.0172760912604069
 50
200.9955944096732026
 51
263.5779631285751066
  0
LINE
  5
E61D
  8
0
 10
979.7508706872764606
 20
140.7063770551100106
 30
0.0
 11
979.7461197903103312
 21
140.7520687195033986
 31
0.0
  0
ARC
  5
E61E
  8
0
 10
979.7523322651757098
 20
140.8856347587779112
 30
0.0
 40
0.1505693878867596
 50
251.2644341055014934
 51
268.3058904648170824
  0
ARC
  5
E61F
  8
0
 10
979.8617043062428138
 20
140.9630474035284067
 30
0.0
 40
0.2309487748141706
 50
281.6405445566086883
 51
294.3410645738775884
  0
ARC
  5
E620
  8
0
 10
979.8352759999240789
 20
140.5222569491226068
 30
0.0
 40
0.1800717023952394
 50
83.6534012640498048
 51
100.2106112915714959
  0
ARC
  5
E621
  8
0
 10
979.8252822645609967
 20
140.8185198688516095
 30
0.0
 40
0.1210456223327018
 50
259.5634303217972843
 51
284.3005822338215012
  0
ARC
  5
E622
  8
0
 10
979.6548508877027643
 20
140.0798622542035901
 30
0.0
 40
0.6120516774775284
 50
80.2370524706815473
 51
104.1031564310452069
  0
LINE
  5
E623
  8
0
 10
979.7116160804778247
 20
140.6892758812190891
 30
0.0
 11
979.7082158299601815
 21
140.6415880775541893
 31
0.0
  0
ARC
  5
E624
  8
0
 10
979.6971973063108408
 20
140.6423737237334137
 30
0.0
 40
0.0110464973331112
 50
292.2389817773301957
 51
355.9215808602182847
  0
ARC
  5
E625
  8
0
 10
979.6802718591064831
 20
140.6837677396806043
 30
0.0
 40
0.0557671337250221
 50
279.1246201244193799
 51
292.2389817773301957
  0
ARC
  5
E626
  8
0
 10
979.6173963264019449
 20
141.0752355899120971
 30
0.0
 40
0.45225220327721
 50
263.5779631285686833
 51
279.1246201244193799
  0
ARC
  5
E627
  8
0
 10
979.5687437511135158
 20
140.6429889647743039
 30
0.0
 40
0.0172760912604069
 50
200.9955944096732026
 51
263.5779631285751066
  0
LINE
  5
E628
  8
0
 10
979.5526146544600579
 20
140.6367990075542025
 30
0.0
 11
979.5478637574941558
 21
140.6824906719475905
 31
0.0
  0
ARC
  5
E629
  8
0
 10
979.5540762323595345
 20
140.8160567112221031
 30
0.0
 40
0.1505693878867596
 50
251.2644341055014934
 51
268.3058904648170824
  0
ARC
  5
E62A
  8
0
 10
979.6634482734264111
 20
140.8934693559725986
 30
0.0
 40
0.2309487748141706
 50
281.6405445566086883
 51
294.3410645738775884
  0
ARC
  5
E62B
  8
0
 10
979.6370199671079035
 20
140.4526789015667987
 30
0.0
 40
0.1800717023952394
 50
83.6534012640498048
 51
100.2106112915714959
  0
ARC
  5
E62C
  8
0
 10
979.6270262317444804
 20
140.7489418212958014
 30
0.0
 40
0.1210456223327018
 50
259.5634303217972843
 51
284.3005822338215012
  0
ARC
  5
E62D
  8
0
 10
979.3685490729675394
 20
140.0224661722153883
 30
0.0
 40
0.6120516774775284
 50
80.2370524706815473
 51
104.1031564310452069
  0
LINE
  5
E62E
  8
0
 10
979.4253142657425997
 20
140.631879799231001
 30
0.0
 11
979.4219140152248428
 21
140.5841919955661012
 31
0.0
  0
ARC
  5
E62F
  8
0
 10
979.4108954915753884
 20
140.5849776417452119
 30
0.0
 40
0.0110464973331112
 50
292.2389817773301957
 51
355.9215808602182847
  0
ARC
  5
E630
  8
0
 10
979.3939700443712582
 20
140.6263716576924026
 30
0.0
 40
0.0557671337250221
 50
279.1246201244193799
 51
292.2389817773301957
  0
ARC
  5
E631
  8
0
 10
979.3310945116664925
 20
141.017839507924009
 30
0.0
 40
0.45225220327721
 50
263.5779631285686833
 51
279.1246201244193799
  0
ARC
  5
E632
  8
0
 10
979.2824419363781772
 20
140.5855928827861021
 30
0.0
 40
0.0172760912604069
 50
200.9955944096732026
 51
263.5779631285751066
  0
LINE
  5
E633
  8
0
 10
979.2663128397249466
 20
140.579402925566086
 30
0.0
 11
979.2615619427587035
 21
140.6250945899595024
 31
0.0
  0
ARC
  5
E634
  8
0
 10
979.2677744176240822
 20
140.7586606292339013
 30
0.0
 40
0.1505693878867596
 50
251.2644341055014934
 51
268.3058904648170824
  0
ARC
  5
E635
  8
0
 10
979.3771464586911861
 20
140.8360732739845105
 30
0.0
 40
0.2309487748141706
 50
281.6405445566086883
 51
294.3410645738775884
  0
ARC
  5
E636
  8
0
 10
979.3507181523724512
 20
140.3952828195787106
 30
0.0
 40
0.1800717023952394
 50
83.6534012640498048
 51
100.2106112915714959
  0
ARC
  5
E637
  8
0
 10
979.3407244170093691
 20
140.6915457393075997
 30
0.0
 40
0.1210456223327018
 50
259.5634303217972843
 51
284.3005822338215012
  0
ARC
  5
E638
  8
0
 10
980.1456678958422799
 20
140.0788069101600115
 30
0.0
 40
0.6120516774775284
 50
80.2370524706815473
 51
104.1031564310452069
  0
LINE
  5
E639
  8
0
 10
980.2024330886172265
 20
140.6882205371755106
 30
0.0
 11
980.1990328380994697
 21
140.6405327335106108
 31
0.0
  0
ARC
  5
E63A
  8
0
 10
980.1880143144503563
 20
140.6413183796898068
 30
0.0
 40
0.0110464973331112
 50
292.2389817773301957
 51
355.9215808602182847
  0
ARC
  5
E63B
  8
0
 10
980.171088867245885
 20
140.6827123956369974
 30
0.0
 40
0.0557671337250221
 50
279.1246201244193799
 51
292.2389817773301957
  0
ARC
  5
E63C
  8
0
 10
980.1082133345412331
 20
141.0741802458684901
 30
0.0
 40
0.45225220327721
 50
263.5779631285686833
 51
279.1246201244193799
  0
ARC
  5
E63D
  8
0
 10
980.059560759252804
 20
140.6419336207306969
 30
0.0
 40
0.0172760912604069
 50
200.9955944096732026
 51
263.5779631285751066
  0
LINE
  5
E63E
  8
0
 10
980.0434316625994597
 20
140.6357436635105955
 30
0.0
 11
980.038680765633444
 21
140.681435327904012
 31
0.0
  0
ARC
  5
E63F
  8
0
 10
980.0448932404988227
 20
140.8150013671784961
 30
0.0
 40
0.1505693878867596
 50
251.2644341055014934
 51
268.3058904648170824
  0
ARC
  5
E640
  8
0
 10
980.154265281565813
 20
140.8924140119289916
 30
0.0
 40
0.2309487748141706
 50
281.6405445566086883
 51
294.3410645738775884
  0
ARC
  5
E641
  8
0
 10
980.1278369752473054
 20
140.4516235575233054
 30
0.0
 40
0.1800717023952394
 50
83.6534012640498048
 51
100.2106112915714959
  0
ARC
  5
E642
  8
0
 10
980.1178432398839959
 20
140.7478864772521945
 30
0.0
 40
0.1210456223327018
 50
259.5634303217972843
 51
284.3005822338215012
  0
LINE
  5
E643
  8
0
 10
981.3403897563269993
 20
140.7564093498201032
 30
0.0
 11
981.3389446660164595
 21
140.717548043701612
 31
0.0
  0
ARC
  5
E644
  8
0
 10
981.3290833502729811
 20
140.7179147450108019
 30
0.0
 40
0.0098681314361445
 50
276.5879008726661823
 51
357.8703895490459104
  0
LINE
  5
E645
  8
0
 10
981.3302154951162493
 20
140.7081117727016135
 30
0.0
 11
981.1965991395663877
 21
140.6944206604015903
 31
0.0
  0
ARC
  5
E646
  8
0
 10
981.1944971385260033
 20
140.7053366670463959
 30
0.0
 40
0.0111165466510137
 50
191.4074421290978023
 51
280.899541922039873
  0
LINE
  5
E647
  8
0
 10
981.2461322360163649
 20
140.7583857807015875
 30
0.0
 11
981.2446537284165515
 21
140.7173901142016064
 31
0.0
  0
ARC
  5
E648
  8
0
 10
981.2346308965163644
 20
140.7177515873621019
 30
0.0
 40
0.0100293480416066
 50
278.6391435392881135
 51
357.9345244651908047
  0
ARC
  5
E649
  8
0
 10
981.5630820177843816
 20
136.7555825383450951
 30
0.0
 40
3.965753453742292
 50
94.7289452634816769
 51
96.7082874970432158
  0
ARC
  5
E64A
  8
0
 10
981.0993412939393465
 20
140.7040811035637091
 30
0.0
 40
0.0099074098139752
 50
188.7839212817034138
 51
272.7980892212387971
  0
LINE
  5
E64B
  8
0
 10
981.0895500854162492
 20
140.7025681578016076
 30
0.0
 11
981.0840322872379602
 21
140.7421374055352032
 31
0.0
  0
ARC
  5
E64C
  8
0
 10
981.2185697476771793
 20
141.1078159093476927
 30
0.0
 40
0.3547189712530367
 50
274.4318020243611045
 51
281.61690197828392
  0
ARC
  5
E64D
  8
0
 10
981.4387940366151497
 20
136.9796354355673884
 30
0.0
 40
3.7836544985143248
 50
92.2537895341485523
 51
92.9187370088290692
  0
ARC
  5
E64E
  8
0
 10
981.7247406216348509
 20
135.1268728591720105
 30
0.0
 40
5.65181007017945
 50
94.8577587746656263
 51
96.5093930392177413
  0
ARC
  5
E64F
  8
0
 10
981.1079046104905501
 20
140.4343232224354097
 30
0.0
 40
0.3088492604677242
 50
94.4359159479391508
 51
102.506724826816793
  0
ARC
  5
E650
  8
0
 10
981.0507189514835318
 20
141.0524850630092999
 30
0.0
 40
0.3167898354072056
 50
268.2459005898286932
 51
276.1534389762512092
  0
LINE
  5
E651
  8
0
 10
981.08563570963031
 20
140.7306325296626142
 30
0.0
 11
980.9657218375758703
 21
140.7190122092102911
 31
0.0
  0
LINE
  5
E652
  8
0
 10
980.9673296134208158
 20
140.7597499746437961
 30
0.0
 11
980.9657218375749608
 21
140.7190122092102058
 31
0.0
  0
ARC
  5
E653
  8
0
 10
980.9524543390168674
 20
140.7195358305598063
 30
0.0
 40
0.0132778272810456
 50
292.0489808106394207
 51
357.7399107215459253
  0
ARC
  5
E654
  8
0
 10
980.8025937276798913
 20
141.6176578131565122
 30
0.0
 40
0.9235028127550643
 50
271.1480541619328051
 51
279.6524622524004258
  0
ARC
  5
E655
  8
0
 10
980.8239314059137541
 20
140.7085918235279109
 30
0.0
 40
0.014530563458094
 50
201.8475041146784861
 51
258.7515356036897742
  0
LINE
  5
E656
  8
0
 10
980.8104444623163545
 20
140.7031844557016029
 30
0.0
 11
980.8047677632664545
 21
140.744531461301591
 31
0.0
  0
ARC
  5
E657
  8
0
 10
981.1187134013307514
 20
138.2668515600622925
 30
0.0
 40
2.4974906519674178
 50
93.4750769693221031
 51
97.2214375157913508
  0
ARC
  5
E658
  8
0
 10
980.9898317682127526
 20
140.3891978383811079
 30
0.0
 40
0.3712347406414648
 50
86.7007676621411747
 51
93.4750769693221031
  0
ARC
  5
E659
  8
0
 10
980.8074044826170166
 20
141.6225150862306918
 30
0.0
 40
0.8864415954384224
 50
280.3699342382074065
 51
283.2911288655182034
  0
ARC
  5
E65A
  8
0
 10
980.8247124572989151
 20
140.5317065743882097
 30
0.0
 40
0.2137573935791566
 50
95.3537863847974165
 51
108.8918387260384009
  0
ARC
  5
E65B
  8
0
 10
980.7805055832511698
 20
140.9615541345636984
 30
0.0
 40
0.2289742793138378
 50
263.7307810507801946
 51
276.4455357217673281
  0
ARC
  5
E65C
  8
0
 10
980.9348441324304986
 20
140.2495862267037978
 30
0.0
 40
0.4548706688163651
 50
92.5493840254048905
 51
99.2229150446316197
  0
ARC
  5
E65D
  8
0
 10
980.8556307398622494
 20
141.0179348770122942
 30
0.0
 40
0.3194207420512756
 50
271.1316641163268741
 51
280.6406349537111851
  0
LINE
  5
E65E
  8
0
 10
980.8102702435942319
 20
140.704460493331311
 30
0.0
 11
980.5054261512958647
 21
140.6777734153633048
 31
0.0
  0
LINE
  5
E65F
  8
0
 10
980.3469156875877388
 20
140.664512942471589
 30
0.0
 11
980.1999153733954699
 21
140.6529101067939962
 31
0.0
  0
LINE
  5
E660
  8
0
 10
980.3456249972543901
 20
140.6751368528703097
 30
0.0
 11
980.3504226981109468
 21
140.6358152913819879
 31
0.0
  0
ARC
  5
E661
  8
0
 10
980.360351946101332
 20
140.6370267784081136
 30
0.0
 40
0.010002882907795
 50
186.9563867169065929
 51
276.4516371125861269
  0
ARC
  5
E662
  8
0
 10
980.3002888442725862
 20
142.1640707348738886
 30
0.0
 40
1.53820093333464
 50
272.2797321467614893
 51
277.2822779882317263
  0
ARC
  5
E663
  8
0
 10
980.4947482334905544
 20
140.6478391157197905
 30
0.0
 40
0.0095758261429609
 50
273.110373022405895
 51
358.1330820499586025
  0
LINE
  5
E664
  8
0
 10
980.504318976716263
 20
140.6475271535016134
 30
0.0
 11
980.5056508857383051
 21
140.688389022356489
 31
0.0
  0
ARC
  5
E665
  8
0
 10
980.4903681274805649
 20
140.9854501548227859
 30
0.0
 40
0.3015588719450703
 50
272.8794183842505277
 51
281.4212124026381048
  0
ARC
  5
E666
  8
0
 10
980.5418455392803025
 20
140.2722366404989884
 30
0.0
 40
0.4177073621968643
 50
88.8700317705440597
 51
94.9710283544368536
  0
ARC
  5
E667
  8
0
 10
980.8679486186919121
 20
135.3341457028359969
 30
0.0
 40
5.3664707611480207
 50
93.8710659487090737
 51
95.5854944818664336
  0
ARC
  5
E668
  8
0
 10
980.3924930609407511
 20
140.1292940067401105
 30
0.0
 40
0.5478512827996818
 50
94.9075883512203546
 51
99.4344086852669733
  0
ARC
  5
E669
  8
0
 10
980.3243666352647097
 20
141.3271030337949128
 30
0.0
 40
0.6577253262672955
 50
268.1113754710229955
 51
271.9093043854689995
  0
ARC
  5
E66A
  8
0
 10
980.4733884685495013
 20
140.117564312372906
 30
0.0
 40
0.5182009797955068
 50
92.3244233479062189
 51
97.8375081527422168
  0
ARC
  5
E66B
  8
0
 10
980.399229226779994
 20
140.9516316447493978
 30
0.0
 40
0.3207260259665746
 50
270.6244119753254154
 51
279.5375195253233755
  0
ARC
  5
E66C
  8
0
 10
980.4647036847346726
 20
140.6369879520927952
 30
0.0
 40
0.0100849224269935
 50
199.1025708889179953
 51
283.5161423364478992
  0
LINE
  5
E66D
  8
0
 10
980.4670607258162818
 20
140.6271823405515988
 30
0.0
 11
980.5996565066163839
 21
140.6384551214015914
 31
0.0
  0
ARC
  5
E66E
  8
0
 10
980.5987899146272184
 20
140.6482617658072058
 30
0.0
 40
0.0098474041766381
 50
273.5441895502614216
 51
358.0007425416436035
  0
LINE
  5
E66F
  8
0
 10
980.6086313244843495
 20
140.6479182239002057
 30
0.0
 11
980.6099930541400909
 21
140.6869275540184105
 31
0.0
  0
LINE
  5
E670
  8
0
 10
979.8791787828164388
 20
140.6294826950015988
 30
0.0
 11
979.8778342783164135
 21
140.5909811961016089
 31
0.0
  0
ARC
  5
E671
  8
0
 10
979.8679955565188493
 20
140.5913247724845974
 30
0.0
 40
0.0098447189569497
 50
273.9823842943857812
 51
357.999996236871084
  0
LINE
  5
E672
  8
0
 10
979.8686792699597845
 20
140.5815038240949093
 30
0.0
 11
979.7363506488495659
 21
140.5722913882601119
 31
0.0
  0
ARC
  5
E673
  8
0
 10
979.7356350826167954
 20
140.5825698742760039
 30
0.0
 40
0.0103033640046127
 50
202.884754482586402
 51
273.9823842943857812
  0
LINE
  5
E674
  8
0
 10
979.7634993063621778
 20
140.6310288721016093
 30
0.0
 11
979.7619893543162561
 21
140.5907829820015991
 31
0.0
  0
ARC
  5
E675
  8
0
 10
979.7521099277159919
 20
140.5911536399835882
 30
0.0
 40
0.0098863773594389
 50
273.9372885048513808
 51
357.8513751132068137
  0
ARC
  5
E676
  8
0
 10
979.7002782141890975
 20
140.9627683276520997
 30
0.0
 40
0.3850748213849788
 50
273.8513108991971876
 51
277.8375330104698264
  0
ARC
  5
E677
  8
0
 10
979.5765836172882928
 20
142.3244787379886986
 30
0.0
 40
1.7523097006211821
 50
271.4203837071131034
 51
274.8961337249402277
  0
ARC
  5
E678
  8
0
 10
979.6202922323534494
 20
140.5835912745027088
 30
0.0
 40
0.0108872273919457
 50
190.7221620465111869
 51
268.5649620272349125
  0
LINE
  5
E679
  8
0
 10
979.6095950860760695
 20
140.5815657420270099
 30
0.0
 11
979.6056484745164425
 21
140.6208026320016131
 31
0.0
  0
ARC
  5
E67A
  8
0
 10
978.2081155811603139
 20
158.4252549478601964
 30
0.0
 40
17.8592194730515104
 50
274.4881412373463263
 51
274.6007596280770144
  0
ARC
  5
E67B
  8
0
 10
979.6749053594214729
 20
139.7384765246152085
 30
0.0
 40
0.8850372498240762
 50
94.4881412373463831
 51
97.4503136590276284
  0
ARC
  5
E67C
  8
0
 10
979.5777081179315928
 20
142.0543031279918864
 30
0.0
 40
1.4383683426679781
 50
269.300407113363292
 51
271.1313604440005065
  0
ARC
  5
E67D
  8
0
 10
977.7836831276888461
 20
159.054389258075588
 30
0.0
 40
18.533245708192009
 50
276.1318805212534926
 51
276.2656680216837231
  0
ARC
  5
E67E
  8
0
 10
979.813688984748751
 20
139.1324734724925065
 30
0.0
 40
1.4993956414215719
 50
90.2794049300693757
 51
91.9182355529471238
  0
ARC
  5
E67F
  8
0
 10
980.180193471516759
 20
132.6184554604438119
 30
0.0
 40
8.0234011930402751
 50
92.9769872060032867
 51
93.7220407046595056
  0
LINE
  5
E680
  8
0
 10
979.7631467788637565
 20
140.6216326909460008
 30
0.0
 11
979.8791787828164388
 21
140.6294826950015988
 31
0.0
  0
LINE
  5
E681
  8
0
 10
979.8791787828164388
 20
140.6294826950015988
 30
0.0
 11
980.0428764084772411
 21
140.64108380984311
 31
0.0
  0
LINE
  5
E682
  8
0
 10
979.6066033985752028
 20
140.6113088549566896
 30
0.0
 11
979.4230468333362296
 21
140.6000795330853919
 31
0.0
  0
LINE
  5
E683
  8
0
 10
979.2650906015726378
 20
140.5911577785678901
 30
0.0
 11
979.0201071867163591
 21
140.5785467071015944
 31
0.0
  0
LINE
  5
E684
  8
0
 10
978.8892219417474507
 20
140.580429658225313
 30
0.0
 11
979.0204353074861956
 21
140.586359480751014
 31
0.0
  0
ARC
  5
E685
  8
0
 10
979.0513048029990841
 20
139.9032883791527979
 30
0.0
 40
0.6837682762396808
 50
88.9743733324134496
 51
92.5875625392631179
  0
ARC
  5
E686
  8
0
 10
978.9417515624031694
 20
141.5135974959557075
 30
0.0
 40
0.9346198881355126
 50
274.8202031197163819
 51
277.4876366017123246
  0
LINE
  5
E687
  8
0
 10
979.0204353995162592
 20
140.5863620092015935
 30
0.0
 11
979.018986218236364
 21
140.5465469732216945
 31
0.0
  0
ARC
  5
E688
  8
0
 10
979.0091226701711093
 20
140.5469059850587996
 30
0.0
 40
0.0098700795301244
 50
272.8685353380906804
 51
357.9154776284581772
  0
ARC
  5
E689
  8
0
 10
978.8578651289468553
 20
142.3601143342235957
 30
0.0
 40
1.8293710332066719
 50
270.6340521114727267
 51
274.7583142318381988
  0
ARC
  5
E68A
  8
0
 10
978.8776747097432462
 20
140.540709944515811
 30
0.0
 40
0.0098641979199622
 50
184.8676110723664863
 51
272.5238310052222914
  0
LINE
  5
E68B
  8
0
 10
978.8678460878162468
 20
140.5398729310016108
 30
0.0
 11
978.8649678359907966
 21
140.5736707712098905
 31
0.0
  0
ARC
  5
E68C
  8
0
 10
978.9650256830640274
 20
140.0719112641841946
 30
0.0
 40
0.4637422237899886
 50
89.6480649921252422
 51
95.9472701898561837
  0
ARC
  5
E68D
  8
0
 10
978.852234816583632
 20
142.3800138613912054
 30
0.0
 40
1.8479907782671581
 50
272.0076666400080967
 51
273.5876685419730734
  0
ARC
  5
E68E
  8
0
 10
979.0060455096981968
 20
140.5402868396199949
 30
0.0
 40
0.009648687224267
 50
205.9147695204019044
 51
273.249742123559372
  0
LINE
  5
E68F
  8
0
 10
979.006592477316417
 20
140.5306536682016088
 30
0.0
 11
979.1380506611354804
 21
140.5381178112724001
 31
0.0
  0
ARC
  5
E690
  8
0
 10
979.137481916961633
 20
140.5481345105023934
 30
0.0
 40
0.0100328327705082
 50
273.249742123559372
 51
352.1184989758692723
  0
LINE
  5
E691
  8
0
 10
979.1474199774675071
 20
140.546758760967208
 30
0.0
 11
979.1487867717587505
 21
140.585170777731804
 31
0.0
  0
ARC
  5
E692
  8
0
 10
977.9009744085293505
 20
140.1061487442077862
 30
0.0
 40
0.4483382687996734
 50
86.2319129387249603
 51
91.2535277424074707
  0
ARC
  5
E693
  8
0
 10
977.2087228067530305
 20
171.7422787522195904
 30
0.0
 40
31.1953646460614493
 50
270.9714474430736004
 51
271.2535277424075275
  0
ARC
  5
E694
  8
0
 10
977.7436016183522725
 20
140.1982544389923078
 30
0.0
 40
0.353194199257816
 50
90.9714474430736146
 51
97.779273031986591
  0
ARC
  5
E695
  8
0
 10
977.7332526726542028
 20
140.8071907700137899
 30
0.0
 40
0.2616874318625803
 50
261.7703087706041742
 51
271.0455376979917901
  0
LINE
  5
E696
  8
0
 10
977.7376892442540566
 20
140.5513991572364887
 30
0.0
 11
977.7399934197162565
 21
140.5114541037015954
 31
0.0
  0
ARC
  5
E697
  8
0
 10
977.7499984504869417
 20
140.512031230138092
 30
0.0
 40
0.0100216623193994
 50
183.3013698052099869
 51
264.8457103170040909
  0
ARC
  5
E698
  8
0
 10
977.7861507150840907
 20
141.8233385250944139
 30
0.0
 40
1.321807860155517
 50
268.3936884617552892
 51
274.0686926386924256
  0
ARC
  5
E699
  8
0
 10
977.8784475522629691
 20
140.5159940207354907
 30
0.0
 40
0.0112310970913036
 50
277.61667078343919
 51
351.3520272860905038
  0
LINE
  5
E69A
  8
0
 10
977.8895509611163561
 20
140.5143052775015917
 30
0.0
 11
977.8911663628164206
 21
140.5543797176015914
 31
0.0
  0
LINE
  5
E69B
  8
0
 10
977.8909722968679716
 20
140.5495507539523032
 30
0.0
 11
977.8986045922058565
 21
140.550262838262114
 31
0.0
  0
LINE
  5
E69C
  8
0
 10
977.8986045922058565
 20
140.550262838262114
 30
0.0
 11
977.930528012219952
 21
140.552267367583994
 31
0.0
  0
ARC
  5
E69D
  8
0
 10
977.8255310253764492
 20
140.00897491262279
 30
0.0
 40
0.4958280588269463
 50
88.24243154376272
 51
94.3921521425958758
  0
ARC
  5
E69E
  8
0
 10
977.8070898232598438
 20
140.8109360569924888
 30
0.0
 40
0.3082086347126791
 50
266.3668531762236853
 51
276.267730510138108
  0
LINE
  5
E6A0
  8
0
 10
978.647005853383348
 20
140.5597034097852998
 30
0.0
 11
978.8653925549408541
 21
140.5686835136384047
 31
0.0
  0
LINE
  5
E6A1
  8
0
 10
975.0185438222249559
 20
140.5687377907296991
 30
0.0
 11
975.2367901769235914
 21
140.5616069186440029
 31
0.0
  0
LINE
  5
E6A2
  8
0
 10
976.0757231622458221
 20
142.2231839692925917
 30
0.0
 11
977.8085659139675272
 21
142.2231839692925917
 31
0.0
  0
ENDSEC
  0
EOF
