  0
SECTION
  2
HEADER
  9
$ACADVER
  1
AC1009
  9
$INSBASE
 10
4787.7342197358748308
 20
51.6984825048231329
 30
0.0
  9
$EXTMIN
 10
4766.6231172377747498
 20
48.3258930847730213
 30
0.0
  9
$EXTMAX
 10
4809.3485898145745523
 20
55.6827344733737206
 30
0.0
  9
$LIMMIN
 10
0.0
 20
0.0
  9
$LIMMAX
 10
11.6929133858000007
 20
8.2677165353999982
  9
$ORTHOMODE
 70
     0
  9
$REGENMODE
 70
     1
  9
$FILLMODE
 70
     1
  9
$QTEXTMODE
 70
     0
  9
$MIRRTEXT
 70
     0
  9
$DRAGMODE
 70
     2
  9
$LTSCALE
 40
0.6431102362
  9
$OSMODE
 70
  4095
  9
$ATTMODE
 70
     1
  9
$TEXTSIZE
 40
0.2
  9
$TRACEWID
 40
0.05
  9
$TEXTSTYLE
  7
STANDARD
  9
$CLAYER
  8
0
  9
$CELTYPE
  6
BYLAYER
  9
$CECOLOR
 62
   256
  9
$DIMSCALE
 40
1.0
  9
$DIMASZ
 40
0.1875
  9
$DIMEXO
 40
0.0625
  9
$DIMDLI
 40
0.4443307087
  9
$DIMRND
 40
0.0
  9
$DIMDLE
 40
0.0
  9
$DIMEXE
 40
0.125
  9
$DIMTP
 40
0.01
  9
$DIMTM
 40
0.01
  9
$DIMTXT
 40
2.0
  9
$DIMCEN
 40
0.1052362205
  9
$DIMTSZ
 40
0.0
  9
$DIMTOL
 70
     1
  9
$DIMLIM
 70
     0
  9
$DIMTIH
 70
     1
  9
$DIMTOH
 70
     1
  9
$DIMSE1
 70
     0
  9
$DIMSE2
 70
     0
  9
$DIMTAD
 70
     0
  9
$DIMZIN
 70
     0
  9
$DIMBLK
  1

  9
$DIMASO
 70
     1
  9
$DIMSHO
 70
     1
  9
$DIMPOST
  1
\X
  9
$DIMAPOST
  1

  9
$DIMALT
 70
     1
  9
$DIMALTD
 70
     2
  9
$DIMALTF
 40
25.3999999999999986
  9
$DIMLFAC
 40
1.0
  9
$DIMTOFL
 70
     0
  9
$DIMTVP
 40
0.0
  9
$DIMTIX
 70
     0
  9
$DIMSOXD
 70
     0
  9
$DIMSAH
 70
     0
  9
$DIMBLK1
  1

  9
$DIMBLK2
  1

  9
$DIMSTYLE
  2
STANDARD
  9
$DIMCLRD
 70
     0
  9
$DIMCLRE
 70
     0
  9
$DIMCLRT
 70
     0
  9
$DIMTFAC
 40
1.0
  9
$DIMGAP
 40
0.09
  9
$LUNITS
 70
     2
  9
$LUPREC
 70
     4
  9
$SKETCHINC
 40
0.1
  9
$FILLETRAD
 40
0.0
  9
$AUNITS
 70
     0
  9
$AUPREC
 70
     0
  9
$MENU
  1
.
  9
$ELEVATION
 40
0.0
  9
$PELEVATION
 40
0.0
  9
$THICKNESS
 40
0.0
  9
$LIMCHECK
 70
     0
  9
$BLIPMODE
 70
     0
  9
$CHAMFERA
 40
0.0
  9
$CHAMFERB
 40
0.0
  9
$SKPOLY
 70
     0
  9
$TDCREATE
 40
2458060.468368056230247
  9
$TDUPDATE
 40
2459180.6319328700192273
  9
$TDINDWG
 40
0.5463033564999999
  9
$TDUSRTIMER
 40
0.5463033564999999
  9
$USRTIMER
 70
     1
  9
$ANGBASE
 50
0.0
  9
$ANGDIR
 70
     0
  9
$PDMODE
 70
     0
  9
$PDSIZE
 40
0.3125
  9
$PLINEWID
 40
0.0
  9
$COORDS
 70
     0
  9
$SPLFRAME
 70
     0
  9
$SPLINETYPE
 70
     6
  9
$SPLINESEGS
 70
     8
  9
$ATTDIA
 70
     1
  9
$ATTREQ
 70
     1
  9
$HANDLING
 70
     1
  9
$HANDSEED
  5
EA28
  9
$SURFTAB1
 70
     6
  9
$SURFTAB2
 70
     6
  9
$SURFTYPE
 70
     6
  9
$SURFU
 70
     6
  9
$SURFV
 70
     6
  9
$UCSNAME
  2

  9
$UCSORG
 10
0.0
 20
0.0
 30
0.0
  9
$UCSXDIR
 10
1.0
 20
0.0
 30
0.0
  9
$UCSYDIR
 10
0.0
 20
1.0
 30
0.0
  9
$PUCSNAME
  2

  9
$PUCSORG
 10
0.0
 20
0.0
 30
0.0
  9
$PUCSXDIR
 10
1.0
 20
0.0
 30
0.0
  9
$PUCSYDIR
 10
0.0
 20
1.0
 30
0.0
  9
$USERI1
 70
     0
  9
$USERI2
 70
     0
  9
$USERI3
 70
     0
  9
$USERI4
 70
     0
  9
$USERI5
 70
     0
  9
$USERR1
 40
0.0
  9
$USERR2
 40
0.0
  9
$USERR3
 40
0.0
  9
$USERR4
 40
0.0
  9
$USERR5
 40
0.0
  9
$WORLDVIEW
 70
     1
  9
$SHADEDGE
 70
     3
  9
$SHADEDIF
 70
    70
  9
$TILEMODE
 70
     1
  9
$MAXACTVP
 70
    64
  9
$PLIMCHECK
 70
     0
  9
$PEXTMIN
 10
1.0000000000000000E+20
 20
1.0000000000000000E+20
 30
1.0000000000000000E+20
  9
$PEXTMAX
 10
-1.0000000000000000E+20
 20
-1.0000000000000000E+20
 30
-1.0000000000000000E+20
  9
$PLIMMIN
 10
0.0
 20
0.0
  9
$PLIMMAX
 10
12.0
 20
9.0
  9
$UNITMODE
 70
     0
  9
$VISRETAIN
 70
     1
  9
$PLINEGEN
 70
     0
  9
$PSLTSCALE
 70
     1
  0
ENDSEC
  0
SECTION
  2
TABLES
  0
TABLE
  2
VPORT
 70
     1
  0
VPORT
  2
*ACTIVE
 70
     0
 10
0.0
 20
0.0
 11
1.0
 21
1.0
 12
0.0
 22
0.0
 13
0.0
 23
0.0
 14
1.0
 24
1.0
 15
0.0
 25
0.0
 16
0.0
 26
0.0
 36
159.2546229292628084
 17
4787.986083984375
 27
52.0043144226074219
 37
0.0
 40
43.3538590502916392
 41
2.888719512195121
 42
50.0
 43
0.0
 44
0.0
 50
0.0
 51
0.0
 71
     0
 72
   100
 73
     1
 74
     1
 75
     0
 76
     0
 77
     0
 78
     0
  0
ENDTAB
  0
TABLE
  2
LTYPE
 70
     2
  0
LTYPE
  2
CONTINUOUS
 70
     0
  3
Solid line
 72
    65
 73
     0
 40
0.0
  0
LTYPE
  2
PHANTOM2
 70
     0
  3
___ _ _ ___ _ _ ___ _ _ ___ _ _
 72
    65
 73
     6
 40
1.25
 49
0.625
 49
-0.125
 49
0.125
 49
-0.125
 49
0.125
 49
-0.125
  0
ENDTAB
  0
TABLE
  2
LAYER
 70
     2
  0
LAYER
  2
0
 70
     0
 62
   255
  6
CONTINUOUS
  0
LAYER
  2
DEFPOINTS
 70
     0
 62
     7
  6
CONTINUOUS
  0
ENDTAB
  0
TABLE
  2
STYLE
 70
     1
  0
STYLE
  2
STANDARD
 70
     0
 40
0.0
 41
0.8
 50
0.0
 71
     0
 42
0.2
  3
txt
  4

  0
ENDTAB
  0
TABLE
  2
VIEW
 70
     0
  0
ENDTAB
  0
TABLE
  2
UCS
 70
     0
  0
ENDTAB
  0
TABLE
  2
APPID
 70
     9
  0
APPID
  2
ACAD
 70
     0
  0
APPID
  2
ACAD_MLEADERVER
 70
     0
  0
APPID
  2
ACAD_EXEMPT_FROM_CAD_STANDARDS
 70
     0
  0
APPID
  2
ACAD_NAV_VCDISPLAY
 70
     0
  0
APPID
  2
ACAECLAYERSTANDARD
 70
     0
  0
APPID
  2
ACCMTRANSPARENCY
 70
     0
  0
APPID
  2
ACAD_DSTYLE_DIMJAG
 70
     0
  0
APPID
  2
ACAD_DSTYLE_DIMTALN
 70
     0
  0
APPID
  2
ACDBATTR
 70
     0
  0
ENDTAB
  0
TABLE
  2
DIMSTYLE
 70
     1
  0
DIMSTYLE
  2
STANDARD
 70
     0
  3

  4

  5

  6

  7

 40
1.0
 41
0.1875
 42
0.0625
 43
0.38
 44
0.125
 45
0.0
 46
0.0
 47
0.01
 48
0.01
140
0.15625
141
0.09
142
0.0
143
25.3999999999999986
144
1.0
145
0.0
146
1.0
147
0.09
 71
     1
 72
     0
 73
     1
 74
     1
 75
     0
 76
     0
 77
     0
 78
     4
170
     0
171
     2
172
     0
173
     0
174
     0
175
     0
176
     0
177
     0
178
     0
  0
ENDTAB
  0
ENDSEC
  0
SECTION
  2
BLOCKS
  0
BLOCK
  8
0
  2
$MODEL_SPACE
 70
     0
 10
0.0
 20
0.0
 30
0.0
  3
$MODEL_SPACE
  1

  0
ENDBLK
  5
21
  8
0
  0
BLOCK
 67
     1
  8
0
  2
$PAPER_SPACE
 70
     0
 10
0.0
 20
0.0
 30
0.0
  3
$PAPER_SPACE
  1

  0
ENDBLK
  5
1D
 67
     1
  8
0
  0
BLOCK
  8
0
  2
_FILLED
 70
     0
 10
0.0
 20
0.0
 30
0.0
  3
_FILLED
  1

  0
SOLID
  5
C857
  8
0
  6
BYBLOCK
 62
     0
 10
0.0
 20
0.0
 30
0.0
 11
-1.0
 21
0.1666666667
 31
0.0
 12
-1.0
 22
-0.1666666667
 32
0.0
 13
-1.0
 23
-0.1666666667
 33
0.0
  0
ENDBLK
  5
C858
  8
0
  6
BYBLOCK
 62
     0
  0
ENDSEC
  0
SECTION
  2
ENTITIES
  0
ATTDEF
  5
3930
  8
DEFPOINTS
 10
4787.7364225513483689
 20
51.6994871895697088
 30
0.0
 40
0.001
  1
K-76559T-L
  3

  2
MODELNUMBER
 70
     0
1001
ACDBATTR
1070
     0
1070
     1
  0
ATTDEF
  5
3931
  8
DEFPOINTS
 10
4787.7364225513483689
 20
51.6978205229030507
 30
0.0
 40
0.001
  1
NEW MEMOIRS
  3

  2
TRADENAME
 70
     0
1001
ACDBATTR
1070
     0
1070
     1
  0
ATTDEF
  5
3932
  8
DEFPOINTS
 10
4787.7364225513483689
 20
51.6961538562363785
 30
0.0
 40
0.001
  1
SHOWER DOOR
  3

  2
PRODUCT
 70
     0
1001
ACDBATTR
1070
     0
1070
     1
  0
LINE
  5
E2DC
  8
0
 10
4778.2855976885748532
 20
55.6827344732737117
 30
0.0
 11
4776.7107945389743691
 21
55.6827344732737117
 31
0.0
  0
LINE
  5
E2DD
  8
0
 10
4768.6399283972750709
 20
55.6827344733737206
 30
0.0
 11
4766.6714244602735562
 21
55.6827344733737206
 31
0.0
  0
LINE
  5
E2DE
  8
0
 10
4778.2855976885748532
 20
54.1079313236737107
 30
0.0
 11
4776.7107945389743691
 21
54.1079313236737107
 31
0.0
  0
LINE
  5
E2DF
  8
0
 10
4768.6399283972750709
 20
54.1079313237737125
 30
0.0
 11
4766.6714244602735562
 21
54.1079313237737125
 31
0.0
  0
LINE
  5
E2E0
  8
0
 10
4776.7107945389743691
 20
50.9189549457736916
 30
0.0
 11
4778.2855976885748532
 21
50.918954945773713
 31
0.0
  0
LINE
  5
E2E1
  8
0
 10
4806.8285110743745463
 20
55.4858840796737312
 30
0.0
 11
4778.2855976885748532
 21
55.4858840796737312
 31
0.0
  0
LINE
  5
E2E2
  8
0
 10
4776.7107945389743691
 20
55.4858840796737027
 30
0.0
 11
4768.6399283972750709
 21
55.4858840796737169
 31
0.0
  0
LINE
  5
E2E3
  8
0
 10
4806.8285110743745463
 20
54.3047817174737304
 30
0.0
 11
4778.2855976885748532
 21
54.3047817174737375
 31
0.0
  0
LINE
  5
E2E4
  8
0
 10
4776.7107945389743691
 20
54.3047817174737304
 30
0.0
 11
4768.6399283972750709
 21
54.3047817174737091
 31
0.0
  0
LINE
  5
E2E5
  8
0
 10
4767.2619064493892438
 20
51.745726599373711
 30
0.0
 11
4776.7107945389743691
 21
51.7457265993736968
 31
0.0
  0
LINE
  5
E2E6
  8
0
 10
4778.2855976885748532
 20
51.7457265993736968
 30
0.0
 11
4781.3958339090750087
 21
51.7457265993736968
 31
0.0
  0
LINE
  5
E2E7
  8
0
 10
4767.2619064493892438
 20
51.4307659693737094
 30
0.0
 11
4776.7107945389743691
 21
51.4307659693737023
 31
0.0
  0
LINE
  5
E2E8
  8
0
 10
4778.2855976885748532
 20
51.4307659693737023
 30
0.0
 11
4781.3958339090750087
 21
51.4307659693737023
 31
0.0
  0
LINE
  5
E2E9
  8
0
 10
4781.496039433875012
 20
51.7768641663737128
 30
0.0
 11
4781.496039433875012
 21
51.3996284022737129
 31
0.0
  0
ARC
  5
E2EA
  8
0
 10
4781.4684782658869153
 20
51.3996304856838293
 30
0.0
 40
0.0275611680668014
 50
270.0839105502666939
 51
359.9956688842746075
  0
LINE
  5
E2EB
  8
0
 10
4768.7895346964751297
 20
51.352025811873709
 30
0.0
 11
4767.1517384422750183
 21
51.352025811873709
 31
0.0
  0
LINE
  5
E2EC
  8
0
 10
4766.9470150114739226
 20
53.0055691189737104
 30
0.0
 11
4766.9470150114739226
 21
52.1578674139444018
 31
0.0
  0
LINE
  5
E2ED
  8
0
 10
4766.6714244602735562
 20
53.478010063873711
 30
0.0
 11
4766.7432149718742949
 21
53.478010063873711
 31
0.0
  0
ARC
  5
E2EE
  8
0
 10
4766.7433012953997604
 20
53.4655500008959095
 30
0.0
 40
0.0124603619996394
 50
31.7140581950033607
 51
90.3969397700250141
  0
ARC
  5
E2EF
  8
0
 10
4765.6871723596996162
 20
52.8018067232767976
 30
0.0
 40
1.2598426548343471
 50
7.497699690884355
 51
32.1437563717791122
  0
ARC
  5
E2F0
  8
0
 10
4765.6871724917746178
 20
52.8018067553736898
 30
0.0
 40
1.2598425197003169
 50
0.0000000000016284
 51
7.4976990274237281
  0
LINE
  5
E2F1
  8
0
 10
4766.9470150114739226
 20
53.0055691189737104
 30
0.0
 11
4766.9863850901747355
 21
53.0055691189737104
 31
0.0
  0
ARC
  5
E2F2
  8
0
 10
4766.9863850817573621
 20
52.9858840712562724
 30
0.0
 40
0.0196850478174664
 50
0.0000244999985575
 51
89.9999754999167436
  0
LINE
  5
E2F3
  8
0
 10
4767.0060701295742547
 20
52.9858840796737169
 30
0.0
 11
4767.0060701295742547
 21
52.1787996990737213
 31
0.0
  0
ARC
  5
E2F4
  8
0
 10
4766.986382856446653
 20
52.1787996990737213
 30
0.0
 40
0.0196872731267277
 50
270.0065008045202148
 51
359.9999999999951115
  0
ARC
  5
E2F5
  8
0
 10
4767.0060819994132544
 20
52.1591379578438179
 30
0.0
 40
0.0590806511975423
 50
181.2322547896779099
 51
270.0121456808043945
  0
LINE
  5
E2F6
  8
0
 10
4767.0060694391750076
 20
52.1000587282737087
 30
0.0
 11
4768.1212054031748266
 21
52.1000573079737066
 31
0.0
  0
ARC
  5
E2F7
  8
0
 10
4768.1212037997138395
 20
50.8411152842199101
 30
0.0
 40
1.2589420237548239
 50
57.8964734231116793
 51
89.9999270248648457
  0
ARC
  5
E2F8
  8
0
 10
4768.7819632485443435
 20
51.8943120917880094
 30
0.0
 40
0.0156292856683158
 50
8.7961663313609701
 51
57.8964734231084321
  0
LINE
  5
E2F9
  8
0
 10
4766.7432149718742949
 20
51.9754132422737172
 30
0.0
 11
4766.7432149718742949
 21
53.478010063873711
 31
0.0
  0
ARC
  5
E2FA
  8
0
 10
4766.820318295078323
 20
51.9733605873290685
 30
0.0
 40
0.0771306417960716
 50
178.4750130174826097
 51
271.5251083502446932
  0
LINE
  5
E2FB
  8
0
 10
4766.8223711285745594
 20
51.8962572686737218
 30
0.0
 11
4768.7777236728743446
 21
51.8962572029737075
 31
0.0
  0
ARC
  5
E2FC
  8
0
 10
4766.7501646183027333
 20
51.9032069148028867
 30
0.0
 40
0.0787401580291807
 50
180.0000003850634869
 51
270.0000032229120848
  0
LINE
  5
E2FD
  8
0
 10
4766.750164622732882
 20
51.8244667567737167
 30
0.0
 11
4768.7974087121738194
 21
51.8244668719325432
 31
0.0
  0
ARC
  5
E2FE
  8
0
 10
4768.777891403187823
 20
51.9765528673773431
 30
0.0
 40
0.0802958395900894
 50
269.8803145200653262
 51
276.7635884161581998
  0
ARC
  5
E2FF
  8
0
 10
4768.7920740761546767
 20
51.8698374606844084
 30
0.0
 40
0.0273891974437906
 50
78.7686224033757441
 51
99.9360977356062818
  0
LINE
  5
E300
  8
0
 10
4768.749773436097712
 20
51.278627990323713
 30
0.0
 11
4766.6714244602735562
 21
51.278627990323713
 31
0.0
  0
LINE
  5
E301
  8
0
 10
4766.9863850902856939
 20
52.1591124260737189
 30
0.0
 11
4766.9470150114739226
 21
52.1591124260737189
 31
0.0
  0
LINE
  5
E302
  8
0
 10
4766.9647617923146754
 20
52.1169104332739082
 30
0.0
 11
4766.7657787529924462
 21
51.918820929713128
 31
0.0
  0
LINE
  5
E303
  8
0
 10
4768.7497152646737959
 20
51.2786093653737112
 30
0.0
 11
4768.7777107930651255
 21
51.287646102917968
 31
0.0
  0
LINE
  5
E304
  8
0
 10
4768.7777107930651255
 20
51.287646102917968
 30
0.0
 11
4768.7777236728743446
 21
51.352025811873709
 31
0.0
  0
ARC
  5
E305
  8
0
 10
4768.7895346964751297
 20
51.344151796173719
 30
0.0
 40
0.0078740157000041
 50
0.0000218172592059
 51
90.0000000470034109
  0
ARC
  5
E306
  8
0
 10
4766.6910279963249195
 20
50.8457417595958532
 30
0.0
 40
0.0196168337342747
 50
182.1097728302738119
 51
276.1024046280317066
  0
ARC
  5
E307
  8
0
 10
4765.6079278980050731
 20
61.1154766574986397
 30
0.0
 40
10.3463084763939595
 50
276.0206128894668041
 51
278.1575012394378064
  0
ARC
  5
E308
  8
0
 10
4765.6097516010677282
 20
61.1018666963704078
 30
0.0
 40
10.3325774511237007
 50
278.1581995492358033
 51
287.7265895822848734
  0
ARC
  5
E309
  8
0
 10
4767.7215659272487756
 20
54.5116707012668087
 30
0.0
 40
3.4122907917975391
 50
287.6427157246021125
 51
288.1366312169002981
  0
ARC
  5
E30A
  8
0
 10
4768.7778332189818684
 20
51.2875705496747898
 30
0.0
 40
0.0195755257575691
 50
287.6165983770740127
 51
359.8954892181012042
  0
ARC
  5
E30B
  8
0
 10
4767.1517384422750183
 20
51.344151796173719
 30
0.0
 40
0.007874015699997
 50
90.0
 51
179.9949993214127915
  0
LINE
  5
E30C
  8
0
 10
4767.1438644266036135
 20
51.3441524834044714
 30
0.0
 11
4767.1438589209747079
 21
51.300784765773713
 31
0.0
  0
ARC
  5
E30D
  8
0
 10
4767.1359848723095638
 20
51.3007857654020327
 30
0.0
 40
0.0078740487283763
 50
270.0002398703218205
 51
359.9927261710554944
  0
LINE
  5
E30E
  8
0
 10
4767.1359849052751088
 20
51.2929117166737285
 30
0.0
 11
4766.6792899962783849
 21
51.2929098047080316
 31
0.0
  0
ARC
  5
E30F
  8
0
 10
4766.6792900292439299
 20
51.2850355185816227
 30
0.0
 40
0.007874286126478
 50
90.0002398703739743
 51
177.3037538961658015
  0
LINE
  5
E310
  8
0
 10
4768.7777236728743446
 20
51.8244668708252405
 30
0.0
 11
4768.7777236728743446
 21
51.745726599373711
 31
0.0
  0
LINE
  5
E311
  8
0
 10
4768.7777236728743446
 20
51.4307659693737094
 30
0.0
 11
4768.7777236728743446
 21
51.352025811873709
 31
0.0
  0
LINE
  5
E312
  8
0
 10
4768.6989835153735839
 20
51.8244668663960724
 30
0.0
 11
4768.6989835153735839
 21
51.745726599373711
 31
0.0
  0
LINE
  5
E313
  8
0
 10
4768.6989835153735839
 20
51.4307659693737094
 30
0.0
 11
4768.6989835153735839
 21
51.352025811873709
 31
0.0
  0
ARC
  5
E314
  8
0
 10
4766.8289047751750331
 20
51.5882507484737118
 30
0.0
 40
0.2057875374000027
 50
83.9746306589903639
 51
269.999999999895806
  0
ARC
  5
E315
  8
0
 10
4730.4758644159019241
 20
-645.8951090191345656
 30
0.0
 40
698.6355805842690643
 50
86.9832668521719938
 51
87.0155310514369944
  0
LINE
  5
E316
  8
0
 10
4766.8682748539749809
 20
51.7321149904737183
 30
0.0
 11
4766.8682748538749365
 21
51.444694320773678
 31
0.0
  0
ARC
  5
E317
  8
0
 10
4766.8879612740993252
 20
51.4446943207668212
 30
0.0
 40
0.0196864202250566
 50
179.9999999800677983
 51
272.1244091955824729
  0
LINE
  5
E318
  8
0
 10
4766.8886910386736417
 20
51.4250214311737182
 30
0.0
 11
4767.0603533624744159
 21
51.4340170255737306
 31
0.0
  0
LINE
  5
E319
  8
0
 10
4767.0603533624744159
 20
51.4340170255737306
 30
0.0
 11
4767.0451256801752606
 21
51.4666728956737174
 31
0.0
  0
LINE
  5
E31A
  8
0
 10
4767.0451256801752606
 20
51.4666728956737174
 30
0.0
 11
4767.0769136616736432
 21
51.4348849140737201
 31
0.0
  0
LINE
  5
E31B
  8
0
 10
4767.0769136616736432
 20
51.4348849140737201
 30
0.0
 11
4767.2263642400375829
 21
51.4427172870509182
 31
0.0
  0
ARC
  5
E31C
  8
0
 10
4767.2422235482754331
 20
51.4310561070737222
 30
0.0
 40
0.0196850393999999
 50
350.4413884623822923
 51
143.6733524480382869
  0
ARC
  5
E31D
  8
0
 10
4767.2423494538743398
 20
51.4238429825737171
 30
0.0
 40
0.0196850393999974
 50
270.2541243768779964
 51
11.5586122287216604
  0
LINE
  5
E31E
  8
0
 10
4766.8289047751741236
 20
51.3824632110737127
 30
0.0
 11
4767.2424367627836546
 21
51.4041581367949334
 31
0.0
  0
ARC
  5
E31F
  8
0
 10
4767.2423494538743398
 20
51.7526495861737175
 30
0.0
 40
0.0196850394000016
 50
348.4413877712383965
 51
86.999460145620418
  0
ARC
  5
E320
  8
0
 10
4767.2422235482754331
 20
51.7454364616737124
 30
0.0
 40
0.0196850393999992
 50
215.1585694785676992
 51
9.5586115375704672
  0
LINE
  5
E321
  8
0
 10
4767.2261298178900688
 20
51.7341010032144695
 30
0.0
 11
4767.0769136616736432
 21
51.7416076545737127
 31
0.0
  0
LINE
  5
E322
  8
0
 10
4767.0769136616736432
 20
51.7416076545737127
 30
0.0
 11
4767.0451256801752606
 21
51.7098196730737314
 31
0.0
  0
LINE
  5
E323
  8
0
 10
4767.0451256801752606
 20
51.7098196730737314
 30
0.0
 11
4767.0603533624744159
 21
51.7424755430737022
 31
0.0
  0
LINE
  5
E324
  8
0
 10
4767.0603533624744159
 20
51.7424755430737022
 30
0.0
 11
4766.8889901286738677
 21
51.7514563096737135
 31
0.0
  0
ARC
  5
E325
  8
0
 10
4766.8879597646109687
 20
51.7317957922811331
 30
0.0
 40
0.0196874984253291
 50
86.9999999780780655
 51
179.0710089103887128
  0
LINE
  5
E326
  8
0
 10
4794.3842194050057515
 20
51.8243276142465277
 30
0.0
 11
4796.2027233419048571
 21
51.8243276142465277
 31
0.0
  0
ARC
  5
E327
  8
0
 10
4796.2027233419048571
 20
51.8322016299465531
 30
0.0
 40
0.0078740157000325
 50
270.0
 51
0.0001673607018456
  0
LINE
  5
E328
  8
0
 10
4796.2105973576062752
 20
51.8322016529465301
 30
0.0
 11
4796.2105972886047311
 21
51.8558237328684086
 31
0.0
  0
ARC
  5
E329
  8
0
 10
4796.2027232827258558
 20
51.8558237098684671
 30
0.0
 40
0.007874005879925
 50
0.0001673607083594
 51
89.9995722838950343
  0
ARC
  5
E32A
  8
0
 10
4794.3842194049057071
 20
51.8322016299465176
 30
0.0
 40
0.0078740156999935
 50
180.0
 51
270.0000007276668725
  0
LINE
  5
E32B
  8
0
 10
4794.3763453891060635
 20
51.83220162984653
 30
0.0
 11
4794.3763453889059747
 21
51.8558236771465317
 31
0.0
  0
ARC
  5
E32C
  8
0
 10
4794.3842194046401346
 20
51.8558236772131806
 30
0.0
 40
0.0078740157333321
 50
90.0000009701878554
 51
180.000000485087412
  0
LINE
  5
E32D
  8
0
 10
4794.3684721657064074
 20
51.8636976926465465
 30
0.0
 11
4796.2184718911557866
 21
51.8636977159465289
 31
0.0
  0
ARC
  5
E32E
  8
0
 10
4796.0305152665778223
 20
51.8937042934401305
 30
0.0
 40
0.1879571382415999
 50
0.1339516358969655
 51
23.607936416289899
  0
ARC
  5
E32F
  8
0
 10
4796.1955260594440915
 20
51.9658229573175277
 30
0.0
 40
0.0078747586439855
 50
23.6079364162869183
 51
89.9964642014959821
  0
LINE
  5
E330
  8
0
 10
4796.1955265454053006
 20
51.9736977159465283
 30
0.0
 11
4794.394881358605744
 21
51.9736976931465193
 31
0.0
  0
ARC
  5
E331
  8
0
 10
4794.3948813590823192
 20
51.9658236761274992
 30
0.0
 40
0.0078740170190201
 50
90.0000034644950944
 51
153.6627322318580013
  0
ARC
  5
E332
  8
0
 10
4794.5563098408838414
 20
51.8859102370327321
 30
0.0
 40
0.1879998410553577
 50
153.6627803515619917
 51
177.6200389456517996
  0
ARC
  5
E333
  8
0
 10
4794.4405971963496995
 20
51.9815721700634583
 30
0.0
 40
0.0078744750192272
 50
270.0013850652512133
 51
359.9966586736297813
  0
ARC
  5
E334
  8
0
 10
4794.456341403892111
 20
52.0520786595461828
 30
0.0
 40
0.0078700024799261
 50
156.5707565772922862
 51
179.5254437016851057
  0
ARC
  5
E335
  8
0
 10
4788.935077638070652
 20
54.4219234361941915
 30
0.0
 40
6.000500692597563
 50
336.7702143769906797
 51
356.2459865786166802
  0
ARC
  5
E336
  8
0
 10
4801.6513845143517756
 20
54.4217639199630909
 30
0.0
 40
5.9999956420373293
 50
183.752807831123306
 51
203.2304260108437006
  0
ARC
  5
E337
  8
0
 10
4796.1305956980640985
 20
52.0520785085989175
 30
0.0
 40
0.0078757034437806
 50
0.7045039433885454
 51
23.2386581107932813
  0
ARC
  5
E338
  8
0
 10
4796.1463458395674024
 20
51.9815727500151965
 30
0.0
 40
0.0078750334799435
 50
180.0074056293940998
 51
269.9969336027978102
  0
ARC
  5
E339
  8
0
 10
4796.1342146320412212
 20
52.0485147613330312
 30
0.0
 40
0.0075879655267112
 50
61.5195275452427381
 51
118.4804748137127035
  0
LINE
  5
E33A
  8
0
 10
4796.1305973815051402
 20
52.05518483134653
 30
0.0
 11
4794.4563454114058914
 21
52.0551844075465269
 31
0.0
  0
ARC
  5
E33B
  8
0
 10
4794.452727606042572
 20
52.0475228790787696
 30
0.0
 40
0.0084727524517222
 50
64.7231255003554367
 51
115.2770733074764991
  0
ARC
  5
E33C
  8
0
 10
4794.6552801226571319
 20
54.519756949797241
 30
0.0
 40
0.7865592113353626
 50
288.1512601932378175
 51
317.6302049244728778
  0
ARC
  5
E33D
  8
0
 10
4795.9361927655863838
 20
54.5250827372437072
 30
0.0
 40
0.7934953938073394
 50
222.4334276486306123
 51
251.6735630231638083
  0
LINE
  5
E33E
  8
0
 10
4796.2105628332992637
 20
51.4306293551465217
 30
0.0
 11
4796.2105569341792943
 21
51.3911224826275372
 31
0.0
  0
LINE
  5
E33F
  8
0
 10
4794.3763108218090565
 20
51.4306293551465288
 30
0.0
 11
4794.3763050770712653
 21
51.3913910362735322
 31
0.0
  0
LINE
  5
E340
  8
0
 10
4794.3684721657064074
 20
51.3913921830936289
 30
0.0
 11
4796.2184718911557866
 21
51.3911213237950903
 31
0.0
  0
ARC
  5
E341
  8
0
 10
4796.0305289181969783
 20
51.369085697604298
 30
0.0
 40
0.1881116491878309
 50
333.6655452059519007
 51
357.5734503404162865
  0
ARC
  5
E342
  8
0
 10
4796.1970974749192465
 20
51.2835401131054809
 30
0.0
 40
0.0029124875959688
 50
236.0303170929682892
 51
46.0642547379914902
  0
LINE
  5
E343
  8
0
 10
4796.1954701103759362
 20
51.2811246900282924
 30
0.0
 11
4794.3948249428749477
 21
51.281388323425233
 31
0.0
  0
ARC
  5
E344
  8
0
 10
4794.3948260960896732
 20
51.2892623403598122
 30
0.0
 40
0.0078740170190201
 50
206.3288797887489068
 51
269.9916085560897159
  0
ARC
  5
E345
  8
0
 10
4794.5562662753181939
 20
51.3691521458143825
 30
0.0
 40
0.1879998410553577
 50
182.6807038458763088
 51
206.3288316690646127
  0
ARC
  5
E346
  8
0
 10
4794.4404985407536515
 20
51.2734080032024622
 30
0.0
 40
0.0079737384832402
 50
0.7074877022415396
 51
89.6951171575637289
  0
ARC
  5
E347
  8
0
 10
4794.4562735126983171
 20
51.2029983602465819
 30
0.0
 40
0.0078700024799261
 50
187.5462738032892958
 51
203.4208554433346876
  0
ARC
  5
E348
  8
0
 10
4788.9351394865598195
 20
48.8341208914517324
 30
0.0
 40
6.0000000000001332
 50
3.7438976529632728
 51
23.2217970196354706
  0
ARC
  5
E349
  8
0
 10
4801.6509741074742124
 20
48.8322591703907278
 30
0.0
 40
5.9999999999998384
 50
156.7611974784558129
 51
176.2382860171778134
  0
ARC
  5
E34A
  8
0
 10
4796.1285504016977939
 20
51.2033745085311409
 30
0.0
 40
0.0099399116398182
 50
337.9623166695484997
 51
356.4098323693610837
  0
ARC
  5
E34B
  8
0
 10
4796.1462878307520441
 20
51.2732578738251021
 30
0.0
 40
0.0078740156992367
 50
89.9916112047474002
 51
173.1022839691819968
  0
ARC
  5
E34C
  8
0
 10
4796.1341472446138141
 20
51.2063166213762884
 30
0.0
 40
0.0075879655267112
 50
241.5111372069119966
 51
298.4720844753547908
  0
LINE
  5
E34D
  8
0
 10
4796.1305290176333074
 20
51.1996470809919799
 30
0.0
 11
4794.4562770655356871
 21
51.1998926116928317
 31
0.0
  0
ARC
  5
E34E
  8
0
 10
4794.452660381843998
 20
51.2075546697174318
 30
0.0
 40
0.0084727524517222
 50
244.7145387131600955
 51
295.2684865202646733
  0
ARC
  5
E34F
  8
0
 10
4794.6548509665162783
 20
48.7352909722374434
 30
0.0
 40
0.7865592113353623
 50
42.3614070961580893
 51
71.8411378667444467
  0
ARC
  5
E350
  8
0
 10
4795.9357628160350941
 20
48.7297776619818421
 30
0.0
 40
0.7934953938073394
 50
108.3180362419364968
 51
137.5581843719853055
  0
LINE
  5
E351
  8
0
 10
4796.2184718911557866
 20
51.3611213096464709
 30
0.0
 11
4796.2184718911557866
 21
51.3911213237950903
 31
0.0
  0
LINE
  5
E352
  8
0
 10
4796.2184718911557866
 20
51.8636977159465289
 30
0.0
 11
4796.2184718911557866
 21
51.8941437174857469
 31
0.0
  0
LINE
  5
E353
  8
0
 10
4796.1384708061532365
 20
51.2027520787190227
 30
0.0
 11
4796.1384708061532365
 21
51.2742035215725522
 31
0.0
  0
LINE
  5
E354
  8
0
 10
4796.1384708061532365
 20
51.9815717321465272
 30
0.0
 11
4796.1384708061532365
 21
52.0521753451264502
 31
0.0
  0
LINE
  5
E355
  8
0
 10
4794.3684721657064074
 20
51.3603593856357676
 30
0.0
 11
4794.3684721657064074
 21
51.3913921830936431
 31
0.0
  0
LINE
  5
E356
  8
0
 10
4794.3684721657064074
 20
51.8636976926465465
 30
0.0
 11
4794.3684721657064074
 21
51.8937171583600616
 31
0.0
  0
LINE
  5
E357
  8
0
 10
4794.4484716713559465
 20
51.2019648174508575
 30
0.0
 11
4794.4484716713559465
 21
51.2735064603420483
 31
0.0
  0
LINE
  5
E358
  8
0
 10
4794.4484716713559465
 20
51.9815717106852233
 30
0.0
 11
4794.4484716713559465
 21
52.0521438426465011
 31
0.0
  0
LINE
  5
E359
  8
0
 10
4795.6934719280061472
 20
48.449507435988707
 30
0.0
 11
4795.6934719280061472
 21
49.1230268460898287
 31
0.0
  0
LINE
  5
E35A
  8
0
 10
4794.8934719280059653
 20
48.449507437945357
 30
0.0
 11
4794.8934719280059653
 21
48.5585718070304608
 31
0.0
  0
LINE
  5
E35B
  8
0
 10
4794.8934719280059653
 20
49.0270754606652304
 30
0.0
 11
4794.8934719280059653
 21
49.1230268684361135
 31
0.0
  0
LINE
  5
E35C
  8
0
 10
4794.9223347870056386
 20
49.2259019965465328
 30
0.0
 11
4795.6639009222326422
 21
49.2259019965465328
 31
0.0
  0
ARC
  5
E35D
  8
0
 10
4795.5824267137168135
 20
49.6168282729643906
 30
0.0
 40
0.4932838263678433
 50
225.4527897233496105
 51
229.4373810541279965
  0
ARC
  5
E35E
  8
0
 10
4795.3360476665511669
 20
49.3289930644793273
 30
0.0
 40
0.114401599117838
 50
229.4373810541279965
 51
237.8361462118886891
  0
ARC
  5
E35F
  8
0
 10
4795.2934374645728894
 20
49.2558007895343906
 30
0.0
 40
0.0298992367896392
 50
232.2844488245733032
 51
307.0879517246066825
  0
ARC
  5
E360
  8
0
 10
4795.1675864295648353
 20
49.4383784372132524
 30
0.0
 40
0.2516240107511054
 50
304.8766371808314943
 51
316.5279650547241204
  0
LINE
  5
E361
  8
0
 10
4794.9773896371179944
 20
49.2259019965465328
 30
0.0
 11
4794.8953140892081137
 21
49.1280881648465311
 31
0.0
  0
ARC
  5
E362
  8
0
 10
4794.9013459075504215
 20
49.1230268684361135
 30
0.0
 40
0.0078739795439794
 50
140.0000007539196076
 51
180.0001701965719008
  0
LINE
  5
E363
  8
0
 10
4794.8934719195058278
 20
49.1230268450465175
 30
0.0
 11
4795.6934719280061472
 21
49.1230268450465175
 31
0.0
  0
ARC
  5
E364
  8
0
 10
4795.6855978404555572
 20
49.1230268187489472
 30
0.0
 40
0.0078740875502929
 50
0.0001913542087236
 51
39.7212406332932133
  0
LINE
  5
E365
  8
0
 10
4795.6916542948865754
 20
49.1280587780569817
 30
0.0
 11
4795.6095542059047148
 21
49.2259019965465328
 31
0.0
  0
ARC
  5
E366
  8
0
 10
4794.9013459661209708
 20
48.449507450168781
 30
0.0
 40
0.0078740381157824
 50
180.0000889435511056
 51
237.1108997066019128
  0
ARC
  5
E367
  8
0
 10
4795.2934719203121858
 20
49.0558947997211305
 30
0.0
 40
0.7300017149481095
 50
237.1108997066019128
 51
302.8891036623693935
  0
ARC
  5
E368
  8
0
 10
4795.6855979342499268
 20
48.4495074359776297
 30
0.0
 40
0.0078739937559237
 50
302.8891036331409055
 51
0.000000080502129
  0
LINE
  5
E369
  8
0
 10
4794.8934719280059653
 20
48.44950744299652
 30
0.0
 11
4795.6934719280061472
 21
48.4495074429965271
 31
0.0
  0
LINE
  5
E36A
  8
0
 10
4785.4588262477063836
 20
49.1865247864465402
 30
0.0
 11
4794.4981963263053331
 21
49.1865247864465118
 31
0.0
  0
LINE
  5
E36B
  8
0
 10
4785.45882625750437
 20
48.3991231545465297
 30
0.0
 11
4794.4981963363061368
 21
48.3991232687465285
 31
0.0
  0
ARC
  5
E36C
  8
0
 10
4794.49819633610241
 20
48.4069972845502718
 30
0.0
 40
0.0078740158037505
 50
270.0000014826396182
 51
359.9360799165103231
  0
ARC
  5
E36D
  8
0
 10
4794.4981964204152973
 20
49.1786508598574201
 30
0.0
 40
0.0078739265896637
 50
359.9999999990685069
 51
90.000684807599896
  0
ARC
  5
E36E
  8
0
 10
4794.5139449193684413
 20
49.0270765844087393
 30
0.0
 40
0.0078745752821128
 50
180.0040703048896944
 51
269.9959293264794269
  0
LINE
  5
E36F
  8
0
 10
4794.5139443597554418
 20
49.0192020091465182
 30
0.0
 11
4794.89916561638438
 21
49.019202009146511
 31
0.0
  0
ARC
  5
E370
  8
0
 10
4794.5139443679981923
 20
48.5585720826544716
 30
0.0
 40
0.0078740209920202
 50
90.0000174057474283
 51
179.9999629400718106
  0
LINE
  5
E371
  8
0
 10
4794.5139443658799792
 20
48.5664461036465127
 30
0.0
 11
4794.8991662117477972
 21
48.5664461036465127
 31
0.0
  0
ARC
  5
E372
  8
0
 10
4794.577830182452999
 20
48.7928236338478314
 30
0.0
 40
0.3930694975476126
 50
323.4192406555451953
 51
36.5808239652221374
  0
LINE
  5
E373
  8
0
 10
4785.5728029656738727
 20
51.8243276142465277
 30
0.0
 11
4783.7542990287747671
 21
51.8243276142465277
 31
0.0
  0
ARC
  5
E374
  8
0
 10
4783.7542990287747671
 20
51.8322016299465673
 30
0.0
 40
0.0078740157000325
 50
179.9998326392980914
 51
270.0
  0
LINE
  5
E375
  8
0
 10
4783.7464250130742585
 20
51.8322016529465301
 30
0.0
 11
4783.746425082074893
 21
51.8558237328684299
 31
0.0
  0
ARC
  5
E376
  8
0
 10
4783.7542990879546778
 20
51.8558237098684884
 30
0.0
 40
0.007874005879925
 50
90.0004277161049941
 51
179.9998326392916113
  0
ARC
  5
E377
  8
0
 10
4785.5728029657739171
 20
51.8322016299465176
 30
0.0
 40
0.0078740156999935
 50
269.9999992723331275
 51
0.0
  0
LINE
  5
E378
  8
0
 10
4785.5806769815735606
 20
51.83220162984653
 30
0.0
 11
4785.580676981774559
 21
51.8558236771465317
 31
0.0
  0
ARC
  5
E379
  8
0
 10
4785.5728029660413085
 20
51.855823677213202
 30
0.0
 40
0.0078740157333321
 50
359.999999514912588
 51
89.9999990298121446
  0
LINE
  5
E37A
  8
0
 10
4785.5885502049750357
 20
51.8636976926465465
 30
0.0
 11
4783.7385504795247471
 21
51.8636977159465431
 31
0.0
  0
ARC
  5
E37B
  8
0
 10
4783.9265071041008923
 20
51.8937042934401305
 30
0.0
 40
0.1879571382415999
 50
156.3920635837100974
 51
179.8660483641046142
  0
ARC
  5
E37C
  8
0
 10
4783.7614963112364421
 20
51.9658229573175419
 30
0.0
 40
0.0078747586439855
 50
90.0035357985040179
 51
156.3920635837131101
  0
LINE
  5
E37D
  8
0
 10
4783.7614958252743236
 20
51.9736977159465425
 30
0.0
 11
4785.5621410120738801
 21
51.9736976931465335
 31
0.0
  0
ARC
  5
E37E
  8
0
 10
4785.5621410115982144
 20
51.9658236761275205
 30
0.0
 40
0.0078740170190201
 50
26.3372677681434588
 51
89.9999965354528229
  0
ARC
  5
E37F
  8
0
 10
4785.4007125297966923
 20
51.8859102370327321
 30
0.0
 40
0.1879998410553577
 50
2.3799610543481582
 51
26.3372196484379586
  0
ARC
  5
E380
  8
0
 10
4785.5164251743299246
 20
51.9815721700634583
 30
0.0
 40
0.0078744750192272
 50
180.0033413263701902
 51
269.998614934748673
  0
ARC
  5
E381
  8
0
 10
4785.5006809667866037
 20
52.05207865954619
 30
0.0
 40
0.0078700024799261
 50
0.474556298314825
 51
23.4292434227076782
  0
ARC
  5
E382
  8
0
 10
4791.022743420833649
 20
54.4221899774780127
 30
0.0
 40
6.001339761040728
 50
183.8203298487813129
 51
203.2291165056057878
  0
ARC
  5
E383
  8
0
 10
4778.3044513159293274
 20
54.4221590204833987
 30
0.0
 40
6.0012418252703066
 50
336.7705758746739093
 51
356.1799070802443907
  0
ARC
  5
E384
  8
0
 10
4783.8264266726164351
 20
52.0520785085989175
 30
0.0
 40
0.0078757034437806
 50
156.7613418892067045
 51
179.2954960566113982
  0
ARC
  5
E385
  8
0
 10
4783.8106765311131312
 20
51.9815727500151965
 30
0.0
 40
0.0078750334799435
 50
270.0030663972023035
 51
359.9925943706059002
  0
ARC
  5
E386
  8
0
 10
4783.822807738638403
 20
52.0485147613330312
 30
0.0
 40
0.0075879655267112
 50
61.5195251862872325
 51
118.480472454757205
  0
LINE
  5
E387
  8
0
 10
4783.8264249891735744
 20
52.05518483134653
 30
0.0
 11
4785.5006769592746423
 21
52.0551844075465269
 31
0.0
  0
ARC
  5
E388
  8
0
 10
4785.5042947646379616
 20
52.0475228790787767
 30
0.0
 40
0.0084727524517222
 50
64.7229266925235009
 51
115.2768744996445065
  0
ARC
  5
E389
  8
0
 10
4785.3017422480234018
 20
54.5197569497972623
 30
0.0
 40
0.7865592113353626
 50
222.3697950755270085
 51
251.847442978646086
  0
ARC
  5
E38A
  8
0
 10
4784.0208296050941499
 20
54.5250827372437072
 30
0.0
 40
0.7934953938073394
 50
288.3283279178975249
 51
317.5665723513694161
  0
LINE
  5
E38B
  8
0
 10
4783.7464595373803604
 20
51.4306293551465288
 30
0.0
 11
4783.7464654365012393
 21
51.3911224826275372
 31
0.0
  0
LINE
  5
E38C
  8
0
 10
4785.5807115488696581
 20
51.4306293551465501
 30
0.0
 11
4785.5807172936092684
 21
51.3913910362735393
 31
0.0
  0
LINE
  5
E38D
  8
0
 10
4785.5885502049750357
 20
51.3913921830936431
 30
0.0
 11
4783.7385504795247471
 21
51.3911213237950975
 31
0.0
  0
ARC
  5
E38E
  8
0
 10
4783.9264934524826458
 20
51.369085697604298
 30
0.0
 40
0.1881116491878309
 50
182.4265496595820082
 51
206.3344547940469056
  0
ARC
  5
E38F
  8
0
 10
4783.7599248957621967
 20
51.2835401131054809
 30
0.0
 40
0.0029124875959688
 50
133.9357452620085098
 51
303.9696829070317108
  0
LINE
  5
E390
  8
0
 10
4783.7615522603036879
 20
51.2811246900282924
 30
0.0
 11
4785.5621974278055859
 21
51.281388323425233
 31
0.0
  0
ARC
  5
E391
  8
0
 10
4785.5621962745899509
 20
51.2892623403598122
 30
0.0
 40
0.0078740170190201
 50
270.0083914439102841
 51
333.6711202112510932
  0
ARC
  5
E392
  8
0
 10
4785.4007560953623397
 20
51.3691521458143825
 30
0.0
 40
0.1879998410553577
 50
333.6711683309354157
 51
357.3192961541237196
  0
ARC
  5
E393
  8
0
 10
4785.5165238299259727
 20
51.2734080032024622
 30
0.0
 40
0.0079737384832402
 50
90.3048828424362711
 51
179.2925122977567867
  0
ARC
  5
E394
  8
0
 10
4785.5007488579822166
 20
51.2029983602466032
 30
0.0
 40
0.0078700024799261
 50
336.5791445566650282
 51
352.4537261967107042
  0
ARC
  5
E395
  8
0
 10
4791.0218828841207142
 20
48.8341208914517395
 30
0.0
 40
6.0000000000001332
 50
156.7782029803645116
 51
176.2561023470366877
  0
ARC
  5
E396
  8
0
 10
4778.3060482632072308
 20
48.8322591703907278
 30
0.0
 40
5.9999999999998384
 50
3.7617139828222168
 51
23.2388025215441907
  0
ARC
  5
E397
  8
0
 10
4783.8284719689800113
 20
51.2033745085311409
 30
0.0
 40
0.0099399116398182
 50
183.5901676306388879
 51
202.0376833304511877
  0
ARC
  5
E398
  8
0
 10
4783.810734539929399
 20
51.2732578738251092
 30
0.0
 40
0.0078740156992367
 50
6.8977160308179482
 51
90.0083887952004886
  0
ARC
  5
E399
  8
0
 10
4783.82287512606581
 20
51.2063166213762884
 30
0.0
 40
0.0075879655267112
 50
241.5279155246452092
 51
298.488862793087776
  0
LINE
  5
E39A
  8
0
 10
4783.8264933530481358
 20
51.1996470809920012
 30
0.0
 11
4785.500745305143937
 21
51.1998926116928317
 31
0.0
  0
ARC
  5
E39B
  8
0
 10
4785.5043619888356261
 20
51.2075546697174318
 30
0.0
 40
0.0084727524517222
 50
244.7315134797352982
 51
295.2854612868399045
  0
ARC
  5
E39C
  8
0
 10
4785.3021714041642554
 20
48.7352909722374434
 30
0.0
 40
0.7865592113353623
 50
108.1588621332554965
 51
137.6385929038418965
  0
ARC
  5
E39D
  8
0
 10
4784.0212595546436205
 20
48.7297776619818634
 30
0.0
 40
0.7934953938073394
 50
42.4418156280144103
 51
71.681963758063489
  0
LINE
  5
E39E
  8
0
 10
4783.7385504795247471
 20
51.3611213096464709
 30
0.0
 11
4783.7385504795247471
 21
51.3911213237950975
 31
0.0
  0
LINE
  5
E39F
  8
0
 10
4783.7385504795247471
 20
51.8636977159465431
 30
0.0
 11
4783.7385504795247471
 21
51.8941437174857469
 31
0.0
  0
LINE
  5
E3A0
  8
0
 10
4783.8185515645272972
 20
51.2027520787190227
 30
0.0
 11
4783.8185515645272972
 21
51.2742035215725593
 31
0.0
  0
LINE
  5
E3A1
  8
0
 10
4783.8185515645272972
 20
51.9815717321465272
 30
0.0
 11
4783.8185515645272972
 21
52.0521753451264715
 31
0.0
  0
LINE
  5
E3A2
  8
0
 10
4785.5885502049750357
 20
51.3603593856357676
 30
0.0
 11
4785.5885502049750357
 21
51.3913921830936431
 31
0.0
  0
LINE
  5
E3A3
  8
0
 10
4785.5885502049750357
 20
51.8636976926465465
 30
0.0
 11
4785.5885502049750357
 21
51.8937171583600616
 31
0.0
  0
LINE
  5
E3A4
  8
0
 10
4785.5085506993236777
 20
51.2019648174508575
 30
0.0
 11
4785.5085506993236777
 21
51.2735064603420483
 31
0.0
  0
LINE
  5
E3A5
  8
0
 10
4785.5085506993236777
 20
51.9815717106852233
 30
0.0
 11
4785.5085506993236777
 21
52.0521438426465011
 31
0.0
  0
LINE
  5
E3A6
  8
0
 10
4784.2635504426743864
 20
48.4495074359887212
 30
0.0
 11
4784.2635504426743864
 21
49.1230268460898287
 31
0.0
  0
LINE
  5
E3A7
  8
0
 10
4785.0635504426736588
 20
48.4495074379453712
 30
0.0
 11
4785.0635504426736588
 21
48.5585718070304608
 31
0.0
  0
LINE
  5
E3A8
  8
0
 10
4785.0635504426736588
 20
49.0270754606652304
 30
0.0
 11
4785.0635504426736588
 21
49.1230268684361135
 31
0.0
  0
LINE
  5
E3A9
  8
0
 10
4785.0346875836739855
 20
49.2259019965465328
 30
0.0
 11
4784.293121448446982
 21
49.2259019965465328
 31
0.0
  0
ARC
  5
E3AA
  8
0
 10
4784.3745956569637201
 20
49.6168282729643906
 30
0.0
 40
0.4932838263678433
 50
310.562618945871975
 51
314.5472102766503895
  0
ARC
  5
E3AB
  8
0
 10
4784.6209747041293667
 20
49.3289930644793273
 30
0.0
 40
0.114401599117838
 50
302.1638537881112825
 51
310.562618945871975
  0
ARC
  5
E3AC
  8
0
 10
4784.6635849061058252
 20
49.2558007895343906
 30
0.0
 40
0.0298992367896392
 50
232.9120482753916974
 51
307.7155511754266968
  0
ARC
  5
E3AD
  8
0
 10
4784.7894359411156984
 20
49.4383784372132666
 30
0.0
 40
0.2516240107511054
 50
223.4720349452759081
 51
235.1233628191685057
  0
LINE
  5
E3AE
  8
0
 10
4784.9796327335616297
 20
49.2259019965465328
 30
0.0
 11
4785.0617082814724199
 21
49.1280881648465311
 31
0.0
  0
ARC
  5
E3AF
  8
0
 10
4785.0556764631310216
 20
49.1230268684361135
 30
0.0
 40
0.0078739795439794
 50
359.9998298034280992
 51
39.9999992460803711
  0
LINE
  5
E3B0
  8
0
 10
4785.0635504511747058
 20
49.1230268450465175
 30
0.0
 11
4784.2635504426743864
 21
49.1230268450465175
 31
0.0
  0
ARC
  5
E3B1
  8
0
 10
4784.2714245302249765
 20
49.1230268187489685
 30
0.0
 40
0.0078740875502929
 50
140.2787593667067938
 51
179.9998086457912052
  0
LINE
  5
E3B2
  8
0
 10
4784.2653680757939583
 20
49.1280587780569817
 30
0.0
 11
4784.3474681647739999
 21
49.2259019965465328
 31
0.0
  0
ARC
  5
E3B3
  8
0
 10
4785.0556764045577438
 20
48.4495074501688023
 30
0.0
 40
0.0078740381157824
 50
302.8891002933980872
 51
359.9999110564489229
  0
ARC
  5
E3B4
  8
0
 10
4784.6635504503683478
 20
49.0558947997211305
 30
0.0
 40
0.7300017149481095
 50
237.1108963376304928
 51
302.8891002933980872
  0
ARC
  5
E3B5
  8
0
 10
4784.2714244364306069
 20
48.449507435977651
 30
0.0
 40
0.0078739937559237
 50
179.9999999194978102
 51
237.1108963668592082
  0
LINE
  5
E3B6
  8
0
 10
4785.0635504426736588
 20
48.4495074429965271
 30
0.0
 11
4784.2635504426743864
 21
48.4495074429965484
 31
0.0
  0
LINE
  5
E3B7
  8
0
 10
4785.4430780109232728
 20
49.0192020091465395
 30
0.0
 11
4785.0578567542961537
 21
49.0192020091465182
 31
0.0
  0
LINE
  5
E3B8
  8
0
 10
4785.4430772042305762
 20
48.5664461036465127
 30
0.0
 11
4785.0578553583627581
 21
48.5664461036465127
 31
0.0
  0
ARC
  5
E3B9
  8
0
 10
4785.3791921882257157
 20
48.7928236338478527
 30
0.0
 40
0.3930694975476126
 50
143.4191760347777915
 51
216.5807593444548047
  0
ARC
  5
E3BA
  8
0
 10
4785.4588262607985598
 20
48.4069971784393402
 30
0.0
 40
0.0078740238928145
 50
180.0000603430356989
 51
269.9999760384235969
  0
ARC
  5
E3BB
  8
0
 10
4785.4588263451323655
 20
49.1786506733203623
 30
0.0
 40
0.0078741131267522
 50
90.0007089224323806
 51
179.9360785591426861
  0
ARC
  5
E3BC
  8
0
 10
4785.4430768529446141
 20
49.027079206118799
 30
0.0
 40
0.0078773116905762
 50
270.0099302605578941
 51
358.7324051976470969
  0
ARC
  5
E3BD
  8
0
 10
4785.4430768674901628
 20
48.558569089439338
 30
0.0
 40
0.0078770142143693
 50
1.1709022662459381
 51
89.9975506095984485
  0
LINE
  5
E3BE
  8
0
 10
4781.2632103799141987
 20
51.3856392026737083
 30
0.0
 11
4781.3032482716253071
 21
51.3856392026737083
 31
0.0
  0
LINE
  5
E3BF
  8
0
 10
4781.3344998875236342
 20
51.3856392026737083
 30
0.0
 11
4781.492224044141949
 21
51.3856392026737083
 31
0.0
  0
LINE
  5
E3C0
  8
0
 10
4795.4903222810053194
 20
51.7455899851465233
 30
0.0
 11
4795.4902959758046563
 21
51.8045052361465181
 31
0.0
  0
LINE
  5
E3C1
  8
0
 10
4795.4902959758046563
 20
51.8045052361465181
 30
0.0
 11
4795.096621492804843
 21
51.804505230800892
 31
0.0
  0
LINE
  5
E3C2
  8
0
 10
4795.096621492804843
 20
51.804505230800892
 30
0.0
 11
4795.096621492804843
 21
51.7455899851465233
 31
0.0
  0
LINE
  5
E3C3
  8
0
 10
4795.3918970831045954
 20
51.8243276269913906
 30
0.0
 11
4795.3918970831045954
 21
51.8045052349216917
 31
0.0
  0
LINE
  5
E3C4
  8
0
 10
4795.1950466894058991
 20
51.8243276142465277
 30
0.0
 11
4795.1950466894058991
 21
51.8045052324713708
 31
0.0
  0
LINE
  5
E3C5
  8
0
 10
4784.8604010205053783
 20
51.7455899851465233
 30
0.0
 11
4784.8603747154056691
 21
51.8046424861465198
 31
0.0
  0
LINE
  5
E3C6
  8
0
 10
4784.8603747154056691
 20
51.8046424861465198
 30
0.0
 11
4784.4667002324058558
 21
51.8046424811465229
 31
0.0
  0
LINE
  5
E3C7
  8
0
 10
4784.4667002324058558
 20
51.8046424811465229
 30
0.0
 11
4784.4667002324058558
 21
51.7455899851465233
 31
0.0
  0
LINE
  5
E3C8
  8
0
 10
4784.7619758227046987
 20
51.8243276142465277
 30
0.0
 11
4784.7619758227046987
 21
51.8046424848966893
 31
0.0
  0
LINE
  5
E3C9
  8
0
 10
4784.5651254290060024
 20
51.8243274974016686
 30
0.0
 11
4784.5651254290060024
 21
51.8046424823963392
 31
0.0
  0
LINE
  5
E3CA
  8
0
 10
4781.1592055373912444
 20
51.7736552411736994
 30
0.0
 11
4781.3149059859097179
 21
51.7736552411736994
 31
0.0
  0
LINE
  5
E3CB
  8
0
 10
4781.322842173238314
 20
51.7736552411736994
 30
0.0
 11
4781.496039433875012
 21
51.7736552411736994
 31
0.0
  0
ARC
  5
E3CC
  8
0
 10
4781.0235984889750398
 20
51.7652348201737098
 30
0.0
 40
0.0196850393999996
 50
101.8288125346029034
 51
262.3147308836545903
  0
ARC
  5
E3CD
  8
0
 10
4781.0235984889750398
 20
51.7652348201737098
 30
0.0
 40
0.0196850393999996
 50
277.685269116345296
 51
288.3110908911248202
  0
ARC
  5
E3CE
  8
0
 10
4781.1857984636735637
 20
51.7571880046737007
 30
0.0
 40
0.0098661257062507
 50
256.5558898417095861
 51
80.5380983087797944
  0
ARC
  5
E3CF
  8
0
 10
4781.3188740795749254
 20
51.7888951469737009
 30
0.0
 40
0.0157480315000029
 50
154.3898948794524131
 51
3.742258212949221
  0
LINE
  5
E3D0
  8
0
 10
4781.1102126622563446
 20
51.7651124847298192
 30
0.0
 11
4781.0297830604949922
 21
51.7465465390522183
 31
0.0
  0
LINE
  5
E3D1
  8
0
 10
4781.1102126623591175
 20
51.7651124847535513
 30
0.0
 11
4781.1835046215792318
 21
51.7475922386859111
 31
0.0
  0
ARC
  5
E3D2
  8
0
 10
4781.5101636898743891
 20
49.8560093296766382
 30
0.0
 40
1.989917612497039
 50
92.5081027893182863
 51
104.2730428950304002
  0
LINE
  5
E3D3
  8
0
 10
4781.4230835565749658
 20
51.8440206864737192
 30
0.0
 11
4781.5511575440750676
 21
51.8440206864737192
 31
0.0
  0
ARC
  5
E3D4
  8
0
 10
4781.5278858965057225
 20
50.2693895372181672
 30
0.0
 40
1.574803106990317
 50
85.9199138231319921
 51
89.1532809938777433
  0
ARC
  5
E3D5
  8
0
 10
4781.6381738109430444
 20
51.8197779368323594
 30
0.0
 40
0.0204992230187699
 50
45.8467193548654706
 51
85.0731948170118102
  0
LINE
  5
E3D6
  8
0
 10
4781.6524531657742045
 20
51.8344856955737114
 30
0.0
 11
4782.0351029402736458
 21
51.4518359210737231
 31
0.0
  0
ARC
  5
E3D7
  8
0
 10
4782.0211835154750588
 20
51.4379164962737008
 30
0.0
 40
0.0196850393325938
 50
315.0000000935975208
 51
44.9999999999951115
  0
LINE
  5
E3D8
  8
0
 10
4781.1874203733232207
 20
51.7669199030262206
 30
0.0
 11
4781.156675988087045
 21
51.7742590855469587
 31
0.0
  0
ARC
  5
E3D9
  8
0
 10
4781.5101647726551164
 20
49.855993533520369
 30
0.0
 40
1.9505633632181161
 50
92.682233238037341
 51
95.1633699291792112
  0
ARC
  5
E3DA
  8
0
 10
4781.5101875262071189
 20
49.8558193219790979
 30
0.0
 40
1.9507387149545239
 50
96.047450355791284
 51
100.4407896405862033
  0
LINE
  5
E3DB
  8
0
 10
4781.3346221110741681
 20
51.7986417795736998
 30
0.0
 11
4781.3345885323560651
 21
51.7899229941906682
 31
0.0
  0
LINE
  5
E3DC
  8
0
 10
4781.4188848359735857
 20
51.804419926073713
 30
0.0
 11
4781.4682002796071174
 21
51.8044217980292316
 31
0.0
  0
ARC
  5
E3DD
  8
0
 10
4781.4684803787749843
 20
51.7768641663737128
 30
0.0
 40
0.0275590551000029
 50
0.0000000025110606
 51
90.5823413168999139
  0
LINE
  5
E3DE
  8
0
 10
4782.0351029403373104
 20
51.4239970714412991
 30
0.0
 11
4781.94327601448731
 21
51.3321701453568409
 31
0.0
  0
ARC
  5
E3DF
  8
0
 10
4781.7479612784545679
 20
52.299825649483509
 30
0.0
 40
0.9871702086152992
 50
258.5003761720626017
 51
281.4114451287503016
  0
ARC
  5
E3E0
  8
0
 10
4781.4959597878078057
 20
53.2432054372654804
 30
0.0
 40
1.9115306721275209
 50
255.5684899738209026
 51
271.6547148325939816
  0
ARC
  5
E3E1
  8
0
 10
4781.0235984889750398
 20
51.4112577485737106
 30
0.0
 40
0.0196850393999993
 50
73.3768312322178247
 51
82.3147308831287035
  0
ARC
  5
E3E2
  8
0
 10
4781.0235984889750398
 20
51.4112577485737106
 30
0.0
 40
0.0196850393999993
 50
97.685269116871325
 51
258.1711860257655076
  0
ARC
  5
E3E3
  8
0
 10
4781.1857984636735637
 20
51.4193045640736983
 30
0.0
 40
0.0098425197000012
 50
283.4261622995906009
 51
103.4261622702850048
  0
ARC
  5
E3E4
  8
0
 10
4781.3188740795749254
 20
51.3875974217736982
 30
0.0
 40
0.0157480315000029
 50
352.8569576047285068
 51
205.5141022441106884
  0
LINE
  5
E3E5
  8
0
 10
4781.0292299035927499
 20
51.4301200905698508
 30
0.0
 11
4781.1102126623109143
 21
51.4113800840061614
 31
0.0
  0
LINE
  5
E3E6
  8
0
 10
4781.1102126623109143
 20
51.4113800840061614
 30
0.0
 11
4781.1835131086900219
 21
51.4288780872830884
 31
0.0
  0
LINE
  5
E3E7
  8
0
 10
4781.1880838186607434
 20
51.4097310408649406
 30
0.0
 11
4781.1566759879751771
 21
51.4022334831737098
 31
0.0
  0
ARC
  5
E3E8
  8
0
 10
4781.5076706122335963
 20
53.3053304848090406
 30
0.0
 40
1.9351938982675581
 50
259.5501752833017122
 51
263.9783874736211828
  0
LINE
  5
E3E9
  8
0
 10
4781.3346221110741681
 20
51.3875974217743732
 30
0.0
 11
4781.3346221110741681
 21
51.3778507891737135
 31
0.0
  0
ARC
  5
E3EA
  8
0
 10
4781.5101636920471719
 20
53.3204832767204806
 30
0.0
 40
1.950547571407206
 50
264.836620025523473
 51
267.3177768068923115
  0
LINE
  5
E3EB
  8
0
 10
4781.4188676243629743
 20
51.3720734491051232
 30
0.0
 11
4781.4685186296255779
 21
51.3720693471737135
 31
0.0
  0
LINE
  5
E3EC
  8
0
 10
4781.5511575440750676
 20
51.8243334701848184
 30
0.0
 11
4781.5511575440750676
 21
51.3525711781737115
 31
0.0
  0
ARC
  5
E3ED
  8
0
 10
4781.7479589869763004
 20
52.2968479145516412
 30
0.0
 40
0.9645669301779441
 50
258.2272262255207238
 51
280.3789051075012253
  0
LINE
  5
E3EE
  8
0
 10
4781.9217324774681401
 20
51.3480633569225304
 30
0.0
 11
4781.656494584974098
 21
51.613301249173702
 31
0.0
  0
ARC
  5
E3EF
  8
0
 10
4781.6731978947091193
 20
51.6300045589236873
 30
0.0
 40
0.0236220471741961
 50
134.9999996308582126
 51
225.0000000261400999
  0
LINE
  5
E3F0
  8
0
 10
4781.6564945850750519
 20
51.64670786877371
 30
0.0
 11
4781.7205239395871104
 21
51.7107372224611623
 31
0.0
  0
ARC
  5
E3F1
  8
0
 10
4781.7066045149176716
 20
51.7246566473088407
 30
0.0
 40
0.019685039273174
 50
314.9999996308534946
 51
45.0000018770702894
  0
LINE
  5
E3F2
  8
0
 10
4781.7205239392196745
 20
51.7385760725228323
 30
0.0
 11
4781.6385337382562284
 21
51.8205662681152077
 31
0.0
  0
ARC
  5
E3F3
  8
0
 10
4781.5278859985501185
 20
50.2693930793412918
 30
0.0
 40
1.5551145243592741
 50
85.919908378772675
 51
89.1425640425476047
  0
LINE
  5
E3F4
  8
0
 10
4781.7470519539738234
 20
51.7120480577737212
 30
0.0
 11
4781.6676301249663084
 21
51.6355723287664432
 31
0.0
  0
ARC
  5
E3F5
  8
0
 10
4781.6729913621820742
 20
51.6300045588235719
 30
0.0
 40
0.0077293548636174
 50
133.9173723531353062
 51
226.0826277217352072
  0
LINE
  5
E3F6
  8
0
 10
4781.6676301249735843
 20
51.6244367888737017
 30
0.0
 11
4781.9389777760743527
 21
51.3530891376737131
 31
0.0
  0
LINE
  5
E3F7
  8
0
 10
4781.9389777760743527
 20
51.3530891376737131
 30
0.0
 11
4782.0183996306213885
 21
51.429564841420067
 31
0.0
  0
ARC
  5
E3F8
  8
0
 10
4782.0130383969390095
 20
51.435132611324569
 30
0.0
 40
0.0077293523862642
 50
313.9173536916081844
 51
46.0826467854780333
  0
LINE
  5
E3F9
  8
0
 10
4782.0183996305713663
 20
51.4407003812710002
 30
0.0
 11
4781.7470519539738234
 21
51.7120480577737212
 31
0.0
  0
LINE
  5
E3FA
  8
0
 10
4781.8541091395609328
 20
51.8443224233905582
 30
0.0
 11
4781.7622822137082039
 21
51.7524954973085514
 31
0.0
  0
ARC
  5
E3FB
  8
0
 10
4781.7762016385777315
 20
51.7385760724737267
 30
0.0
 40
0.0196850394064409
 50
135.000000071509703
 51
224.9999999908679058
  0
LINE
  5
E3FC
  8
0
 10
4782.0351029402736458
 20
51.4518359210737231
 30
0.0
 11
4782.1449319882240161
 21
51.3420068731237222
 31
0.0
  0
ARC
  5
E3FD
  8
0
 10
4782.1588514130262411
 20
51.3559262979255706
 30
0.0
 40
0.0196850393352265
 50
224.9999999999944862
 51
265.9199139768297755
  0
ARC
  5
E3FE
  8
0
 10
4782.2971801149442399
 20
53.2626489910939682
 30
0.0
 40
1.9314188607326011
 50
265.8512884574897726
 51
284.4097217640148187
  0
ARC
  5
E3FF
  8
0
 10
4782.7737866649740681
 20
51.4112577485737106
 30
0.0
 40
0.0196850394
 50
281.8288140214053215
 51
104.2763248157530001
  0
ARC
  5
E400
  8
0
 10
4782.4785110744742269
 20
51.3875974217737124
 30
0.0
 40
0.0157480315000029
 50
334.3886965851053219
 51
180.0
  0
ARC
  5
E401
  8
0
 10
4782.6115866903737697
 20
51.4193045639737107
 30
0.0
 40
0.0098425197000016
 50
76.5738377749834456
 51
256.5738376181719786
  0
ARC
  5
E402
  8
0
 10
4782.4785110744742269
 20
51.7888951469737009
 30
0.0
 40
0.0157480315000029
 50
179.5006519294587974
 51
25.6113029899644289
  0
ARC
  5
E403
  8
0
 10
4782.6115866903737697
 20
51.757188004673722
 30
0.0
 40
0.0098425197000008
 50
102.6500169135326956
 51
285.5561119373095949
  0
ARC
  5
E404
  8
0
 10
4782.7737866649740681
 20
51.7652348201737311
 30
0.0
 40
0.0196850393999996
 50
253.3768295447088121
 51
78.1711857800050893
  0
ARC
  5
E405
  8
0
 10
4782.0494261712401567
 20
50.8796502242243065
 30
0.0
 40
0.984246511148366
 50
78.4658846833637114
 51
101.4459366167959047
  0
ARC
  5
E406
  8
0
 10
4782.3014328116541947
 20
49.9333536310023902
 30
0.0
 40
1.9114644153534881
 50
75.5682093290771064
 51
91.6549954732739138
  0
LINE
  5
E407
  8
0
 10
4782.1408905689377207
 20
51.5631913195308798
 30
0.0
 11
4781.875652676617392
 21
51.8284292118313701
 31
0.0
  0
ARC
  5
E408
  8
0
 10
4782.0494261669746265
 20
50.8796446552735731
 30
0.0
 40
0.96456692910014
 50
78.2272262108826055
 51
100.3789051111572945
  0
LINE
  5
E409
  8
0
 10
4782.2462276098967777
 20
51.82392139054609
 30
0.0
 11
4782.2462276098740404
 21
51.3521590984737131
 31
0.0
  0
ARC
  5
E40A
  8
0
 10
4782.2694992662936784
 20
52.9071031862831873
 30
0.0
 40
1.5551182225818521
 50
265.9199139043170135
 51
269.1425619955857087
  0
LINE
  5
E40B
  8
0
 10
4782.1588514130753538
 20
51.355926297973717
 30
0.0
 11
4782.0768612147276144
 21
51.4379164962246023
 31
0.0
  0
ARC
  5
E40C
  8
0
 10
4782.0907656701210726
 20
51.4518359210737231
 30
0.0
 40
0.0196744572452126
 50
134.9691744540236016
 51
225.0308255567900062
  0
LINE
  5
E40D
  8
0
 10
4782.0768612147257954
 20
51.4657553459202219
 30
0.0
 11
4782.1409250078540936
 21
51.5297502425351865
 31
0.0
  0
ARC
  5
E40E
  8
0
 10
4782.1242395983126698
 20
51.5464536154859871
 30
0.0
 40
0.023609437932634
 50
314.9691744540259037
 51
45.1488363253024616
  0
LINE
  5
E40F
  8
0
 10
4782.7681552497997473
 20
51.7463724783434813
 30
0.0
 11
4782.6871724917737083
 21
51.7651124847737094
 31
0.0
  0
LINE
  5
E410
  8
0
 10
4782.6871724917737083
 20
51.7651124847737094
 30
0.0
 11
4782.6142262766752538
 21
51.7477060334542927
 31
0.0
  0
LINE
  5
E411
  8
0
 10
4782.6094312268451176
 20
51.7667916066550831
 30
0.0
 11
4782.6407091659630169
 21
51.77425908554698
 31
0.0
  0
ARC
  5
E412
  8
0
 10
4782.2872214641747632
 20
49.8560093296742295
 30
0.0
 40
1.950547533699476
 50
79.5588874958963146
 51
83.9526629928551387
  0
ARC
  5
E413
  8
0
 10
4782.2872217951417042
 20
49.8560141561745169
 30
0.0
 40
1.9505426969987869
 50
84.8366169119145184
 51
87.3177825954868041
  0
LINE
  5
E414
  8
0
 10
4782.3785002263139177
 20
51.8044199303442809
 30
0.0
 11
4782.3291848736189422
 21
51.8044217980376018
 31
0.0
  0
ARC
  5
E415
  8
0
 10
4782.3289944672333149
 20
51.7766595573628976
 30
0.0
 40
0.0277628936148927
 50
89.6070450018838045
 51
185.1973933300110104
  0
LINE
  5
E416
  8
0
 10
4782.3013457201750498
 20
51.7741445925572421
 30
0.0
 11
4782.3013457201750498
 21
51.3996284022722207
 31
0.0
  0
ARC
  5
E417
  8
0
 10
4782.328901509275056
 20
51.3996284022722207
 30
0.0
 40
0.0275557891008589
 50
179.9999999999934914
 51
269.9161584016173947
  0
LINE
  5
E418
  8
0
 10
4782.3288611865746134
 20
51.3720726426737002
 30
0.0
 11
4782.3785002649292437
 21
51.3720726426737215
 31
0.0
  0
ARC
  5
E419
  8
0
 10
4782.2739071487440015
 20
53.4880464033313316
 30
0.0
 40
2.1186297645277281
 50
272.8297445724953718
 51
275.1141674501378134
  0
LINE
  5
E41A
  8
0
 10
4782.4627630430049976
 20
51.798641779553229
 30
0.0
 11
4782.4627636410477862
 21
51.7890323935503716
 31
0.0
  0
ARC
  5
E41B
  8
0
 10
4782.2872214685612562
 20
53.3204832039934828
 30
0.0
 40
1.9505474984522511
 50
276.0473369857130024
 51
280.4411125672123148
  0
LINE
  5
E41C
  8
0
 10
4782.6407091660994411
 20
51.4022334831256984
 30
0.0
 11
4782.6093013353747665
 21
51.4097310408737229
 31
0.0
  0
LINE
  5
E41D
  8
0
 10
4782.6138720453718634
 20
51.4288780872433193
 30
0.0
 11
4782.6871724917928077
 21
51.4113800840176012
 31
0.0
  0
LINE
  5
E41E
  8
0
 10
4782.6871724917928077
 20
51.4113800840176012
 30
0.0
 11
4782.7697514618212153
 21
51.4305247647331996
 31
0.0
  0
LINE
  5
E41F
  8
0
 10
4782.4627630429749843
 20
51.3778507890914611
 30
0.0
 11
4782.4627630429749843
 21
51.3875974217737124
 31
0.0
  0
LINE
  5
E420
  8
0
 10
4781.8584073778747552
 20
51.8234034310737215
 30
0.0
 11
4782.12975502907193
 21
51.5520557797692476
 31
0.0
  0
ARC
  5
E421
  8
0
 10
4782.124187259170867
 20
51.5464880098703517
 30
0.0
 40
0.0078740157047563
 50
315.0000000720717139
 51
44.9999999887215125
  0
LINE
  5
E422
  8
0
 10
4782.1297550290782965
 20
51.5409202399773605
 30
0.0
 11
4782.0503332000744194
 21
51.4644445109737134
 31
0.0
  0
LINE
  5
E423
  8
0
 10
4782.0503332000744194
 20
51.4644445109737134
 30
0.0
 11
4781.7789855234750576
 21
51.735792187473713
 31
0.0
  0
ARC
  5
E424
  8
0
 10
4781.7845532933715731
 20
51.7413599573737102
 30
0.0
 40
0.0078740157032992
 50
134.9999999145325091
 51
225.0000000105306128
  0
LINE
  5
E425
  8
0
 10
4781.7789855234823335
 20
51.7469277272809833
 30
0.0
 11
4781.8584073778747552
 21
51.8234034310737215
 31
0.0
  0
LINE
  5
E426
  8
0
 10
4781.3958339090750087
 20
51.4701360481737069
 30
0.0
 11
4778.2855976885748532
 21
51.4701360481737211
 31
0.0
  0
LINE
  5
E427
  8
0
 10
4776.7107945389743691
 20
51.4701360481737069
 30
0.0
 11
4766.9076449326748843
 21
51.4701360481737069
 31
0.0
  0
LINE
  5
E428
  8
0
 10
4766.9076449326748843
 20
51.4701360481737069
 30
0.0
 11
4766.9076449326748843
 21
51.7063565205736992
 31
0.0
  0
LINE
  5
E429
  8
0
 10
4766.9076449326748843
 20
51.7063565205736992
 30
0.0
 11
4776.7107945389743691
 21
51.7063565205736992
 31
0.0
  0
LINE
  5
E42A
  8
0
 10
4778.2855976885748532
 20
51.7063565205736992
 30
0.0
 11
4781.3958339090750087
 21
51.7063565205736992
 31
0.0
  0
LINE
  5
E42B
  8
0
 10
4766.8682748539649765
 20
51.7063565205647535
 30
0.0
 11
4766.9076449326748843
 21
51.745726599373711
 31
0.0
  0
LINE
  5
E42C
  8
0
 10
4766.9076449326748843
 20
51.745726599373711
 30
0.0
 11
4766.9983195132890614
 21
51.745726599373711
 31
0.0
  0
LINE
  5
E42D
  8
0
 10
4766.9076449326748843
 20
51.7063565205736992
 30
0.0
 11
4766.8879598932735462
 21
51.7260415599737087
 31
0.0
  0
LINE
  5
E42E
  8
0
 10
4766.868274853883122
 20
51.4701360482648624
 30
0.0
 11
4766.9076449326748843
 21
51.4307659693737094
 31
0.0
  0
LINE
  5
E42F
  8
0
 10
4766.9076449326748843
 20
51.4307659693737094
 30
0.0
 11
4766.9983136756736712
 21
51.4307659693737094
 31
0.0
  0
LINE
  5
E430
  8
0
 10
4766.9076449326748843
 20
51.4701360481737069
 30
0.0
 11
4766.8879598933235684
 21
51.4504510087737117
 31
0.0
  0
CIRCLE
  5
E431
  8
0
 10
4766.8682748539749809
 20
55.2496636072737175
 30
0.0
 40
0.1023622047000003
  0
CIRCLE
  5
E432
  8
0
 10
4768.2462276098749498
 20
55.2496636072737175
 30
0.0
 40
0.1023622047000003
  0
CIRCLE
  5
E433
  8
0
 10
4768.2462276098749498
 20
54.5410021899737103
 30
0.0
 40
0.1023622047000003
  0
CIRCLE
  5
E434
  8
0
 10
4766.8682748539749809
 20
54.5410021899737103
 30
0.0
 40
0.1023622047000003
  0
CIRCLE
  5
E435
  8
0
 10
4777.1044953263753996
 20
55.2496636071737015
 30
0.0
 40
0.0984251969000001
  0
CIRCLE
  5
E436
  8
0
 10
4777.8918969011738227
 20
55.2496636071737015
 30
0.0
 40
0.0984251969000001
  0
CIRCLE
  5
E437
  8
0
 10
4777.1044953263753996
 20
54.5410021898736872
 30
0.0
 40
0.0984251969000001
  0
CIRCLE
  5
E438
  8
0
 10
4777.8918969011738227
 20
54.5410021898736872
 30
0.0
 40
0.0984251969000001
  0
LINE
  5
E439
  8
0
 10
4808.8761488696745801
 20
51.7546592789737119
 30
0.0
 11
4808.8761488696745801
 21
51.77434431830401
 31
0.0
  0
LINE
  5
E43A
  8
0
 10
4808.7970150114742864
 20
54.1079313237737125
 30
0.0
 11
4808.7970150114742864
 21
55.6827344733737206
 31
0.0
  0
LINE
  5
E43B
  8
0
 10
4808.1674874523750987
 20
50.7692886693737222
 30
0.0
 11
4808.1674874523750987
 21
51.278627991873698
 31
0.0
  0
LINE
  5
E43C
  8
0
 10
4808.1674874523750987
 20
51.278627991873698
 30
0.0
 11
4808.1674874523750987
 21
51.3520258119737107
 31
0.0
  0
LINE
  5
E43D
  8
0
 10
4808.1674874523750987
 20
51.4411719834737227
 30
0.0
 11
4808.1674874523750987
 21
51.7323880278614325
 31
0.0
  0
LINE
  5
E43E
  8
0
 10
4766.6714244602735562
 20
50.8450195823071027
 30
0.0
 11
4766.6714244602735562
 21
51.2854059329185077
 31
0.0
  0
LINE
  5
E43F
  8
0
 10
4766.6714244602735562
 20
51.9032069148028867
 30
0.0
 11
4766.6714244602735562
 21
53.478010063873711
 31
0.0
  0
LINE
  5
E440
  8
0
 10
4766.6714244602735562
 20
54.1079313237737125
 30
0.0
 11
4766.6714244602735562
 21
55.6827344733737206
 31
0.0
  0
LINE
  5
E441
  8
0
 10
4778.2855976885748532
 20
50.918954945773713
 30
0.0
 11
4778.2855976885748532
 21
55.6827344732737117
 31
0.0
  0
LINE
  5
E442
  8
0
 10
4776.7107945389743691
 20
50.9189549457736916
 30
0.0
 11
4776.7107945389743691
 21
55.6827344732737117
 31
0.0
  0
LINE
  5
E443
  8
0
 10
4768.7974087121738194
 20
51.2875348428107571
 30
0.0
 11
4768.7974087121738194
 21
51.344151796173719
 31
0.0
  0
LINE
  5
E444
  8
0
 10
4768.7974087121738194
 20
51.8244668719325432
 30
0.0
 11
4768.7974087121738194
 21
51.8967021176737191
 31
0.0
  0
LINE
  5
E445
  8
0
 10
4768.6399283972750709
 20
54.1079313237737125
 30
0.0
 11
4768.6399283972750709
 21
55.6827344733737206
 31
0.0
  0
LINE
  5
E446
  8
0
 10
4806.8285110744736812
 20
54.1079313237737125
 30
0.0
 11
4806.8285110744736812
 21
55.6827344733737206
 31
0.0
  0
LINE
  5
E447
  8
0
 10
4804.5060708627752319
 20
51.2874362912820416
 30
0.0
 11
4804.5060708627752319
 21
51.3520258119737107
 31
0.0
  0
LINE
  5
E448
  8
0
 10
4804.5060708627752319
 20
51.9032069142737029
 30
0.0
 11
4804.5060708627752319
 21
52.0669033294656103
 31
0.0
  0
LINE
  5
E449
  8
0
 10
4785.4509522369062324
 20
48.4069971701468589
 30
0.0
 11
4785.4509522369062324
 21
49.1786594579911025
 31
0.0
  0
LINE
  5
E44A
  8
0
 10
4794.506070347005334
 20
48.4069885001679907
 30
0.0
 11
4794.506070347005334
 21
49.1786508598574201
 31
0.0
  0
LINE
  5
E44B
  8
0
 10
4806.8285110743745463
 20
55.6827344733737206
 30
0.0
 11
4808.7970150114742864
 21
55.6827344733737206
 31
0.0
  0
LINE
  5
E44C
  8
0
 10
4806.8285110744736812
 20
54.1079313237737125
 30
0.0
 11
4808.7970150114742864
 21
54.1079313237737196
 31
0.0
  0
LINE
  5
E44D
  8
0
 10
4767.1635504444739126
 20
51.8244667800269383
 30
0.0
 11
4767.1635504444739126
 21
51.7765101199756828
 31
0.0
  0
LINE
  5
E44E
  8
0
 10
4767.1635504444739126
 20
51.4000195625917016
 30
0.0
 11
4767.1635504444739126
 21
51.352025811873709
 31
0.0
  0
LINE
  5
E44F
  8
0
 10
4785.4588258400772247
 20
54.0684296587737165
 30
0.0
 11
4794.498196115171595
 21
54.0684296582737076
 31
0.0
  0
ARC
  5
E450
  8
0
 10
4794.4981891461266059
 20
54.076310643022083
 30
0.0
 40
0.0078809878296854
 50
270.0506658707129191
 51
359.9493341292276227
  0
LINE
  5
E451
  8
0
 10
4794.5060701308739226
 20
54.0763036739736975
 30
0.0
 11
4794.506070130973967
 21
54.2278784771736966
 31
0.0
  0
ARC
  5
E452
  8
0
 10
4794.5139441466799326
 20
54.2278784771685025
 30
0.0
 40
0.0078740157051911
 50
90.0000000344969635
 51
179.9999999621985012
  0
LINE
  5
E453
  8
0
 10
4794.5139441466753851
 20
54.2357524928737007
 30
0.0
 11
4794.8974146552209277
 21
54.235752493104421
 31
0.0
  0
LINE
  5
E454
  8
0
 10
4794.5060699345749526
 20
54.304781717473702
 30
0.0
 11
4794.506070130973967
 21
54.2278784771736966
 31
0.0
  0
ARC
  5
E455
  8
0
 10
4794.1202478611876359
 20
54.6813295460640205
 30
0.0
 40
0.8958387889967552
 50
329.7363516453203829
 51
335.1445827957859933
  0
ARC
  5
E456
  8
0
 10
4794.8973315015564367
 20
54.2278996630472534
 30
0.0
 40
0.0038598510710364
 50
149.736351645315807
 51
180.311350402619496
  0
LINE
  5
E457
  8
0
 10
4794.8934714491733757
 20
54.2278786881737105
 30
0.0
 11
4794.8934717074744185
 21
54.1319276616737213
 31
0.0
  0
ARC
  5
E458
  8
0
 10
4794.9011929777489058
 20
54.1319276613626172
 30
0.0
 40
0.0077212702747023
 50
179.9999976914486126
 51
220.9578380353632951
  0
LINE
  5
E459
  8
0
 10
4794.8953619350750159
 20
54.1268663417736988
 30
0.0
 11
4794.9773894269737866
 21
54.029052510573699
 31
0.0
  0
LINE
  5
E45A
  8
0
 10
4795.6934717074736909
 20
54.3047817174737304
 30
0.0
 11
4795.693471707374556
 21
54.1319276616737071
 31
0.0
  0
ARC
  5
E45B
  8
0
 10
4795.685597691662224
 20
54.131927661678283
 30
0.0
 40
0.0078740157125043
 50
320.0000000257468855
 51
359.9999999668228838
  0
LINE
  5
E45C
  8
0
 10
4795.6916295376449852
 20
54.1268663419425096
 30
0.0
 11
4795.6095539750476746
 21
54.0290524952635209
 31
0.0
  0
LINE
  5
E45D
  8
0
 10
4794.9227032931748909
 20
54.0290524952737101
 30
0.0
 11
4795.6642545615613926
 21
54.0290520244556518
 31
0.0
  0
LINE
  5
E45E
  8
0
 10
4795.693471707374556
 20
54.1319276616737213
 30
0.0
 11
4794.8934717074744185
 21
54.1319276616737213
 31
0.0
  0
ARC
  5
E45F
  8
0
 10
4795.4495538056762598
 20
53.7818793950933625
 30
0.0
 40
0.2976879860276954
 50
126.7791475459536059
 51
135.7281664818542026
  0
ARC
  5
E460
  8
0
 10
4795.2933924227681928
 20
53.996807941429978
 30
0.0
 40
0.032244683985657
 50
47.9092872048641567
 51
89.7271598812364601
  0
ARC
  5
E461
  8
0
 10
4795.2933924227681928
 20
53.996807941429978
 30
0.0
 40
0.032244683985657
 50
90.2727673634904448
 51
133.2023795117617908
  0
ARC
  5
E462
  8
0
 10
4795.1708769376227792
 20
53.8199186554355435
 30
0.0
 40
0.2471860643570743
 50
43.3770393016097628
 51
54.332519170632267
  0
LINE
  5
E463
  8
0
 10
4785.4509518243748971
 20
54.3047817174737375
 30
0.0
 11
4785.4509518243748971
 21
54.0763036744741612
 31
0.0
  0
ARC
  5
E464
  8
0
 10
4785.4588258400772247
 20
54.0763036744741612
 30
0.0
 40
0.0078740157028987
 50
179.9999999999992042
 51
269.999999996821316
  0
LINE
  5
E465
  8
0
 10
4784.2635504440750083
 20
54.304781717473702
 30
0.0
 11
4784.2635504441750527
 21
54.1319276623691579
 31
0.0
  0
ARC
  5
E466
  8
0
 10
4784.2712717151998731
 20
54.1319276623736201
 30
0.0
 40
0.0077212710260941
 50
180.0000000331596084
 51
220.9578382167906057
  0
LINE
  5
E467
  8
0
 10
4784.2654406719748295
 20
54.1268663422737006
 30
0.0
 11
4784.3451080314744104
 21
54.031865207173702
 31
0.0
  0
ARC
  5
E468
  8
0
 10
4784.3511375939460777
 20
54.0369215853534683
 30
0.0
 40
0.0078690904110859
 50
219.9831249754853104
 51
270.0166266397565096
  0
LINE
  5
E469
  8
0
 10
4784.2635504441750527
 20
54.1319276623691579
 30
0.0
 11
4785.0635504440742807
 21
54.1319276623691508
 31
0.0
  0
LINE
  5
E46A
  8
0
 10
4785.026963683077156
 20
54.029052495273703
 30
0.0
 11
4784.2999482446639377
 21
54.0290524952737101
 31
0.0
  0
ARC
  5
E46B
  8
0
 10
4784.3001419449983587
 20
54.0211885545498305
 30
0.0
 40
0.0078663259230889
 50
91.4109933418257157
 51
171.6315364635200069
  0
ARC
  5
E46C
  8
0
 10
4785.0269574292560719
 20
54.0211866349848222
 30
0.0
 40
0.0078658627749595
 50
8.3806675357581568
 51
89.9544464787011435
  0
ARC
  5
E46D
  8
0
 10
4784.9759609574202841
 20
54.0369265964163503
 30
0.0
 40
0.0078741011428274
 50
270.0003875068783827
 51
319.9998626841796749
  0
LINE
  5
E46E
  8
0
 10
4784.9819928567194438
 20
54.0318652072265593
 30
0.0
 11
4785.0617082743738138
 21
54.1268663425736989
 31
0.0
  0
ARC
  5
E46F
  8
0
 10
4785.0556764284965539
 20
54.1319276622260688
 30
0.0
 40
0.007874015577127
 50
319.9999999912994895
 51
0.0000010411452623
  0
LINE
  5
E470
  8
0
 10
4785.0635504440742807
 20
54.1319276623691579
 30
0.0
 11
4785.0635507048009458
 21
54.227883001004983
 31
0.0
  0
ARC
  5
E471
  8
0
 10
4785.0596292925956732
 20
54.2278830116601327
 30
0.0
 40
0.0039214122052143
 50
359.9998443175434204
 51
30.7968680412114715
  0
ARC
  5
E472
  8
0
 10
4785.6969953570633152
 20
54.6083889640573403
 30
0.0
 40
0.738385991358837
 50
204.2787858930678055
 51
210.8373098837124076
  0
LINE
  5
E473
  8
0
 10
4785.4430808110382713
 20
54.2357524928737007
 30
0.0
 11
4785.0595348229289812
 21
54.2357524928737078
 31
0.0
  0
ARC
  5
E474
  8
0
 10
4785.4430779580734452
 20
54.2278783639633417
 30
0.0
 40
0.0078741294272102
 50
0.4684024161964224
 51
89.9792405361717869
  0
LINE
  5
E475
  8
0
 10
4781.3958339090750087
 20
51.7457265993736968
 30
0.0
 11
4781.4352039877749121
 21
51.7063565205736992
 31
0.0
  0
LINE
  5
E476
  8
0
 10
4781.4352039877749121
 20
51.7063565205736992
 30
0.0
 11
4781.4352039877749121
 21
51.4701360481737211
 31
0.0
  0
LINE
  5
E477
  8
0
 10
4781.4352039877749121
 20
51.4701360481737211
 30
0.0
 11
4781.3958339090750087
 21
51.4307659693737023
 31
0.0
  0
LINE
  5
E478
  8
0
 10
4781.4155189484736184
 20
51.7260415599737087
 30
0.0
 11
4781.3958339090750087
 21
51.7063565205736992
 31
0.0
  0
LINE
  5
E479
  8
0
 10
4781.3958339090750087
 20
51.7063565205736992
 30
0.0
 11
4781.3958339090750087
 21
51.4701360481736998
 31
0.0
  0
LINE
  5
E47A
  8
0
 10
4781.3958339090750087
 20
51.4701360481736998
 30
0.0
 11
4781.4155189484736184
 21
51.4504510088237126
 31
0.0
  0
LINE
  5
E47B
  8
0
 10
4779.4942591058743346
 20
51.2732856544737103
 30
0.0
 11
4808.1674874523750987
 21
51.2732856544737103
 31
0.0
  0
LINE
  5
E47C
  8
0
 10
4779.5848102869749709
 20
50.8795848670737101
 30
0.0
 11
4783.9459469761022774
 21
50.8795848670737101
 31
0.0
  0
LINE
  5
E47D
  8
0
 10
4785.3813087001890381
 20
50.8795848670737101
 30
0.0
 11
4794.5757136704905861
 21
50.8795848670737101
 31
0.0
  0
LINE
  5
E47E
  8
0
 10
4796.0110753945791657
 20
50.8795848670737101
 30
0.0
 11
4806.1897504774933623
 21
50.8795848670737101
 31
0.0
  0
LINE
  5
E47F
  8
0
 10
4808.7970150114742864
 20
50.8795848670737101
 30
0.0
 11
4809.3092197358746489
 21
50.8795848670737101
 31
0.0
  0
ARC
  5
E480
  8
0
 10
4779.5060701272686856
 20
51.2339155780783528
 30
0.0
 40
0.0393700763953647
 50
89.9999966459785838
 51
180.0000092900750985
  0
LINE
  5
E481
  8
0
 10
4779.4667000508743513
 20
51.2339155716947872
 30
0.0
 11
4779.4667000507743069
 21
50.9976951033237
 31
0.0
  0
ARC
  5
E482
  8
0
 10
4779.5848102869749709
 20
50.9976951032737134
 30
0.0
 40
0.1181102362000006
 50
179.9999999757500007
 51
270.0
  0
LINE
  5
E483
  8
0
 10
4779.4667000508243291
 20
51.8638368355737001
 30
0.0
 11
4779.4667000508243291
 21
52.2969077179176765
 31
0.0
  0
ARC
  5
E484
  8
0
 10
4779.4942591058743346
 20
51.2811596701737074
 30
0.0
 40
0.007874015699997
 50
180.0000102807989038
 51
269.9999999994789164
  0
LINE
  5
E485
  8
0
 10
4779.4863850901747355
 20
51.2811596687608429
 30
0.0
 11
4779.4863850901747355
 21
51.3835218748737006
 31
0.0
  0
ARC
  5
E486
  8
0
 10
4779.4942591058743346
 20
51.3835218748737006
 30
0.0
 40
0.0078740156999966
 50
90.0000000004689724
 51
180.0000000000019895
  0
LINE
  5
E487
  8
0
 10
4779.4942591058743346
 20
51.3913958906737065
 30
0.0
 11
4780.6202433578746422
 21
51.3913958905737118
 31
0.0
  0
ARC
  5
E488
  8
0
 10
4780.6202433578737327
 20
51.3835218747730025
 30
0.0
 40
0.0078740158007022
 50
0.0000007327879924
 51
89.9999999949453269
  0
LINE
  5
E489
  8
0
 10
4780.6281173736742858
 20
51.3835218748737006
 30
0.0
 11
4780.6281173749830486
 21
51.2811596701737074
 31
0.0
  0
ARC
  5
E48A
  8
0
 10
4780.6202433593844034
 20
51.2811596700730021
 30
0.0
 40
0.0078740155992922
 50
269.9999890138133196
 51
0.0000007327900279
  0
LINE
  5
E48B
  8
0
 10
4780.1989835153754029
 20
51.4307659693737023
 30
0.0
 11
4780.1989672939753291
 21
51.3992699063737035
 31
0.0
  0
ARC
  5
E48C
  8
0
 10
4780.2068372814701434
 20
51.3992658530983704
 30
0.0
 40
0.0078699885392717
 50
179.97049098880521
 51
270.1474231009909204
  0
LINE
  5
E48D
  8
0
 10
4779.9155189484736184
 20
51.4307659693737023
 30
0.0
 11
4779.9155189483735739
 21
51.3992699063487066
 31
0.0
  0
ARC
  5
E48E
  8
0
 10
4779.9076449326366856
 20
51.3992699063737106
 30
0.0
 40
0.0078740157367139
 50
270.000000262062315
 51
359.9999998180873035
  0
ARC
  5
E48F
  8
0
 10
4779.5848102707295766
 20
52.2969077179176765
 30
0.0
 40
0.1181102199560364
 50
89.999978620640789
 51
180.0
  0
LINE
  5
E490
  8
0
 10
4779.5848019490040315
 20
52.4150179375805578
 30
0.0
 11
4780.5296921767749154
 21
52.4150179375805578
 31
0.0
  0
ARC
  5
E491
  8
0
 10
4780.5296921767749154
 20
52.2969077013805617
 30
0.0
 40
0.1181102361999962
 50
0.000000142207536
 51
90.0
  0
LINE
  5
E492
  8
0
 10
4780.6478024129737605
 20
52.2969077016737103
 30
0.0
 11
4780.6478024140487832
 21
51.8638368355737001
 31
0.0
  0
LINE
  5
E493
  8
0
 10
4780.6478024140487832
 20
51.8638368355737001
 30
0.0
 11
4779.4667000507743069
 21
51.8638368355737001
 31
0.0
  0
ARC
  5
E494
  8
0
 10
4780.6202433578037017
 20
51.8559628196029792
 30
0.0
 40
0.0078740158707191
 50
0.0000012423220124
 51
89.999999485463789
  0
LINE
  5
E495
  8
0
 10
4780.6281173736742858
 20
51.8559628196029792
 30
0.0
 11
4780.6281173736742858
 21
51.7536006150737009
 31
0.0
  0
ARC
  5
E496
  8
0
 10
4780.6202433579746867
 20
51.7536006150737009
 30
0.0
 40
0.007874015699997
 50
269.9999992727500171
 51
0.0
  0
ARC
  5
E497
  8
0
 10
4779.4942591058743346
 20
51.855962819773687
 30
0.0
 40
0.007874015700006
 50
90.0
 51
179.9999897190976981
  0
LINE
  5
E498
  8
0
 10
4779.4863850901747355
 20
51.855962819773687
 30
0.0
 11
4779.4863850901747355
 21
51.7536006150737009
 31
0.0
  0
ARC
  5
E499
  8
0
 10
4779.4942591058743346
 20
51.7536006150737009
 30
0.0
 40
0.007874015699997
 50
180.0000000000048885
 51
270.0
  0
LINE
  5
E49A
  8
0
 10
4782.3013457200750054
 20
51.8448180443718201
 30
0.0
 11
4782.3013457200750054
 21
52.1379400632737102
 31
0.0
  0
LINE
  5
E49B
  8
0
 10
4782.3013457200750054
 20
52.1379400632737102
 30
0.0
 11
4783.8539780706087186
 21
52.1379400632737102
 31
0.0
  0
LINE
  5
E49C
  8
0
 10
4785.4731235007930081
 20
52.1379400632737102
 30
0.0
 11
4794.4838999017665628
 21
52.1379400632737102
 31
0.0
  0
LINE
  5
E49D
  8
0
 10
4796.1030427534205955
 20
52.1379400632737102
 30
0.0
 11
4808.1674874523750987
 21
52.1379400632737031
 31
0.0
  0
LINE
  5
E49E
  8
0
 10
4782.3407157988749532
 20
51.7457265993736968
 30
0.0
 11
4807.7738558569599263
 21
51.7457265993736968
 31
0.0
  0
LINE
  5
E49F
  8
0
 10
4808.0374585227282296
 20
51.7457265993736968
 30
0.0
 11
4808.1618927347199133
 21
51.745726599373711
 31
0.0
  0
LINE
  5
E4A0
  8
0
 10
4782.3407157988749532
 20
51.4307659693737094
 30
0.0
 11
4807.7773905874710181
 21
51.4307659693737094
 31
0.0
  0
LINE
  5
E4A1
  8
0
 10
4808.0917752250543344
 20
51.4307659693737094
 30
0.0
 11
4808.1617647519051388
 21
51.4307659693737094
 31
0.0
  0
LINE
  5
E4A2
  8
0
 10
4782.3407157988749532
 20
51.7457265993736968
 30
0.0
 11
4782.3013457200750054
 21
51.7063565205736992
 31
0.0
  0
LINE
  5
E4A3
  8
0
 10
4782.3407157988749532
 20
51.4307659693737094
 30
0.0
 11
4782.3013457200750054
 21
51.4701360481736998
 31
0.0
  0
LINE
  5
E4A4
  8
0
 10
4782.321030759475434
 20
51.7260415599737087
 30
0.0
 11
4782.3407157988749532
 21
51.7063565205736992
 31
0.0
  0
LINE
  5
E4A5
  8
0
 10
4782.3407157988749532
 20
51.7063565205736992
 30
0.0
 11
4782.3407157988749532
 21
51.4701360481736998
 31
0.0
  0
LINE
  5
E4A6
  8
0
 10
4782.3407157988749532
 20
51.4701360481736998
 30
0.0
 11
4782.321030759475434
 21
51.4504510087737117
 31
0.0
  0
LINE
  5
E4A7
  8
0
 10
4808.1281173736742858
 20
51.7457265993736968
 30
0.0
 11
4808.1674874523750987
 21
51.7063565205736992
 31
0.0
  0
LINE
  5
E4A8
  8
0
 10
4808.14780241297467
 20
51.72575142227371
 30
0.0
 11
4808.1281173736742858
 21
51.7063565205736992
 31
0.0
  0
LINE
  5
E4A9
  8
0
 10
4808.1281173736742858
 20
51.7063565205736992
 30
0.0
 11
4808.1281173736742858
 21
51.4701360481736998
 31
0.0
  0
LINE
  5
E4AA
  8
0
 10
4808.1281173736742858
 20
51.4701360481736998
 30
0.0
 11
4808.1478024130738049
 21
51.4504510088236984
 31
0.0
  0
LINE
  5
E4AB
  8
0
 10
4808.1674874523750987
 20
51.4701360481736998
 30
0.0
 11
4808.1281173736742858
 21
51.4307659693737094
 31
0.0
  0
LINE
  5
E4AC
  8
0
 10
4782.3407157988749532
 20
51.7063565205736992
 30
0.0
 11
4808.1281173736742858
 21
51.7063565205736992
 31
0.0
  0
LINE
  5
E4AD
  8
0
 10
4782.3407157988749532
 20
51.4701360481736998
 30
0.0
 11
4807.9852244931744281
 21
51.4701360481737069
 31
0.0
  0
LINE
  5
E4AE
  8
0
 10
4807.9885594298693832
 20
51.4701360481737069
 30
0.0
 11
4808.1281173736742858
 21
51.4701360481736998
 31
0.0
  0
LINE
  5
E4AF
  8
0
 10
4782.3049740899314202
 20
51.3859600512737202
 30
0.0
 11
4782.4627630429749843
 21
51.3859600512737202
 31
0.0
  0
LINE
  5
E4B0
  8
0
 10
4782.4941737534909407
 20
51.3859600512737131
 30
0.0
 11
4782.5367324208464197
 21
51.3859600512737202
 31
0.0
  0
LINE
  5
E4B1
  8
0
 10
4782.7537077031029185
 20
51.3859600512737202
 30
0.0
 11
4783.7385504795247471
 21
51.3859600512737202
 31
0.0
  0
LINE
  5
E4B2
  8
0
 10
4785.5885502049750357
 20
51.3859600512737131
 30
0.0
 11
4794.3684721657064074
 21
51.3859600512737202
 31
0.0
  0
LINE
  5
E4B3
  8
0
 10
4796.2184718911557866
 20
51.3859600512737131
 30
0.0
 11
4804.5257551688737294
 21
51.3859600512737202
 31
0.0
  0
LINE
  5
E4B4
  8
0
 10
4807.0848102869749709
 20
51.3859600512737202
 30
0.0
 11
4808.1674874523750987
 21
51.3859600512737131
 31
0.0
  0
LINE
  5
E4B5
  8
0
 10
4782.3013457201750498
 20
51.7736552411737065
 30
0.0
 11
4782.4745429808099288
 21
51.7736552411736994
 31
0.0
  0
LINE
  5
E4B6
  8
0
 10
4782.4824791681394345
 20
51.7736552411736994
 30
0.0
 11
4782.6381799311529903
 21
51.7736552411736994
 31
0.0
  0
LINE
  5
E4B7
  8
0
 10
4782.7915798458689096
 20
51.7736552411736994
 30
0.0
 11
4784.4667002324058558
 21
51.7736552411736994
 31
0.0
  0
LINE
  5
E4B8
  8
0
 10
4784.8603885187585547
 20
51.7736552411736994
 30
0.0
 11
4795.096621492804843
 21
51.7736552411736994
 31
0.0
  0
LINE
  5
E4B9
  8
0
 10
4795.4903097500882723
 20
51.7736552411736994
 30
0.0
 11
4804.7324480822735495
 21
51.7736552411736994
 31
0.0
  0
LINE
  5
E4BA
  8
0
 10
4805.4607945389752786
 20
51.7736552411736994
 30
0.0
 11
4806.2383535940753063
 21
51.7736552411737065
 31
0.0
  0
LINE
  5
E4BB
  8
0
 10
4806.4745740665748599
 20
51.7736552411737065
 30
0.0
 11
4807.818577086138248
 21
51.7736552411737208
 31
0.0
  0
LINE
  5
E4BC
  8
0
 10
4804.5060708627752319
 20
51.9032069142737029
 30
0.0
 11
4807.1044953263735806
 21
51.9032069142737029
 31
0.0
  0
LINE
  5
E4BD
  8
0
 10
4807.1044953263735806
 20
51.9032069142737029
 30
0.0
 11
4807.1044953263735806
 21
51.9428753196737034
 31
0.0
  0
ARC
  5
E4BE
  8
0
 10
4807.0848102868967544
 20
51.9428753196737034
 30
0.0
 40
0.019685039477622
 50
0.0000000000032569
 51
88.2634980898316286
  0
ARC
  5
E4BF
  8
0
 10
4807.1044953304726732
 20
52.5921833058703925
 30
0.0
 40
0.6299212735146106
 50
238.1931677193568078
 51
268.2634980898316144
  0
ARC
  5
E4C0
  8
0
 10
4806.6687394198552283
 20
51.8895680609478589
 30
0.0
 40
0.1968503975258441
 50
58.1931677193566017
 51
89.9999997033886956
  0
LINE
  5
E4C1
  8
0
 10
4806.6687394198552283
 20
52.0864184584737018
 30
0.0
 11
4804.5257551688737294
 21
52.0864184584737018
 31
0.0
  0
ARC
  5
E4C2
  8
0
 10
4804.5257551688737294
 20
52.0667334190736995
 30
0.0
 40
0.0196850394000023
 50
90.0
 51
179.5054483235057887
  0
LINE
  5
E4C3
  8
0
 10
4804.5257551688737294
 20
51.9032069142737029
 30
0.0
 11
4804.5257551688737294
 21
51.8244667567737025
 31
0.0
  0
LINE
  5
E4C4
  8
0
 10
4804.5257551688737294
 20
51.8244667567737025
 30
0.0
 11
4807.0848102869749709
 21
51.8244667567737025
 31
0.0
  0
LINE
  5
E4C5
  8
0
 10
4807.0848102869749709
 20
51.8244667567737025
 30
0.0
 11
4807.0848102869749709
 21
51.9032069142737029
 31
0.0
  0
LINE
  5
E4C6
  8
0
 10
4804.7324480822735495
 20
51.8244667567737025
 30
0.0
 11
4804.7324480822735495
 21
51.7457265993736968
 31
0.0
  0
LINE
  5
E4C7
  8
0
 10
4805.4607945389752786
 20
51.8244667567737025
 30
0.0
 11
4805.4607945389752786
 21
51.745726599373711
 31
0.0
  0
LINE
  5
E4C8
  8
0
 10
4804.813156743674881
 20
51.7457265993736968
 30
0.0
 11
4804.8131580810750165
 21
51.7654116386737115
 31
0.0
  0
LINE
  5
E4C9
  8
0
 10
4804.8131580810750165
 20
51.7654116386737115
 30
0.0
 11
4805.380084540174721
 21
51.7654116386737115
 31
0.0
  0
LINE
  5
E4CA
  8
0
 10
4805.380084540174721
 20
51.7654116386737115
 30
0.0
 11
4805.380084540174721
 21
51.745726599373711
 31
0.0
  0
LINE
  5
E4CB
  8
0
 10
4805.2147315468737361
 20
51.7654116386737115
 30
0.0
 11
4805.2147315468737361
 21
51.8244667567737025
 31
0.0
  0
LINE
  5
E4CC
  8
0
 10
4804.978511074375092
 20
51.7654116386737115
 30
0.0
 11
4804.978511074375092
 21
51.8244667567737025
 31
0.0
  0
LINE
  5
E4CD
  8
0
 10
4806.6399283972750709
 20
51.7457265993736968
 30
0.0
 11
4806.6399283972750709
 21
51.7654116386737115
 31
0.0
  0
LINE
  5
E4CE
  8
0
 10
4806.6399283972750709
 20
51.7654116386737115
 30
0.0
 11
4806.0729992633750953
 21
51.7654116386737186
 31
0.0
  0
LINE
  5
E4CF
  8
0
 10
4806.0729992633750953
 20
51.7654116386737186
 30
0.0
 11
4806.0729992633750953
 21
51.745726599373711
 31
0.0
  0
LINE
  5
E4D0
  8
0
 10
4806.2383535940753063
 20
51.8244667567737025
 30
0.0
 11
4806.2383535940753063
 21
51.7654116386737115
 31
0.0
  0
LINE
  5
E4D1
  8
0
 10
4806.4745740665748599
 20
51.8244667567737025
 30
0.0
 11
4806.4745740665748599
 21
51.7654116386737115
 31
0.0
  0
LINE
  5
E4D2
  8
0
 10
4804.5060708627752319
 20
51.3520258119737107
 30
0.0
 11
4808.5017394208753103
 21
51.3520258119736965
 31
0.0
  0
ARC
  5
E4D3
  8
0
 10
4804.5257551688737294
 20
51.2876062016737393
 30
0.0
 40
0.0196850394000504
 50
180.4945516758928932
 51
252.1103241904928893
  0
LINE
  5
E4D4
  8
0
 10
4804.5197082172126102
 20
51.2688729384294106
 30
0.0
 11
4804.5477117995751541
 21
51.2598775911737121
 31
0.0
  0
ARC
  5
E4D5
  8
0
 10
4807.7002110224475473
 20
61.1366609988915428
 30
0.0
 40
10.3676951070029109
 50
252.2978145312590925
 51
266.5906293269745788
  0
ARC
  5
E4D6
  8
0
 10
4807.693734771986783
 20
61.1019073067766811
 30
0.0
 40
10.3326187206664706
 50
266.6150168311406787
 51
270.0072737732176051
  0
LINE
  5
E4D7
  8
0
 10
4807.6950465112749953
 20
50.769288669373708
 30
0.0
 11
4808.5017394208753103
 21
50.769288669373708
 31
0.0
  0
LINE
  5
E4D8
  8
0
 10
4804.5257551688737294
 20
51.3520258119737107
 30
0.0
 11
4804.5257551688737294
 21
51.4307659693737094
 31
0.0
  0
LINE
  5
E4D9
  8
0
 10
4807.0848102869749709
 20
51.4307659693737094
 30
0.0
 11
4807.0848102869749709
 21
51.3520258119737107
 31
0.0
  0
LINE
  5
E4DA
  8
0
 10
4808.5607945389747329
 20
52.1827344733734719
 30
0.0
 11
4808.5607945389747329
 21
51.7940293576737005
 31
0.0
  0
LINE
  5
E4DB
  8
0
 10
4808.5607945389747329
 20
51.7546592789736977
 30
0.0
 11
4808.5607945389747329
 21
49.9386399851739498
 31
0.0
  0
ARC
  5
E4DC
  8
0
 10
4808.5804795783751615
 20
49.9386399851739498
 30
0.0
 40
0.0196850394002333
 50
180.0000000000100897
 51
269.999999999322597
  0
LINE
  5
E4DD
  8
0
 10
4808.580479578374252
 20
49.918954945773713
 30
0.0
 11
4808.7773299720747673
 21
49.9189549457713611
 31
0.0
  0
ARC
  5
E4DE
  8
0
 10
4808.7773299720747673
 20
49.9386399851711289
 30
0.0
 40
0.0196850393997679
 50
269.999999999322597
 51
0.0000000074867713
  0
LINE
  5
E4DF
  8
0
 10
4808.7970150114742864
 20
49.9386399851737082
 30
0.0
 11
4808.7970150114742864
 21
51.7546592789736977
 31
0.0
  0
LINE
  5
E4E0
  8
0
 10
4808.7970150114742864
 20
51.7870176980736971
 30
0.0
 11
4808.7970150114742864
 21
52.1827344733737135
 31
0.0
  0
ARC
  5
E4E1
  8
0
 10
4808.7773299721739022
 20
52.1827344733737135
 30
0.0
 40
0.0196850392999934
 50
359.9999999999996021
 51
90.0000002910875878
  0
LINE
  5
E4E2
  8
0
 10
4808.7773299720747673
 20
52.2024195127737229
 30
0.0
 11
4808.580479578374252
 21
52.2024195126737069
 31
0.0
  0
ARC
  5
E4E3
  8
0
 10
4808.580479578385166
 20
52.1827344732637002
 30
0.0
 40
0.0196850394100068
 50
90.0000000290774977
 51
179.999999679792495
  0
LINE
  5
E4E4
  8
0
 10
4808.5607945389747329
 20
52.1728919536737124
 30
0.0
 11
4808.5214244602748295
 21
52.1728919536737124
 31
0.0
  0
ARC
  5
E4E5
  8
0
 10
4808.5214244602748295
 20
52.1532069142737029
 30
0.0
 40
0.0196850394000023
 50
90.0
 51
180.0
  0
LINE
  5
E4E6
  8
0
 10
4808.5017394208753103
 20
52.1532069142737029
 30
0.0
 11
4808.5017394208753103
 21
51.7940293576737005
 31
0.0
  0
LINE
  5
E4E7
  8
0
 10
4808.5017394208753103
 20
51.7546592789737119
 30
0.0
 11
4808.5017394208753103
 21
51.3457176209433186
 31
0.0
  0
LINE
  5
E4E8
  8
0
 10
4808.5017394208753103
 20
50.7752541583737127
 30
0.0
 11
4808.5017394208753103
 21
49.9681697778737117
 31
0.0
  0
ARC
  5
E4E9
  8
0
 10
4808.5214266941020469
 20
49.9681697778737117
 30
0.0
 40
0.0196872732267366
 50
179.9999999999967031
 51
269.9934989044443228
  0
LINE
  5
E4EA
  8
0
 10
4808.5214244602748295
 20
49.9484825047737075
 30
0.0
 11
4808.5607945389747329
 21
49.9484825047737075
 31
0.0
  0
LINE
  5
E4EB
  8
0
 10
4808.5607945389747329
 20
51.3264352607737067
 30
0.0
 11
4808.5214264445303343
 21
51.3264352607737067
 31
0.0
  0
ARC
  5
E4EC
  8
0
 10
4808.5214271308914249
 20
51.3461272310938028
 30
0.0
 40
0.0196919706011896
 50
181.1918881094134974
 51
269.9922295720988927
  0
ARC
  5
E4ED
  8
0
 10
4808.52142446036396
 20
50.7752541581574377
 30
0.0
 40
0.0196850396162828
 50
90.0000002606552556
 51
180.0065005437965056
  0
LINE
  5
E4EE
  8
0
 10
4808.52142446036396
 20
50.7949391977737221
 30
0.0
 11
4808.5607945389747329
 21
50.7949391977737079
 31
0.0
  0
LINE
  5
E4EF
  8
0
 10
4809.3485898145736428
 20
50.9189549457737201
 30
0.0
 11
4809.3485898145736428
 21
51.2339155756736986
 31
0.0
  0
LINE
  5
E4F0
  8
0
 10
4808.7970150114742864
 20
51.2732856544737103
 30
0.0
 11
4809.3092197358746489
 21
51.2732856543737086
 31
0.0
  0
ARC
  5
E4F1
  8
0
 10
4809.3092197358673729
 20
51.2339155756660176
 30
0.0
 40
0.0393700787076838
 50
0.0000000111780467
 51
89.9999999887963043
  0
ARC
  5
E4F2
  8
0
 10
4809.3092197358746489
 20
50.9189549457737272
 30
0.0
 40
0.03937007870001
 50
270.0
 51
359.9999999999583906
  0
ARC
  5
E4F3
  8
0
 10
4807.79303528917535
 20
51.4494065552737112
 30
0.0
 40
0.0196850393999998
 50
33.6679522994064797
 51
193.5586121850587062
  0
ARC
  5
E4F4
  8
0
 10
4807.7934128524748303
 20
51.4422022187737227
 30
0.0
 40
0.0196850393999999
 50
172.4413881770161083
 51
264.0247548252420984
  0
LINE
  5
E4F5
  8
0
 10
4807.7913636641369521
 20
51.4226241288939505
 30
0.0
 11
4808.141654847974678
 21
51.3859600512737202
 31
0.0
  0
LINE
  5
E4F6
  8
0
 10
4807.8094184454748756
 20
51.4603195276736969
 30
0.0
 11
4807.9596804363745832
 21
51.4445919913736986
 31
0.0
  0
LINE
  5
E4F7
  8
0
 10
4807.9596804363745832
 20
51.4445919913736986
 30
0.0
 11
4807.9914684178738753
 21
51.4763799728737084
 31
0.0
  0
LINE
  5
E4F8
  8
0
 10
4807.9914684178738753
 20
51.4763799728737084
 30
0.0
 11
4807.9758692595751199
 21
51.4428975488737024
 31
0.0
  0
LINE
  5
E4F9
  8
0
 10
4807.9758692595751199
 20
51.4428975488737024
 30
0.0
 11
4808.1457532246276969
 21
51.4251162308950427
 31
0.0
  0
ARC
  5
E4FA
  8
0
 10
4808.1476278086993261
 20
51.4453170458120326
 30
0.0
 40
0.0202876067772511
 50
264.6982814403992847
 51
348.2105973701735024
  0
LINE
  5
E4FB
  8
0
 10
4808.206857531075002
 20
51.7546592789736977
 30
0.0
 11
4808.206857531075002
 21
51.4446943207736069
 31
0.0
  0
ARC
  5
E4FC
  8
0
 10
4808.1478024130110498
 20
51.4446943207736069
 30
0.0
 40
0.0590551180640375
 50
275.975245224899993
 51
359.9999999999976126
  0
LINE
  5
E4FD
  8
0
 10
4807.9706370586745834
 20
51.3859600512737202
 30
0.0
 11
4807.9706370586745834
 21
51.3520258119736965
 31
0.0
  0
ARC
  5
E4FE
  8
0
 10
4807.7934128524748303
 20
51.7526495861737104
 30
0.0
 40
0.0196850393999988
 50
90.0000000005210836
 51
191.5586122286809996
  0
ARC
  5
E4FF
  8
0
 10
4807.793538758073737
 20
51.7454364616737124
 30
0.0
 40
0.0196850394000005
 50
170.4413884623618003
 51
323.6733524480764004
  0
LINE
  5
E500
  8
0
 10
4807.8093980663106777
 20
51.733775281696488
 30
0.0
 11
4807.9588486446737079
 21
51.7416076545737127
 31
0.0
  0
LINE
  5
E501
  8
0
 10
4807.9588486446737079
 20
51.7416076545737127
 30
0.0
 11
4807.990636626174819
 21
51.709819673073703
 31
0.0
  0
LINE
  5
E502
  8
0
 10
4807.990636626174819
 20
51.709819673073703
 30
0.0
 11
4807.9754089438747542
 21
51.7424755430737022
 31
0.0
  0
LINE
  5
E503
  8
0
 10
4807.9754089438747542
 20
51.7424755430737022
 30
0.0
 11
4808.1470713213830095
 21
51.7514697065181011
 31
0.0
  0
ARC
  5
E504
  8
0
 10
4808.1480865468938646
 20
51.7320931379180422
 30
0.0
 40
0.0194031464858641
 50
0.8708175082450041
 51
92.999240905727234
  0
LINE
  5
E505
  8
0
 10
4808.206857531075002
 20
51.7546592789736977
 30
0.0
 11
4808.8761488696745801
 21
51.7546592789736977
 31
0.0
  0
LINE
  5
E506
  8
0
 10
4807.7934128524748303
 20
51.7723346255737127
 30
0.0
 11
4808.1674874523750987
 21
51.7919660102917234
 31
0.0
  0
LINE
  5
E507
  8
0
 10
4808.1674874523750987
 20
51.7919660102917234
 30
0.0
 11
4808.206857531075002
 21
51.7940293576737005
 31
0.0
  0
LINE
  5
E508
  8
0
 10
4808.206857531075002
 20
51.7940293576737005
 30
0.0
 11
4808.6792984759758838
 21
51.7940293576737005
 31
0.0
  0
ARC
  5
E509
  8
0
 10
4808.6792984759758838
 20
50.8023706852773316
 30
0.0
 40
0.9916586723963831
 50
83.1825311486420276
 51
90.0
  0
ARC
  5
E50A
  8
0
 10
4808.6775142151491309
 20
50.7874461287211076
 30
0.0
 40
1.0066895065413051
 50
78.6200252898761534
 51
83.1825311486420276
  0
LINE
  5
E50B
  8
0
 10
4808.1674874523750987
 20
51.3890226000737016
 30
0.0
 11
4808.1674874523750987
 21
51.3859600512737131
 31
0.0
  0
LINE
  5
E50C
  8
0
 10
4808.1674874523750987
 20
51.7919660102737112
 30
0.0
 11
4808.1674874523750987
 21
52.1379400632737102
 31
0.0
  0
ARC
  5
E50E
  8
0
 10
4784.8196335638658638
 20
53.7818800487933615
 30
0.0
 40
0.2976879860276954
 50
126.7791475459536059
 51
135.7281664818542026
  0
ARC
  5
E50F
  8
0
 10
4784.6634721809577968
 20
53.996808595129977
 30
0.0
 40
0.032244683985657
 50
47.9092872048641567
 51
89.6004936410263184
  0
ARC
  5
E510
  8
0
 10
4784.6634721809577968
 20
53.996808595129977
 30
0.0
 40
0.032244683985657
 50
90.3995063589736958
 51
133.2023795117617908
  0
ARC
  5
E511
  8
0
 10
4784.5410178129213818
 20
53.8199964021791288
 30
0.0
 40
0.247087796712187
 50
43.3735586357506691
 51
54.3336092593280711
  0
ENDSEC
  0
EOF
