  0
SECTION
  2
HEADER
  9
$ACADVER
  1
AC1009
  9
$INSBASE
 10
4794.359294915790997
 20
112.8486953694302031
 30
0.0
  9
$EXTMIN
 10
4765.1377593468396299
 20
109.0226575735626966
 30
0.0
  9
$EXTMAX
 10
4823.5808304847423642
 20
116.3793623479362935
 30
0.0
  9
$LIMMIN
 10
0.0
 20
0.0
  9
$LIMMAX
 10
11.6929133858000007
 20
8.2677165353999982
  9
$ORTHOMODE
 70
     0
  9
$REGENMODE
 70
     1
  9
$FILLMODE
 70
     1
  9
$QTEXTMODE
 70
     0
  9
$MIRRTEXT
 70
     0
  9
$DRAGMODE
 70
     2
  9
$LTSCALE
 40
0.6431102362
  9
$OSMODE
 70
  4095
  9
$ATTMODE
 70
     1
  9
$TEXTSIZE
 40
0.2
  9
$TRACEWID
 40
0.05
  9
$TEXTSTYLE
  7
STANDARD
  9
$CLAYER
  8
0
  9
$CELTYPE
  6
BYLAYER
  9
$CECOLOR
 62
   256
  9
$DIMSCALE
 40
1.0
  9
$DIMASZ
 40
0.1875
  9
$DIMEXO
 40
0.0625
  9
$DIMDLI
 40
0.4443307087
  9
$DIMRND
 40
0.0
  9
$DIMDLE
 40
0.0
  9
$DIMEXE
 40
0.125
  9
$DIMTP
 40
0.01
  9
$DIMTM
 40
0.01
  9
$DIMTXT
 40
2.0
  9
$DIMCEN
 40
0.1052362205
  9
$DIMTSZ
 40
0.0
  9
$DIMTOL
 70
     1
  9
$DIMLIM
 70
     0
  9
$DIMTIH
 70
     1
  9
$DIMTOH
 70
     1
  9
$DIMSE1
 70
     0
  9
$DIMSE2
 70
     0
  9
$DIMTAD
 70
     0
  9
$DIMZIN
 70
     0
  9
$DIMBLK
  1

  9
$DIMASO
 70
     1
  9
$DIMSHO
 70
     1
  9
$DIMPOST
  1
\X
  9
$DIMAPOST
  1

  9
$DIMALT
 70
     1
  9
$DIMALTD
 70
     2
  9
$DIMALTF
 40
25.3999999999999986
  9
$DIMLFAC
 40
1.0
  9
$DIMTOFL
 70
     0
  9
$DIMTVP
 40
0.0
  9
$DIMTIX
 70
     0
  9
$DIMSOXD
 70
     0
  9
$DIMSAH
 70
     0
  9
$DIMBLK1
  1

  9
$DIMBLK2
  1

  9
$DIMSTYLE
  2
STANDARD
  9
$DIMCLRD
 70
     0
  9
$DIMCLRE
 70
     0
  9
$DIMCLRT
 70
     0
  9
$DIMTFAC
 40
1.0
  9
$DIMGAP
 40
0.09
  9
$LUNITS
 70
     2
  9
$LUPREC
 70
     4
  9
$SKETCHINC
 40
0.1
  9
$FILLETRAD
 40
0.0
  9
$AUNITS
 70
     0
  9
$AUPREC
 70
     0
  9
$MENU
  1
.
  9
$ELEVATION
 40
0.0
  9
$PELEVATION
 40
0.0
  9
$THICKNESS
 40
0.0
  9
$LIMCHECK
 70
     0
  9
$BLIPMODE
 70
     0
  9
$CHAMFERA
 40
0.0
  9
$CHAMFERB
 40
0.0
  9
$SKPOLY
 70
     0
  9
$TDCREATE
 40
2458060.468368056230247
  9
$TDUPDATE
 40
2459180.6762500000186265
  9
$TDINDWG
 40
0.4619862269
  9
$TDUSRTIMER
 40
0.4619862269
  9
$USRTIMER
 70
     1
  9
$ANGBASE
 50
0.0
  9
$ANGDIR
 70
     0
  9
$PDMODE
 70
     0
  9
$PDSIZE
 40
0.3125
  9
$PLINEWID
 40
0.0
  9
$COORDS
 70
     0
  9
$SPLFRAME
 70
     0
  9
$SPLINETYPE
 70
     6
  9
$SPLINESEGS
 70
     8
  9
$ATTDIA
 70
     1
  9
$ATTREQ
 70
     1
  9
$HANDLING
 70
     1
  9
$HANDSEED
  5
E5C5
  9
$SURFTAB1
 70
     6
  9
$SURFTAB2
 70
     6
  9
$SURFTYPE
 70
     6
  9
$SURFU
 70
     6
  9
$SURFV
 70
     6
  9
$UCSNAME
  2

  9
$UCSORG
 10
0.0
 20
0.0
 30
0.0
  9
$UCSXDIR
 10
1.0
 20
0.0
 30
0.0
  9
$UCSYDIR
 10
0.0
 20
1.0
 30
0.0
  9
$PUCSNAME
  2

  9
$PUCSORG
 10
0.0
 20
0.0
 30
0.0
  9
$PUCSXDIR
 10
1.0
 20
0.0
 30
0.0
  9
$PUCSYDIR
 10
0.0
 20
1.0
 30
0.0
  9
$USERI1
 70
     0
  9
$USERI2
 70
     0
  9
$USERI3
 70
     0
  9
$USERI4
 70
     0
  9
$USERI5
 70
     0
  9
$USERR1
 40
0.0
  9
$USERR2
 40
0.0
  9
$USERR3
 40
0.0
  9
$USERR4
 40
0.0
  9
$USERR5
 40
0.0
  9
$WORLDVIEW
 70
     1
  9
$SHADEDGE
 70
     3
  9
$SHADEDIF
 70
    70
  9
$TILEMODE
 70
     1
  9
$MAXACTVP
 70
    64
  9
$PLIMCHECK
 70
     0
  9
$PEXTMIN
 10
1.0000000000000000E+20
 20
1.0000000000000000E+20
 30
1.0000000000000000E+20
  9
$PEXTMAX
 10
-1.0000000000000000E+20
 20
-1.0000000000000000E+20
 30
-1.0000000000000000E+20
  9
$PLIMMIN
 10
0.0
 20
0.0
  9
$PLIMMAX
 10
12.0
 20
9.0
  9
$UNITMODE
 70
     0
  9
$VISRETAIN
 70
     1
  9
$PLINEGEN
 70
     0
  9
$PSLTSCALE
 70
     1
  0
ENDSEC
  0
SECTION
  2
TABLES
  0
TABLE
  2
VPORT
 70
     1
  0
VPORT
  2
*ACTIVE
 70
     0
 10
0.0
 20
0.0
 11
1.0
 21
1.0
 12
0.0
 22
0.0
 13
0.0
 23
0.0
 14
1.0
 24
1.0
 15
0.0
 25
0.0
 16
0.0
 26
0.0
 36
216.3744963688587006
 17
4794.3593749999990905
 27
112.7010116577148011
 37
0.0
 40
58.9035925306860619
 41
2.888719512195121
 42
50.0
 43
0.0
 44
0.0
 50
0.0
 51
0.0
 71
     0
 72
   100
 73
     1
 74
     1
 75
     0
 76
     0
 77
     0
 78
     0
  0
ENDTAB
  0
TABLE
  2
LTYPE
 70
     2
  0
LTYPE
  2
CONTINUOUS
 70
     0
  3
Solid line
 72
    65
 73
     0
 40
0.0
  0
LTYPE
  2
PHANTOM2
 70
     0
  3
___ _ _ ___ _ _ ___ _ _ ___ _ _
 72
    65
 73
     6
 40
1.25
 49
0.625
 49
-0.125
 49
0.125
 49
-0.125
 49
0.125
 49
-0.125
  0
ENDTAB
  0
TABLE
  2
LAYER
 70
     2
  0
LAYER
  2
0
 70
     0
 62
   255
  6
CONTINUOUS
  0
LAYER
  2
DEFPOINTS
 70
     0
 62
     7
  6
CONTINUOUS
  0
ENDTAB
  0
TABLE
  2
STYLE
 70
     1
  0
STYLE
  2
STANDARD
 70
     0
 40
0.0
 41
0.8
 50
0.0
 71
     0
 42
0.2
  3
txt
  4

  0
ENDTAB
  0
TABLE
  2
VIEW
 70
     0
  0
ENDTAB
  0
TABLE
  2
UCS
 70
     0
  0
ENDTAB
  0
TABLE
  2
APPID
 70
     9
  0
APPID
  2
ACAD
 70
     0
  0
APPID
  2
ACAD_MLEADERVER
 70
     0
  0
APPID
  2
ACAD_EXEMPT_FROM_CAD_STANDARDS
 70
     0
  0
APPID
  2
ACAD_NAV_VCDISPLAY
 70
     0
  0
APPID
  2
ACAECLAYERSTANDARD
 70
     0
  0
APPID
  2
ACCMTRANSPARENCY
 70
     0
  0
APPID
  2
ACAD_DSTYLE_DIMJAG
 70
     0
  0
APPID
  2
ACAD_DSTYLE_DIMTALN
 70
     0
  0
APPID
  2
ACDBATTR
 70
     0
  0
ENDTAB
  0
TABLE
  2
DIMSTYLE
 70
     1
  0
DIMSTYLE
  2
STANDARD
 70
     0
  3

  4

  5

  6

  7

 40
1.0
 41
0.1875
 42
0.0625
 43
0.38
 44
0.125
 45
0.0
 46
0.0
 47
0.01
 48
0.01
140
0.15625
141
0.09
142
0.0
143
25.3999999999999986
144
1.0
145
0.0
146
1.0
147
0.09
 71
     1
 72
     0
 73
     1
 74
     1
 75
     0
 76
     0
 77
     0
 78
     4
170
     0
171
     2
172
     0
173
     0
174
     0
175
     0
176
     0
177
     0
178
     0
  0
ENDTAB
  0
ENDSEC
  0
SECTION
  2
BLOCKS
  0
BLOCK
  8
0
  2
$MODEL_SPACE
 70
     0
 10
0.0
 20
0.0
 30
0.0
  3
$MODEL_SPACE
  1

  0
ENDBLK
  5
21
  8
0
  0
BLOCK
 67
     1
  8
0
  2
$PAPER_SPACE
 70
     0
 10
0.0
 20
0.0
 30
0.0
  3
$PAPER_SPACE
  1

  0
ENDBLK
  5
1D
 67
     1
  8
0
  0
BLOCK
  8
0
  2
_FILLED
 70
     0
 10
0.0
 20
0.0
 30
0.0
  3
_FILLED
  1

  0
SOLID
  5
C857
  8
0
  6
BYBLOCK
 62
     0
 10
0.0
 20
0.0
 30
0.0
 11
-1.0
 21
0.1666666667
 31
0.0
 12
-1.0
 22
-0.1666666667
 32
0.0
 13
-1.0
 23
-0.1666666667
 33
0.0
  0
ENDBLK
  5
C858
  8
0
  6
BYBLOCK
 62
     0
  0
ENDSEC
  0
SECTION
  2
ENTITIES
  0
ATTDEF
  5
3930
  8
DEFPOINTS
 10
4794.3615779781657693
 20
112.8504026254970967
 30
0.0
 40
0.001
  1
K-76560T-L
  3

  2
MODELNUMBER
 70
     0
1001
ACDBATTR
1070
     0
1070
     1
  0
ATTDEF
  5
3931
  8
DEFPOINTS
 10
4794.3615779781657693
 20
112.8487359588305026
 30
0.0
 40
0.001
  1
NEW MEMOIRS
  3

  2
TRADENAME
 70
     0
1001
ACDBATTR
1070
     0
1070
     1
  0
ATTDEF
  5
3932
  8
DEFPOINTS
 10
4794.3615779781657693
 20
112.8470692921637948
 30
0.0
 40
0.001
  1
SHOWER DOOR
  3

  2
PRODUCT
 70
     0
1001
ACDBATTR
1070
     0
1070
     1
  0
LINE
  5
E16C
  8
0
 10
4779.9498460968397922
 20
111.4659765211232951
 30
0.0
 11
4779.9498460968397922
 21
112.0486536864362961
 31
0.0
  0
LINE
  5
E16D
  8
0
 10
4779.9498460968397922
 20
112.166763922736294
 30
0.0
 11
4779.9498460968397922
 21
112.4029843951363006
 31
0.0
  0
LINE
  5
E16E
  8
0
 10
4767.3120508212396089
 20
111.9841627173775009
 30
0.0
 11
4767.3120508212396089
 21
112.0407796707362991
 31
0.0
  0
LINE
  5
E16F
  8
0
 10
4767.3120508212396089
 20
112.5210947464950948
 30
0.0
 11
4767.3120508212396089
 21
112.5933299922362067
 31
0.0
  0
LINE
  5
E170
  8
0
 10
4823.5325232622399199
 20
114.8045591983363067
 30
0.0
 11
4823.5325232622399199
 21
116.3793623479362935
 31
0.0
  0
LINE
  5
E171
  8
0
 10
4821.5640193252411336
 20
116.3793623479362935
 30
0.0
 11
4821.5640193252411336
 21
114.8045591983363067
 31
0.0
  0
LINE
  5
E172
  8
0
 10
4776.8002397977397777
 20
116.3793623479362935
 30
0.0
 11
4776.8002397977397777
 21
111.6155828204363019
 31
0.0
  0
LINE
  5
E173
  8
0
 10
4775.2254366481411125
 20
116.3793623479362935
 30
0.0
 11
4775.2254366481411125
 21
111.6155828204362024
 31
0.0
  0
LINE
  5
E174
  8
0
 10
4823.5325232622399199
 20
116.3793623479362935
 30
0.0
 11
4821.5640193252411336
 21
116.3793623479362935
 31
0.0
  0
LINE
  5
E175
  8
0
 10
4776.8002397977397777
 20
116.3793623479362935
 30
0.0
 11
4775.2254366481411125
 21
116.3793623479362935
 31
0.0
  0
LINE
  5
E176
  8
0
 10
4767.1545705063408604
 20
116.3793623479362935
 30
0.0
 11
4765.1860665693411647
 21
116.3793623479362935
 31
0.0
  0
LINE
  5
E177
  8
0
 10
4823.5325232622399199
 20
114.8045591983363067
 30
0.0
 11
4821.5640193252411336
 21
114.8045591983363067
 31
0.0
  0
LINE
  5
E178
  8
0
 10
4767.1545705063408604
 20
114.8045591983363067
 30
0.0
 11
4765.1860665693411647
 21
114.8045591983363067
 31
0.0
  0
LINE
  5
E179
  8
0
 10
4821.5640193252411336
 20
116.1825119542363041
 30
0.0
 11
4813.493153183540926
 21
116.1825119542363041
 31
0.0
  0
LINE
  5
E17A
  8
0
 10
4811.9183500339413513
 20
116.1825119542363041
 30
0.0
 11
4776.8002397977397777
 21
116.1825119542363041
 31
0.0
  0
LINE
  5
E17B
  8
0
 10
4775.2254366481411125
 20
116.1825119542363041
 30
0.0
 11
4767.1545705063408604
 21
116.1825119542363041
 31
0.0
  0
LINE
  5
E17C
  8
0
 10
4821.5640193252411336
 20
115.0014095920362962
 30
0.0
 11
4813.493153183540926
 21
115.0014095920362962
 31
0.0
  0
LINE
  5
E17D
  8
0
 10
4811.9183500339413513
 20
115.0014095920362962
 30
0.0
 11
4776.8002397977397777
 21
115.0014095920362962
 31
0.0
  0
LINE
  5
E17E
  8
0
 10
4775.2254366481411125
 20
115.0014095920362962
 30
0.0
 11
4767.1545705063408604
 21
115.0014095920362962
 31
0.0
  0
LINE
  5
E17F
  8
0
 10
4765.7765485584559428
 20
112.4423544739363052
 30
0.0
 11
4775.2254366481411125
 21
112.4423544739363052
 31
0.0
  0
LINE
  5
E180
  8
0
 10
4776.8002397977397777
 20
112.4423544739363052
 30
0.0
 11
4779.9104760181398888
 21
112.4423544739363052
 31
0.0
  0
LINE
  5
E181
  8
0
 10
4780.7371784797560395
 20
112.4423544739363052
 30
0.0
 11
4794.7136507826398883
 21
112.4423544739363052
 31
0.0
  0
LINE
  5
E182
  8
0
 10
4795.107301176341025
 20
112.4423544739363052
 30
0.0
 11
4805.3435720430406946
 21
112.4423544739363052
 31
0.0
  0
LINE
  5
E183
  8
0
 10
4805.7372224367409217
 20
112.4423544739363052
 30
0.0
 11
4807.4275285454259574
 21
112.4423544739363052
 31
0.0
  0
LINE
  5
E184
  8
0
 10
4807.4327935610563145
 20
112.4423544739363052
 30
0.0
 11
4807.8632319194412048
 21
112.4423544739363052
 31
0.0
  0
LINE
  5
E185
  8
0
 10
4765.7765485584559428
 20
112.1273938439363036
 30
0.0
 11
4775.2254366481411125
 21
112.1273938439363036
 31
0.0
  0
LINE
  5
E186
  8
0
 10
4776.8002397977397777
 20
112.1273938439363036
 30
0.0
 11
4779.9104760181398888
 21
112.1273938439363036
 31
0.0
  0
LINE
  5
E187
  8
0
 10
4780.7336437492431287
 20
112.1273938439363036
 30
0.0
 11
4807.4275285454241384
 21
112.1273938439363036
 31
0.0
  0
LINE
  5
E188
  8
0
 10
4807.4327935610563145
 20
112.1273938439363036
 30
0.0
 11
4807.8632319194412048
 21
112.1273938439363036
 31
0.0
  0
LINE
  5
E189
  8
0
 10
4779.9104760181398888
 20
112.1273938439363036
 30
0.0
 11
4779.9498460968397922
 21
112.166763922736294
 31
0.0
  0
LINE
  5
E18A
  8
0
 10
4779.9104760181398888
 20
112.4423544739363052
 30
0.0
 11
4779.9498460968397922
 21
112.4029843951363006
 31
0.0
  0
LINE
  5
E18B
  8
0
 10
4807.8632319194412048
 20
112.4423544739363052
 30
0.0
 11
4807.9026019981411082
 21
112.4029843951363006
 31
0.0
  0
LINE
  5
E18C
  8
0
 10
4807.9026019981411082
 20
112.473492040936307
 30
0.0
 11
4807.9026019981411082
 21
112.0962562768363
 31
0.0
  0
ARC
  5
E18D
  8
0
 10
4807.8750408301530115
 20
112.0962583602463951
 30
0.0
 40
0.0275611680668014
 50
270.0839105502666939
 51
359.9956688842746075
  0
LINE
  5
E18E
  8
0
 10
4807.8632319194412048
 20
112.1273938439363036
 30
0.0
 11
4807.9026019981411082
 21
112.166763922736294
 31
0.0
  0
LINE
  5
E18F
  8
0
 10
4778.4510980647091856
 20
112.783046333036296
 30
0.0
 11
4776.8002397977397777
 21
112.783046333036296
 31
0.0
  0
LINE
  5
E190
  8
0
 10
4778.8868539708410026
 20
112.5998347888363043
 30
0.0
 11
4776.8002397977397777
 21
112.5998347888363043
 31
0.0
  0
LINE
  5
E191
  8
0
 10
4776.8002397977397777
 20
112.5210946313362967
 30
0.0
 11
4778.8671689315397089
 21
112.5210946313362967
 31
0.0
  0
LINE
  5
E192
  8
0
 10
4778.8868539708410026
 20
112.5998347888363043
 30
0.0
 11
4778.8868539708410026
 21
112.6395031942362976
 31
0.0
  0
ARC
  5
E193
  8
0
 10
4778.867168931436936
 20
112.6395031942362976
 30
0.0
 40
0.0196850394031225
 50
0.0
 51
88.263498256504505
  0
ARC
  5
E194
  8
0
 10
4778.886853972911922
 20
113.288811173474997
 30
0.0
 40
0.6299212665707171
 50
238.19316754863749
 51
268.2634982565044766
  0
ARC
  5
E195
  8
0
 10
4778.4510980647091856
 20
112.5861959371203938
 30
0.0
 40
0.196850395915809
 50
58.1931675486374829
 51
89.9999998162594039
  0
LINE
  5
E196
  8
0
 10
4778.8671689315397089
 20
112.5210946313362967
 30
0.0
 11
4778.8671689315397089
 21
112.5998347888363043
 31
0.0
  0
LINE
  5
E197
  8
0
 10
4778.2569327110413724
 20
112.5210946313362967
 30
0.0
 11
4778.2569327110413724
 21
112.4620395132363058
 31
0.0
  0
LINE
  5
E198
  8
0
 10
4778.0207122386409537
 20
112.5210946313362967
 30
0.0
 11
4778.0207122386409537
 21
112.4620395132363058
 31
0.0
  0
LINE
  5
E199
  8
0
 10
4777.8553579079407427
 20
112.4620395132363058
 30
0.0
 11
4778.4222870417406739
 21
112.4620395132363058
 31
0.0
  0
LINE
  5
E19A
  8
0
 10
4778.4222870417406739
 20
112.4620395132363058
 30
0.0
 11
4778.4222870417406739
 21
112.4423544738363034
 31
0.0
  0
ARC
  5
E19B
  8
0
 10
4779.476093407522967
 20
121.7985349556416992
 30
0.0
 40
10.3326184950053896
 50
254.9908147876423925
 51
270.0072738018782275
  0
LINE
  5
E19C
  8
0
 10
4779.4774051519561908
 20
111.4659165439004056
 30
0.0
 11
4780.3578863694028769
 21
111.4660283225656059
 31
0.0
  0
LINE
  5
E19D
  8
0
 10
4780.3292705968397058
 20
112.0111659441362946
 30
0.0
 11
4780.359765079340832
 21
111.4292872923361983
 31
0.0
  0
ARC
  5
E19E
  8
0
 10
4827.9838018799609927
 20
-797.2418926800598911
 30
0.0
 40
909.9183272105324249
 50
92.9704146628586301
 51
93.0001633768122105
  0
LINE
  5
E19F
  8
0
 10
4776.8002397977397777
 20
112.0486536864362961
 30
0.0
 11
4781.0445793318749566
 21
112.0486536864362961
 31
0.0
  0
LINE
  5
E1A0
  8
0
 10
4767.3041768055409193
 20
112.0486536864362961
 30
0.0
 11
4765.6663805513408079
 21
112.0486536864362961
 31
0.0
  0
LINE
  5
E1A1
  8
0
 10
4779.8711059394408949
 20
112.1273938439363036
 30
0.0
 11
4779.8711059394408949
 21
112.0486536864362961
 31
0.0
  0
LINE
  5
E1A2
  8
0
 10
4765.1860665693411647
 20
111.5416474568695975
 30
0.0
 11
4765.1860665693411647
 21
111.9820338074811019
 31
0.0
  0
LINE
  5
E1A3
  8
0
 10
4765.1860665693411647
 20
112.5998347893655023
 30
0.0
 11
4765.1860665693411647
 21
114.1746379384363053
 31
0.0
  0
LINE
  5
E1A4
  8
0
 10
4765.4616571205406217
 20
113.7021969935363046
 30
0.0
 11
4765.4616571205406217
 21
112.8544952885068966
 31
0.0
  0
LINE
  5
E1A5
  8
0
 10
4765.1860665693411647
 20
114.1746379384363053
 30
0.0
 11
4765.2578570809409939
 21
114.1746379384363053
 31
0.0
  0
ARC
  5
E1A6
  8
0
 10
4765.25794340446555
 20
114.1621778754584966
 30
0.0
 40
0.0124603619996394
 50
31.7140581950037195
 51
90.3969397700250141
  0
ARC
  5
E1A7
  8
0
 10
4764.2018144687654058
 20
113.4984345978393065
 30
0.0
 40
1.2598426548343471
 50
7.4976996908835467
 51
32.1437563717801424
  0
ARC
  5
E1A8
  8
0
 10
4764.2018146008404074
 20
113.4984346299361988
 30
0.0
 40
1.2598425197003169
 50
0.0000000000016284
 51
7.4976990274245372
  0
LINE
  5
E1A9
  8
0
 10
4765.4616571205406217
 20
113.7021969935363046
 30
0.0
 11
4765.5010271992396156
 21
113.7021969935363046
 31
0.0
  0
ARC
  5
E1AA
  8
0
 10
4765.5010271908231516
 20
113.6825119458188027
 30
0.0
 40
0.0196850478174664
 50
0.0000244999985575
 51
89.9999754999167436
  0
LINE
  5
E1AB
  8
0
 10
4765.5207122386400442
 20
113.6825119542363041
 30
0.0
 11
4765.5207122386400442
 21
112.8754275736363013
 31
0.0
  0
ARC
  5
E1AC
  8
0
 10
4765.5010249655142616
 20
112.8754275736363013
 30
0.0
 40
0.0196872731267277
 50
270.0065008045202148
 51
359.9999999999959073
  0
ARC
  5
E1AD
  8
0
 10
4765.5207241084790439
 20
112.855765832406405
 30
0.0
 40
0.0590806511975423
 50
181.2322547896771141
 51
270.0121456808043945
  0
LINE
  5
E1AE
  8
0
 10
4765.5207115482407971
 20
112.7966866028363029
 30
0.0
 11
4766.6358475122397067
 21
112.7966851825362937
 31
0.0
  0
ARC
  5
E1AF
  8
0
 10
4766.6358459087823576
 20
111.5377431587825043
 30
0.0
 40
1.2589420237548239
 50
57.8964734231116793
 51
89.9999270248648457
  0
ARC
  5
E1B0
  8
0
 10
4767.2966053576101331
 20
112.5909399663506036
 30
0.0
 40
0.0156292856683158
 50
8.7961663313609701
 51
57.8964734231086524
  0
LINE
  5
E1B1
  8
0
 10
4765.2578570809409939
 20
112.6720411168362972
 30
0.0
 11
4765.2578570809409939
 21
114.1746379384363053
 31
0.0
  0
ARC
  5
E1B2
  8
0
 10
4765.3349604041441125
 20
112.6699884618916059
 30
0.0
 40
0.0771306417960716
 50
178.4750130174826097
 51
271.5251083502446932
  0
LINE
  5
E1B3
  8
0
 10
4765.3370132376412585
 20
112.5928851432363018
 30
0.0
 11
4767.2923657819410437
 21
112.5928850775362946
 31
0.0
  0
ARC
  5
E1B4
  8
0
 10
4765.2648067273703418
 20
112.5998347893655023
 30
0.0
 40
0.0787401580291807
 50
180.0000003850634869
 51
270.0000032229120848
  0
LINE
  5
E1B5
  8
0
 10
4765.2648067317986715
 20
112.5210946313362967
 30
0.0
 11
4767.3120508212396089
 21
112.5210947464950948
 31
0.0
  0
ARC
  5
E1B6
  8
0
 10
4767.2925335122563411
 20
112.6731807419399018
 30
0.0
 40
0.0802958395900894
 50
269.8803145200653262
 51
276.7635884161581998
  0
ARC
  5
E1B7
  8
0
 10
4767.3067161852213758
 20
112.5664653352470026
 30
0.0
 40
0.0273891974437906
 50
78.7686224033758435
 51
99.9360977356062108
  0
LINE
  5
E1B8
  8
0
 10
4767.26441554516623
 20
111.975255864886293
 30
0.0
 11
4765.1860665693411647
 21
111.975255864886293
 31
0.0
  0
LINE
  5
E1B9
  8
0
 10
4765.5010271993505739
 20
112.8557403006362989
 30
0.0
 11
4765.4616571205406217
 21
112.8557403006362989
 31
0.0
  0
LINE
  5
E1BA
  8
0
 10
4765.4794039013813745
 20
112.8135383078364953
 30
0.0
 11
4765.2804208620573263
 21
112.6154488042757009
 31
0.0
  0
LINE
  5
E1BB
  8
0
 10
4767.2643573737395855
 20
111.9752372399363054
 30
0.0
 11
4767.3120508212396089
 21
111.9841627173765062
 31
0.0
  0
ARC
  5
E1BC
  8
0
 10
4767.3041768055409193
 20
112.0407796707362991
 30
0.0
 40
0.0078740157000041
 50
0.0000218172592059
 51
90.0000000470034109
  0
ARC
  5
E1BD
  8
0
 10
4765.2056701053934376
 20
111.5423696341584048
 30
0.0
 40
0.0196168337342747
 50
182.1097728302738119
 51
276.1024046280317066
  0
ARC
  5
E1BE
  8
0
 10
4764.1225700070717721
 20
121.8121045320611984
 30
0.0
 40
10.3463084763939595
 50
276.0206128894668041
 51
278.1575012394378064
  0
ARC
  5
E1BF
  8
0
 10
4764.1243937101362462
 20
121.7984945709329025
 30
0.0
 40
10.3325774511237007
 50
278.1581995492359169
 51
287.7265895822847028
  0
ARC
  5
E1C0
  8
0
 10
4766.2362080363145651
 20
115.2082985758294029
 30
0.0
 40
3.4122907917975391
 50
287.6427157246021125
 51
288.1366312168505033
  0
ARC
  5
E1C1
  8
0
 10
4767.2924753280503865
 20
111.9841984242373059
 30
0.0
 40
0.0195755257575691
 50
287.6165983770736716
 51
359.8954892181002947
  0
ARC
  5
E1C2
  8
0
 10
4765.6663805513408079
 20
112.0407796707362991
 30
0.0
 40
0.007874015699997
 50
90.0
 51
179.9949993214127915
  0
LINE
  5
E1C3
  8
0
 10
4765.6585065356712221
 20
112.0407803579669945
 30
0.0
 11
4765.6585010300395879
 21
111.9974126403362931
 31
0.0
  0
ARC
  5
E1C4
  8
0
 10
4765.6506269813762628
 20
111.9974136399646056
 30
0.0
 40
0.0078740487283763
 50
270.0002398703218205
 51
359.9927261710545849
  0
LINE
  5
E1C5
  8
0
 10
4765.6506270143399888
 20
111.9895395912362943
 30
0.0
 11
4765.193932105345084
 21
111.9895376792705974
 31
0.0
  0
ARC
  5
E1C6
  8
0
 10
4765.1939321383097194
 20
111.9816633931442027
 30
0.0
 40
0.007874286126478
 50
90.0002398703739743
 51
177.3037538961650057
  0
LINE
  5
E1C7
  8
0
 10
4767.2923657819410437
 20
112.5210947453877992
 30
0.0
 11
4767.2923657819410437
 21
112.4423544739363052
 31
0.0
  0
LINE
  5
E1C8
  8
0
 10
4767.2923657819410437
 20
112.1273938439363036
 30
0.0
 11
4767.2923657819410437
 21
112.0486536864362961
 31
0.0
  0
ARC
  5
E1C9
  8
0
 10
4765.3435468842408227
 20
112.2848786230363061
 30
0.0
 40
0.2057875374000027
 50
83.9746306589903639
 51
269.999999999895806
  0
ARC
  5
E1CA
  8
0
 10
4728.9905065249677136
 20
-585.1984811445720425
 30
0.0
 40
698.6355805842690643
 50
86.9832668521719796
 51
87.0155310514369944
  0
LINE
  5
E1CB
  8
0
 10
4765.382916963039861
 20
112.4287428650362983
 30
0.0
 11
4765.3829169629398166
 21
112.1413221953362012
 31
0.0
  0
ARC
  5
E1CC
  8
0
 10
4765.4026033831660243
 20
112.1413221953293942
 30
0.0
 40
0.0196864202250566
 50
179.9999999800677983
 51
272.1244091955824729
  0
LINE
  5
E1CD
  8
0
 10
4765.4033331477412503
 20
112.1216493057362982
 30
0.0
 11
4765.574995471541115
 21
112.1306449001363035
 31
0.0
  0
LINE
  5
E1CE
  8
0
 10
4765.574995471541115
 20
112.1306449001363035
 30
0.0
 11
4765.5597677892401407
 21
112.1633007702363045
 31
0.0
  0
LINE
  5
E1CF
  8
0
 10
4765.5597677892401407
 20
112.1633007702363045
 30
0.0
 11
4765.5915557707421613
 21
112.1315127886363001
 31
0.0
  0
LINE
  5
E1D0
  8
0
 10
4765.5915557707421613
 20
112.1315127886363001
 30
0.0
 11
4765.7410063491051915
 21
112.1393451616135053
 31
0.0
  0
ARC
  5
E1D1
  8
0
 10
4765.7568656573412227
 20
112.1276839816362951
 30
0.0
 40
0.0196850393999999
 50
350.4413884623814965
 51
143.6733524480387132
  0
ARC
  5
E1D2
  8
0
 10
4765.7569915629401294
 20
112.1204708571362971
 30
0.0
 40
0.0196850393999974
 50
270.2541243768779964
 51
11.5586122287216604
  0
LINE
  5
E1D3
  8
0
 10
4765.3435468842408227
 20
112.079091085636307
 30
0.0
 11
4765.7570788718494441
 21
112.1007860113574992
 31
0.0
  0
ARC
  5
E1D4
  8
0
 10
4765.7569915629401294
 20
112.4492774607362975
 30
0.0
 40
0.0196850394000016
 50
348.4413877712391923
 51
86.9994601456204464
  0
ARC
  5
E1D5
  8
0
 10
4765.7568656573412227
 20
112.4420643362362995
 30
0.0
 40
0.0196850393999992
 50
215.1585694785684097
 51
9.5586115375704672
  0
LINE
  5
E1D6
  8
0
 10
4765.7407719269558584
 20
112.4307288777769998
 30
0.0
 11
4765.5915557707421613
 21
112.4382355291361932
 31
0.0
  0
LINE
  5
E1D7
  8
0
 10
4765.5915557707421613
 20
112.4382355291361932
 30
0.0
 11
4765.5597677892401407
 21
112.4064475476363043
 31
0.0
  0
LINE
  5
E1D8
  8
0
 10
4765.5597677892401407
 20
112.4064475476363043
 30
0.0
 11
4765.574995471541115
 21
112.4391034176363036
 31
0.0
  0
LINE
  5
E1D9
  8
0
 10
4765.574995471541115
 20
112.4391034176363036
 30
0.0
 11
4765.4036322377405668
 21
112.4480841842362935
 31
0.0
  0
ARC
  5
E1DA
  8
0
 10
4765.4026018736767583
 20
112.4284236668436989
 30
0.0
 40
0.0196874984253291
 50
86.9999999780780371
 51
179.0710089103895086
  0
ARC
  5
E1DB
  8
0
 10
4783.9694053977973454
 20
112.1374021252905067
 30
0.0
 40
0.0196529018104266
 50
290.8570247689730195
 51
329.341863404220021
  0
LINE
  5
E1DC
  8
0
 10
4783.9764025617078005
 20
112.1190370430212937
 30
0.0
 11
4783.8794440038163884
 21
112.0825879258362932
 31
0.0
  0
ARC
  5
E1DD
  8
0
 10
4781.1802009833309057
 20
119.2628636328737031
 30
0.0
 40
7.6708716657699698
 50
288.0599053525994009
 51
290.602480751124574
  0
ARC
  5
E1DE
  8
0
 10
4780.3031598827074049
 20
121.7227906288794941
 30
0.0
 40
10.2817444833499199
 50
280.5721631538640963
 51
288.456825780535894
  0
ARC
  5
E1DF
  8
0
 10
4780.4041783668981225
 20
120.8272659719688988
 30
0.0
 40
9.3831126211865836
 50
272.6106418861974134
 51
280.9690835817855259
  0
LINE
  5
E1E0
  8
0
 10
4780.3292705968397058
 20
112.0111659441362946
 30
0.0
 11
4781.0445793324397528
 21
112.0486536864362961
 31
0.0
  0
LINE
  5
E1E1
  8
0
 10
4781.0445793324397528
 20
112.0486536864362961
 30
0.0
 11
4782.5470310401406095
 21
112.1273938439363036
 31
0.0
  0
LINE
  5
E1E2
  8
0
 10
4781.4073423237396128
 20
112.1273938439363036
 30
0.0
 11
4781.4104639907600358
 21
112.0678288888573064
 31
0.0
  0
LINE
  5
E1E3
  8
0
 10
4783.9424623298509687
 20
112.1271965761515048
 30
0.0
 11
4780.3337576283338421
 21
111.9379025522302982
 31
0.0
  0
LINE
  5
E1E4
  8
0
 10
4780.3041768056409637
 20
112.4512871535361995
 30
0.0
 11
4779.6348854670395667
 21
112.451287153536299
 31
0.0
  0
LINE
  5
E1E5
  8
0
 10
4779.6348854670395667
 20
112.451287153536299
 30
0.0
 11
4779.6348854670395667
 21
112.4709721928362995
 31
0.0
  0
ARC
  5
E1E6
  8
0
 10
4779.8316078220541385
 20
111.4978431323980033
 30
0.0
 40
0.9928141080945369
 50
89.9926108260163176
 51
101.4285754664700931
  0
LINE
  5
E1E7
  8
0
 10
4779.8317358607409915
 20
112.4906572322363019
 30
0.0
 11
4780.3041768055400098
 21
112.4906572322363019
 31
0.0
  0
LINE
  5
E1E8
  8
0
 10
4780.3041768056409637
 20
112.4906572322363019
 30
0.0
 11
4780.7185095201748481
 21
112.4689424592961018
 31
0.0
  0
ARC
  5
E1E9
  8
0
 10
4780.7176214842411355
 20
112.4492774607362975
 30
0.0
 40
0.0196850394000005
 50
348.4413877712800058
 51
87.4143823713726817
  0
ARC
  5
E1EA
  8
0
 10
4780.7174955786413193
 20
112.4420643362362
 30
0.0
 40
0.0196850394000026
 50
216.3266476303982984
 51
9.5586115376176597
  0
LINE
  5
E1EB
  8
0
 10
4780.7016362704407584
 20
112.4304031562362951
 30
0.0
 11
4780.5521856920413484
 21
112.4382355291361932
 31
0.0
  0
LINE
  5
E1EC
  8
0
 10
4780.5521856920413484
 20
112.4382355291361932
 30
0.0
 11
4780.5203977105411468
 21
112.4064475476363043
 31
0.0
  0
LINE
  5
E1ED
  8
0
 10
4780.5203977105411468
 20
112.4064475476363043
 30
0.0
 11
4780.5356253928412116
 21
112.4391034176362041
 31
0.0
  0
LINE
  5
E1EE
  8
0
 10
4780.5356253928412116
 20
112.4391034176362041
 30
0.0
 11
4780.363964824339746
 21
112.4480989201362036
 31
0.0
  0
ARC
  5
E1EF
  8
0
 10
4780.3632331162134506
 20
112.4284248848109939
 30
0.0
 40
0.0196862319119615
 50
87.8700622812170025
 51
179.996391748564406
  0
LINE
  5
E1F0
  8
0
 10
4780.3435468843408671
 20
112.4284261225262043
 30
0.0
 11
4780.3435541834942342
 21
112.1407861776597059
 31
0.0
  0
ARC
  5
E1F1
  8
0
 10
4780.363231923613057
 20
112.1413221952761035
 30
0.0
 40
0.0196850392703355
 50
181.5603394649162112
 51
275.9752454928994894
  0
LINE
  5
E1F2
  8
0
 10
4780.3652811120782644
 20
112.1217441054565001
 30
0.0
 11
4780.5351650771399363
 21
112.1395254234362966
 31
0.0
  0
LINE
  5
E1F3
  8
0
 10
4780.5351650771399363
 20
112.1395254234362966
 30
0.0
 11
4780.5195659187411366
 21
112.173007847436196
 31
0.0
  0
LINE
  5
E1F4
  8
0
 10
4780.5195659187411366
 20
112.173007847436196
 30
0.0
 11
4780.5513539003413825
 21
112.1412198659363071
 31
0.0
  0
LINE
  5
E1F5
  8
0
 10
4780.5513539003413825
 20
112.1412198659363071
 30
0.0
 11
4780.7016158912729225
 21
112.1569474022490027
 31
0.0
  0
ARC
  5
E1F6
  8
0
 10
4780.7179990475397062
 20
112.1460344298363054
 30
0.0
 40
0.0196850393999963
 50
346.4413878149591142
 51
146.3320476653931053
  0
ARC
  5
E1F7
  8
0
 10
4780.7176214842411355
 20
112.1388300933362956
 30
0.0
 40
0.0196850394000021
 50
270.000000000104194
 51
7.5586118230452382
  0
LINE
  5
E1F8
  8
0
 10
4780.7176214842411355
 20
112.1191450539361938
 30
0.0
 11
4780.3693794887421973
 21
112.0825879257966022
 31
0.0
  0
LINE
  5
E1F9
  8
0
 10
4781.361959338941233
 20
112.6172243813362996
 30
0.0
 11
4781.3598832549296276
 21
112.6568384225304982
 31
0.0
  0
ARC
  5
E1FA
  8
0
 10
4781.3795413166626531
 20
112.6578686579321982
 30
0.0
 40
0.0196850393976501
 50
94.7365014199690449
 51
183.0000001200095028
  0
ARC
  5
E1FB
  8
0
 10
4781.3259011036343509
 20
113.3052565345496987
 30
0.0
 40
0.6299212530942487
 50
274.7365014199691018
 51
304.8068327936159108
  0
ARC
  5
E1FC
  8
0
 10
4781.7978318575760568
 20
112.626409927668405
 30
0.0
 40
0.1968503914308934
 50
92.9999997865301395
 51
124.8068327936162945
  0
ARC
  5
E1FD
  8
0
 10
4561.4287468982893188
 20
4337.9924130893768961
 30
0.0
 40
4230.9117979813172497
 50
272.9854896398272786
 51
273.0145103239025275
  0
ARC
  5
E1FE
  8
0
 10
4783.928607106605341
 20
112.9154876107333934
 30
0.0
 40
0.0196850395008658
 50
3.000000107716033
 51
92.9999997077879215
  0
LINE
  5
E1FF
  8
0
 10
4783.9482651683820222
 20
112.9165178461332033
 30
0.0
 11
4783.9568234844409744
 21
112.7532154487362988
 31
0.0
  0
LINE
  5
E200
  8
0
 10
4783.9568234844409744
 20
112.7532154487362988
 30
0.0
 11
4781.3619593392259048
 21
112.617224375894196
 31
0.0
  0
LINE
  5
E201
  8
0
 10
4783.9371654226461033
 20
112.7521852133313018
 30
0.0
 11
4783.9412863641409785
 21
112.673552966536306
 31
0.0
  0
LINE
  5
E202
  8
0
 10
4783.9412863641409785
 20
112.673552966536306
 30
0.0
 11
4781.3857383422564453
 21
112.539622367739895
 31
0.0
  0
LINE
  5
E203
  8
0
 10
4781.3857383422564453
 20
112.539622367739895
 30
0.0
 11
4781.3816174009261886
 21
112.6182546112943044
 31
0.0
  0
LINE
  5
E204
  8
0
 10
4783.6656069745413333
 20
112.4423544739363052
 30
0.0
 11
4783.6573693692398592
 21
112.5995373452362998
 31
0.0
  0
LINE
  5
E205
  8
0
 10
4783.6573693692398592
 20
112.5995373452362998
 30
0.0
 11
4783.6573693692398592
 21
112.5995373452362998
 31
0.0
  0
LINE
  5
E206
  8
0
 10
4783.6573693692398592
 20
112.5995373452362998
 30
0.0
 11
4783.0912171920563196
 21
112.5698665665412932
 31
0.0
  0
LINE
  5
E207
  8
0
 10
4783.0912171920563196
 20
112.5698665665412932
 30
0.0
 11
4783.0978998177397443
 21
112.4423544739363052
 31
0.0
  0
LINE
  5
E208
  8
0
 10
4782.4040355149400057
 20
112.4423544739363052
 30
0.0
 11
4782.3992534199396687
 21
112.533602282236302
 31
0.0
  0
LINE
  5
E209
  8
0
 10
4782.3992534199396687
 20
112.533602282236302
 30
0.0
 11
4781.8331012427406677
 21
112.5039315038186061
 31
0.0
  0
LINE
  5
E20A
  8
0
 10
4781.8331012427406677
 20
112.5039315038186061
 30
0.0
 11
4781.8363283581411451
 21
112.4423544739363052
 31
0.0
  0
LINE
  5
E20B
  8
0
 10
4783.4922416509398317
 20
112.5908833682363053
 30
0.0
 11
4783.4891509448689249
 21
112.6498575532918949
 31
0.0
  0
LINE
  5
E20C
  8
0
 10
4783.2563449104500251
 20
112.5785205436632026
 30
0.0
 11
4783.2532542043409194
 21
112.6374947290363053
 31
0.0
  0
LINE
  5
E20D
  8
0
 10
4782.2341257016423697
 20
112.5249483052004962
 30
0.0
 11
4782.2310349955923812
 21
112.583922488877306
 31
0.0
  0
LINE
  5
E20E
  8
0
 10
4781.998228961145287
 20
112.5125854808598973
 30
0.0
 11
4781.9951382551280403
 21
112.5715596643738934
 31
0.0
  0
LINE
  5
E20F
  8
0
 10
4804.6311447586413124
 20
112.5210921030362954
 30
0.0
 11
4806.4496486955413275
 21
112.5210921030362954
 31
0.0
  0
ARC
  5
E210
  8
0
 10
4806.4496486955413275
 20
112.5289661187363066
 30
0.0
 40
0.0078740157000325
 50
270.0
 51
0.0001673607018456
  0
LINE
  5
E211
  8
0
 10
4806.4575227112409266
 20
112.528966141736305
 30
0.0
 11
4806.4575226422412015
 21
112.5525882216580982
 31
0.0
  0
ARC
  5
E212
  8
0
 10
4806.4496486363623262
 20
112.5525881986581993
 30
0.0
 40
0.007874005879925
 50
0.0001673607083594
 51
89.9995722838950343
  0
ARC
  5
E213
  8
0
 10
4804.6311447585412679
 20
112.5289661187363066
 30
0.0
 40
0.0078740156999935
 50
180.0
 51
270.0000007276668725
  0
LINE
  5
E214
  8
0
 10
4804.6232707427407149
 20
112.5289661186363048
 30
0.0
 11
4804.6232707425406261
 21
112.5525881659362994
 31
0.0
  0
ARC
  5
E215
  8
0
 10
4804.6311447582738765
 20
112.5525881660029057
 30
0.0
 40
0.0078740157333321
 50
90.0000009701878554
 51
180.0000004850865878
  0
LINE
  5
E216
  8
0
 10
4804.6153975193410588
 20
112.5604621814363071
 30
0.0
 11
4806.4653972447913475
 21
112.5604622047362966
 31
0.0
  0
ARC
  5
E217
  8
0
 10
4806.2774406202133832
 20
112.5904687822299053
 30
0.0
 40
0.1879571382415999
 50
0.1339516358961513
 51
23.607936416289899
  0
ARC
  5
E218
  8
0
 10
4806.4424514130787429
 20
112.6625874461072954
 30
0.0
 40
0.0078747586439855
 50
23.6079364162869183
 51
89.9964642014959821
  0
LINE
  5
E219
  8
0
 10
4806.4424518990408615
 20
112.670462204736296
 30
0.0
 11
4804.6418067122422144
 21
112.6704621819363012
 31
0.0
  0
ARC
  5
E21A
  8
0
 10
4804.6418067127169707
 20
112.6625881649171959
 30
0.0
 40
0.0078740170190201
 50
90.0000034644950944
 51
153.6627322318572055
  0
ARC
  5
E21B
  8
0
 10
4804.8032351945194023
 20
112.5826747258224998
 30
0.0
 40
0.1879998410553577
 50
153.6627803515619917
 51
177.6200389456525954
  0
ARC
  5
E21C
  8
0
 10
4804.6875225499852604
 20
112.6783366588531976
 30
0.0
 40
0.0078744750192272
 50
270.0013850652512133
 51
359.9966586736297813
  0
ARC
  5
E21D
  8
0
 10
4804.7032667575276719
 20
112.7488431483358937
 30
0.0
 40
0.0078700024799261
 50
156.5707565772918883
 51
179.5254437016843099
  0
ARC
  5
E21E
  8
0
 10
4799.181732822829872
 20
115.1187780871321991
 30
0.0
 40
6.0007845207688062
 50
336.7704407342902186
 51
356.2453559574913129
  0
ARC
  5
E21F
  8
0
 10
4811.8998691058795885
 20
115.1190478882431023
 30
0.0
 40
6.0016333661448691
 50
183.7566934926408919
 51
203.2291119374752952
  0
ARC
  5
E220
  8
0
 10
4806.3775210516987499
 20
112.7488429973887065
 30
0.0
 40
0.0078757034437806
 50
0.7045039433893595
 51
23.2386581107936507
  0
ARC
  5
E221
  8
0
 10
4806.3932711932029633
 20
112.6783372388049997
 30
0.0
 40
0.0078750334799435
 50
180.0074056293940998
 51
269.9969336027978102
  0
ARC
  5
E222
  8
0
 10
4806.3811399856767821
 20
112.745279250122806
 30
0.0
 40
0.0075879655267112
 50
61.5195275452427381
 51
118.4804748137133004
  0
LINE
  5
E223
  8
0
 10
4806.3775227351397916
 20
112.7519493201363048
 30
0.0
 11
4804.7032707650414523
 21
112.7519488963363017
 31
0.0
  0
ARC
  5
E224
  8
0
 10
4804.6996529596781329
 20
112.7442873678684947
 30
0.0
 40
0.0084727524517222
 50
64.7231255003557919
 51
115.2770733074765985
  0
ARC
  5
E225
  8
0
 10
4804.9022054762926928
 20
115.2165214385869945
 30
0.0
 40
0.7865592113353626
 50
288.1504741538835219
 51
317.6302049244723094
  0
ARC
  5
E226
  8
0
 10
4806.1831181192210352
 20
115.2218472260335034
 30
0.0
 40
0.7934953938073394
 50
222.4334276486314934
 51
251.6735757786530883
  0
LINE
  5
E227
  8
0
 10
4806.4574881869348246
 20
112.1273938439363036
 30
0.0
 11
4806.4574822878139457
 21
112.0878869714173049
 31
0.0
  0
LINE
  5
E228
  8
0
 10
4804.6232361754437079
 20
112.1273938439363036
 30
0.0
 11
4804.6232304307059167
 21
112.0881555250632999
 31
0.0
  0
LINE
  5
E229
  8
0
 10
4804.6153975193410588
 20
112.0881566718833966
 30
0.0
 11
4806.4653972447913475
 21
112.0878858125848012
 31
0.0
  0
ARC
  5
E22A
  8
0
 10
4806.2774542718316297
 20
112.0658501863941012
 30
0.0
 40
0.1881116491878309
 50
333.6655452059522986
 51
357.5734503404170823
  0
ARC
  5
E22B
  8
0
 10
4806.4440228285538979
 20
111.9803046018951989
 30
0.0
 40
0.0029124875959688
 50
236.0303170929682892
 51
46.0642547379917886
  0
LINE
  5
E22C
  8
0
 10
4806.4423954640096781
 20
111.9778891788180033
 30
0.0
 11
4804.6417502965114181
 21
111.9781528122150007
 31
0.0
  0
ARC
  5
E22D
  8
0
 10
4804.6417514497252341
 20
111.9860268291494947
 30
0.0
 40
0.0078740170190201
 50
206.3288797887499868
 51
269.9916085560897159
  0
ARC
  5
E22E
  8
0
 10
4804.8031916289537548
 20
112.0659166346040934
 30
0.0
 40
0.1879998410553577
 50
182.6807038458763088
 51
206.3288316690646127
  0
ARC
  5
E22F
  8
0
 10
4804.6874238943901219
 20
111.9701724919922015
 30
0.0
 40
0.0079737384832402
 50
0.7074877022423538
 51
89.6951171575637289
  0
ARC
  5
E230
  8
0
 10
4804.7031988663329685
 20
111.899762849036307
 30
0.0
 40
0.0078700024799261
 50
187.5462738032892958
 51
203.4208554433342897
  0
ARC
  5
E231
  8
0
 10
4799.1820648401953804
 20
109.5308853802415001
 30
0.0
 40
6.0000000000001332
 50
3.7438976529632728
 51
23.2217970196354706
  0
ARC
  5
E232
  8
0
 10
4811.8978994611079543
 20
109.5290236591804955
 30
0.0
 40
5.9999999999998384
 50
156.7611974784562108
 51
176.2382860171778134
  0
ARC
  5
E233
  8
0
 10
4806.3754757553342642
 20
111.9001389973208944
 30
0.0
 40
0.0099399116398182
 50
337.9623166695491818
 51
356.4098323693610837
  0
ARC
  5
E234
  8
0
 10
4806.3932131843866955
 20
111.9700223626147988
 30
0.0
 40
0.0078740156992367
 50
89.9916112047474002
 51
173.1022839691819968
  0
ARC
  5
E235
  8
0
 10
4806.381072598249375
 20
111.9030811101659992
 30
0.0
 40
0.0075879655267112
 50
241.5111372069121956
 51
298.4720844753550182
  0
LINE
  5
E236
  8
0
 10
4806.3774543712679588
 20
111.896411569781705
 30
0.0
 11
4804.7032024191721575
 21
111.8966571004825994
 31
0.0
  0
ARC
  5
E237
  8
0
 10
4804.6995857354786494
 20
111.9043191585072066
 30
0.0
 40
0.0084727524517222
 50
244.7145387131600955
 51
295.2684865202646733
  0
ARC
  5
E238
  8
0
 10
4804.9017763201518392
 20
109.432055461027204
 30
0.0
 40
0.7865592113353623
 50
42.3614070961574924
 51
71.8411378667444467
  0
ARC
  5
E239
  8
0
 10
4806.182688169670655
 20
109.4265421507715956
 30
0.0
 40
0.7934953938073394
 50
108.3180362419363973
 51
137.5581843719847086
  0
LINE
  5
E23A
  8
0
 10
4806.4653972447913475
 20
112.0578857984362031
 30
0.0
 11
4806.4653972447913475
 21
112.0878858125848012
 31
0.0
  0
LINE
  5
E23B
  8
0
 10
4806.4653972447913475
 20
112.5604622047362966
 30
0.0
 11
4806.4653972447913475
 21
112.5909082062755004
 31
0.0
  0
LINE
  5
E23C
  8
0
 10
4806.3853961597887974
 20
111.8995165675087975
 30
0.0
 11
4806.3853961597887974
 21
111.9709680103622986
 31
0.0
  0
LINE
  5
E23D
  8
0
 10
4806.3853961597887974
 20
112.678336220936302
 30
0.0
 11
4806.3853961597887974
 21
112.7489398339161966
 31
0.0
  0
LINE
  5
E23E
  8
0
 10
4804.6153975193410588
 20
112.0571238744254998
 30
0.0
 11
4804.6153975193410588
 21
112.0881566718833966
 31
0.0
  0
LINE
  5
E23F
  8
0
 10
4804.6153975193410588
 20
112.5604621814363071
 30
0.0
 11
4804.6153975193410588
 21
112.5904816471498009
 31
0.0
  0
LINE
  5
E240
  8
0
 10
4804.6953970249924168
 20
111.8987293062405968
 30
0.0
 11
4804.6953970249924168
 21
111.9702709491318018
 31
0.0
  0
LINE
  5
E241
  8
0
 10
4804.6953970249924168
 20
112.6783361994749981
 30
0.0
 11
4804.6953970249924168
 21
112.7489083314361977
 31
0.0
  0
LINE
  5
E242
  8
0
 10
4805.9403972816407986
 20
109.1462719247784037
 30
0.0
 11
4805.9403972816407986
 21
109.8197913348795964
 31
0.0
  0
LINE
  5
E243
  8
0
 10
4805.1403972816406167
 20
109.1462719267350963
 30
0.0
 11
4805.1403972816406167
 21
109.2553362958202001
 31
0.0
  0
LINE
  5
E244
  8
0
 10
4805.1403972816406167
 20
109.7238399494549981
 30
0.0
 11
4805.1403972816406167
 21
109.8197913572258955
 31
0.0
  0
LINE
  5
E245
  8
0
 10
4804.7529957006408949
 20
109.1037529889581066
 30
0.0
 11
4804.7529957006408949
 21
109.875415348646996
 31
0.0
  0
LINE
  5
E246
  8
0
 10
4805.169260140642109
 20
109.9226664853362934
 30
0.0
 11
4805.9111803949190289
 21
109.9226664853362934
 31
0.0
  0
ARC
  5
E247
  8
0
 10
4805.8293520673523744
 20
110.3135927617540943
 30
0.0
 40
0.4932838263678433
 50
225.4527897233492979
 51
229.4373810541285081
  0
ARC
  5
E248
  8
0
 10
4805.5829730201858183
 20
110.0257575532691021
 30
0.0
 40
0.114401599117838
 50
229.4373810541279965
 51
237.836146211888007
  0
ARC
  5
E249
  8
0
 10
4805.5403628182093598
 20
109.9525652783241014
 30
0.0
 40
0.0298992367896392
 50
232.2844488245737011
 51
307.0879517246074784
  0
ARC
  5
E24A
  8
0
 10
4805.4145117831985772
 20
110.1351429260029988
 30
0.0
 40
0.2516240107511054
 50
304.8766371808317217
 51
316.5279650547244046
  0
LINE
  5
E24B
  8
0
 10
4805.2243149913410889
 20
109.9226664860363059
 30
0.0
 11
4805.1422394428436746
 21
109.8248526536362988
 31
0.0
  0
ARC
  5
E24C
  8
0
 10
4805.1482712611850729
 20
109.8197913572258955
 30
0.0
 40
0.0078739795439794
 50
140.0000007539208866
 51
180.000170196571105
  0
LINE
  5
E24D
  8
0
 10
4805.1403972731413887
 20
109.8197913338363065
 30
0.0
 11
4805.9403972816407986
 21
109.8197913338363065
 31
0.0
  0
ARC
  5
E24E
  8
0
 10
4805.9325231940911181
 20
109.8197913075386936
 30
0.0
 40
0.0078740875502929
 50
0.0001913542087236
 51
39.721240633294471
  0
LINE
  5
E24F
  8
0
 10
4805.9385796485221363
 20
109.8248232668467068
 30
0.0
 11
4805.8564795522397617
 21
109.9226664940363065
 31
0.0
  0
ARC
  5
E250
  8
0
 10
4805.1482713197556222
 20
109.1462719389585061
 30
0.0
 40
0.0078740381157824
 50
180.0000889435503098
 51
237.1108997066014865
  0
ARC
  5
E251
  8
0
 10
4805.5403972739468372
 20
109.7526592885108983
 30
0.0
 40
0.7300017149481095
 50
237.1108997066014865
 51
302.8891036623689956
  0
ARC
  5
E252
  8
0
 10
4805.9325232878845782
 20
109.1462719247674045
 30
0.0
 40
0.0078739937559237
 50
302.8891036331403939
 51
0.000000080502129
  0
LINE
  5
E253
  8
0
 10
4805.1403972816406167
 20
109.1462719317863019
 30
0.0
 11
4805.9403972816407986
 21
109.1462719317863019
 31
0.0
  0
LINE
  5
E254
  8
0
 10
4795.705751601341035
 20
109.8832892752362937
 30
0.0
 11
4804.745121679940894
 21
109.8832892752361943
 31
0.0
  0
LINE
  5
E255
  8
0
 10
4795.7057516111390214
 20
109.0958876433362974
 30
0.0
 11
4804.7451216899407882
 21
109.0958877575363033
 31
0.0
  0
ARC
  5
E256
  8
0
 10
4804.7451216897370614
 20
109.1037617733399969
 30
0.0
 40
0.0078740158037505
 50
270.0000014826396182
 51
359.9360799165095273
  0
ARC
  5
E257
  8
0
 10
4804.7451217740499487
 20
109.8754153486470955
 30
0.0
 40
0.0078739265896637
 50
359.9999999990694164
 51
90.000684807599896
  0
ARC
  5
E258
  8
0
 10
4804.7608702730030927
 20
109.7238410731984999
 30
0.0
 40
0.0078745752821128
 50
180.0040703048896944
 51
269.9959293264794269
  0
LINE
  5
E259
  8
0
 10
4804.7608697133910027
 20
109.715966497936293
 30
0.0
 11
4805.1460909700199409
 21
109.715966497936293
 31
0.0
  0
ARC
  5
E25A
  8
0
 10
4804.7608697216328437
 20
109.2553365714442037
 30
0.0
 40
0.0078740209920202
 50
90.0000174057474283
 51
179.9999629400718106
  0
LINE
  5
E25B
  8
0
 10
4804.7608697195146306
 20
109.2632105924362946
 30
0.0
 11
4805.1460915653833581
 21
109.2632105924362946
 31
0.0
  0
ARC
  5
E25C
  8
0
 10
4804.8247555360876504
 20
109.4895881226375991
 30
0.0
 40
0.3930694975476126
 50
323.4192406555447974
 51
36.5808239652218177
  0
LINE
  5
E25D
  8
0
 10
4795.8197283193094336
 20
112.5210921030362954
 30
0.0
 11
4793.9930511301408842
 21
112.5210921030362954
 31
0.0
  0
ARC
  5
E25E
  8
0
 10
4795.8197283194085685
 20
112.5289661187363066
 30
0.0
 40
0.0078740156999935
 50
269.9999992723331275
 51
0.0
  0
LINE
  5
E25F
  8
0
 10
4795.827602335210031
 20
112.5289661186363048
 30
0.0
 11
4795.8276023354101198
 21
112.5525881659362994
 31
0.0
  0
ARC
  5
E260
  8
0
 10
4795.8197283196768694
 20
112.5525881660029057
 30
0.0
 40
0.0078740157333321
 50
359.999999514912588
 51
89.9999990298121446
  0
LINE
  5
E261
  8
0
 10
4795.8354755586096871
 20
112.5604621814363071
 30
0.0
 11
4793.9854758331593985
 21
112.5604622047362966
 31
0.0
  0
ARC
  5
E262
  8
0
 10
4794.1734324577373627
 20
112.5904687822299053
 30
0.0
 40
0.1879571382415999
 50
156.3920635837100974
 51
179.8660483641037899
  0
ARC
  5
E263
  8
0
 10
4794.008421664872003
 20
112.6625874461072954
 30
0.0
 40
0.0078747586439855
 50
90.0035357985040179
 51
156.3920635837131101
  0
LINE
  5
E264
  8
0
 10
4794.0084211789098845
 20
112.670462204736296
 30
0.0
 11
4795.809066365709441
 21
112.6704621819363012
 31
0.0
  0
ARC
  5
E265
  8
0
 10
4795.8090663652337753
 20
112.6625881649171959
 30
0.0
 40
0.0078740170190201
 50
26.3372677681427305
 51
89.9999965354528229
  0
ARC
  5
E266
  8
0
 10
4795.6476378834322531
 20
112.5826747258224998
 30
0.0
 40
0.1879998410553577
 50
2.3799610543473451
 51
26.3372196484379586
  0
ARC
  5
E267
  8
0
 10
4795.763350527964576
 20
112.6783366588531976
 30
0.0
 40
0.0078744750192272
 50
180.0033413263701902
 51
269.998614934748673
  0
ARC
  5
E268
  8
0
 10
4795.7476063204230741
 20
112.7488431483358937
 30
0.0
 40
0.0078700024799261
 50
0.474556298314825
 51
23.4292434227080513
  0
ARC
  5
E269
  8
0
 10
4801.2696488674901047
 20
115.1189478228483978
 30
0.0
 40
6.00131884759739
 50
183.7559332559476957
 51
203.2291331809209112
  0
ARC
  5
E26A
  8
0
 10
4788.5520992610217945
 20
115.1186823614724943
 30
0.0
 40
6.0004827004951728
 50
336.7699704841439825
 51
356.2460828355775107
  0
ARC
  5
E26B
  8
0
 10
4794.0733520262510865
 20
112.7488429973887065
 30
0.0
 40
0.0078757034437806
 50
156.7613418892063066
 51
179.2954960566106024
  0
ARC
  5
E26C
  8
0
 10
4794.0576018847468731
 20
112.6783372388049997
 30
0.0
 40
0.0078750334799435
 50
270.0030663972023035
 51
359.9925943706051044
  0
ARC
  5
E26D
  8
0
 10
4794.0697330922739638
 20
112.745279250122806
 30
0.0
 40
0.0075879655267112
 50
61.5195251862866428
 51
118.480472454757205
  0
LINE
  5
E26E
  8
0
 10
4794.0733503428091353
 20
112.7519493201363048
 30
0.0
 11
4795.7476023129102032
 21
112.7519488963363017
 31
0.0
  0
ARC
  5
E26F
  8
0
 10
4795.751220118272613
 20
112.7442873678684947
 30
0.0
 40
0.0084727524517222
 50
64.7229266925233304
 51
115.2768744996441939
  0
ARC
  5
E270
  8
0
 10
4795.5486676016580532
 20
115.2165214385869945
 30
0.0
 40
0.7865592113353626
 50
222.3697950755282022
 51
251.8495258461165065
  0
ARC
  5
E271
  8
0
 10
4794.2677549587278918
 20
115.2218472260335034
 30
0.0
 40
0.7934953938073394
 50
288.3264242213468833
 51
317.566572351369075
  0
LINE
  5
E272
  8
0
 10
4793.9933848910159213
 20
112.1273938439363036
 30
0.0
 11
4793.9933907901368002
 21
112.0878869714173049
 31
0.0
  0
LINE
  5
E273
  8
0
 10
4795.8276369025061285
 20
112.1273938439363036
 30
0.0
 11
4795.8276426472430103
 21
112.0881555250632999
 31
0.0
  0
LINE
  5
E274
  8
0
 10
4795.8354755586096871
 20
112.0881566718833966
 30
0.0
 11
4793.9854758331593985
 21
112.0878858125848012
 31
0.0
  0
ARC
  5
E275
  8
0
 10
4794.1734188061182067
 20
112.0658501863941012
 30
0.0
 40
0.1881116491878309
 50
182.426549659582804
 51
206.3344547940477014
  0
ARC
  5
E276
  8
0
 10
4794.0068502493968481
 20
111.9803046018951989
 30
0.0
 40
0.0029124875959688
 50
133.9357452620081972
 51
303.9696829070317108
  0
LINE
  5
E277
  8
0
 10
4794.0084776139401583
 20
111.9778891788180033
 30
0.0
 11
4795.8091227814411468
 21
111.9781528122150007
 31
0.0
  0
ARC
  5
E278
  8
0
 10
4795.8091216282246023
 20
111.9860268291494947
 30
0.0
 40
0.0078740170190201
 50
270.0083914439102841
 51
333.6711202112500132
  0
ARC
  5
E279
  8
0
 10
4795.6476814489969911
 20
112.0659166346040934
 30
0.0
 40
0.1879998410553577
 50
333.6711683309346768
 51
357.3192961541237196
  0
ARC
  5
E27A
  8
0
 10
4795.7634491835597146
 20
111.9701724919922015
 30
0.0
 40
0.0079737384832402
 50
90.3048828424362711
 51
179.2925122977576109
  0
ARC
  5
E27B
  8
0
 10
4795.747674211616868
 20
111.899762849036307
 30
0.0
 40
0.0078700024799261
 50
336.5791445566657103
 51
352.4537261967107042
  0
ARC
  5
E27C
  8
0
 10
4801.268808237756275
 20
109.5308853802415001
 30
0.0
 40
6.0000000000001332
 50
156.7782029803645116
 51
176.2561023470375119
  0
ARC
  5
E27D
  8
0
 10
4788.5529736168427917
 20
109.5290236591804955
 30
0.0
 40
5.9999999999998384
 50
3.7617139828222168
 51
23.2388025215438105
  0
ARC
  5
E27E
  8
0
 10
4794.0753973226155722
 20
111.9001389973208944
 30
0.0
 40
0.0099399116398182
 50
183.5901676306388879
 51
202.0376833304507898
  0
ARC
  5
E27F
  8
0
 10
4794.0576598935640504
 20
111.9700223626148983
 30
0.0
 40
0.0078740156992367
 50
6.8977160308179482
 51
90.0083887952004886
  0
ARC
  5
E280
  8
0
 10
4794.0698004797022804
 20
111.9030811101659992
 30
0.0
 40
0.0075879655267112
 50
241.5279155246450102
 51
298.488862793087776
  0
LINE
  5
E281
  8
0
 10
4794.0734187066827872
 20
111.896411569781705
 30
0.0
 11
4795.7476706587785884
 21
111.8966571004825994
 31
0.0
  0
ARC
  5
E282
  8
0
 10
4795.751287342471187
 20
111.9043191585072066
 30
0.0
 40
0.0084727524517222
 50
244.7315134797349003
 51
295.2854612868399045
  0
ARC
  5
E283
  8
0
 10
4795.5490967577979973
 20
109.432055461027204
 30
0.0
 40
0.7865592113353623
 50
108.1588621332554965
 51
137.6385929038424933
  0
ARC
  5
E284
  8
0
 10
4794.2681849082800909
 20
109.4265421507715956
 30
0.0
 40
0.7934953938073394
 50
42.4418156280159167
 51
71.6819637580636169
  0
LINE
  5
E285
  8
0
 10
4793.9854758331593985
 20
112.0578857984362031
 30
0.0
 11
4793.9854758331593985
 21
112.0878858125848012
 31
0.0
  0
LINE
  5
E286
  8
0
 10
4793.9854758331593985
 20
112.5604622047362966
 30
0.0
 11
4793.9854758331593985
 21
112.5909082062755004
 31
0.0
  0
LINE
  5
E287
  8
0
 10
4794.0654769181619486
 20
111.8995165675087975
 30
0.0
 11
4794.0654769181619486
 21
111.9709680103622986
 31
0.0
  0
LINE
  5
E288
  8
0
 10
4794.0654769181619486
 20
112.678336220936302
 30
0.0
 11
4794.0654769181619486
 21
112.7489398339161966
 31
0.0
  0
LINE
  5
E289
  8
0
 10
4795.8354755586096871
 20
112.0571238744254998
 30
0.0
 11
4795.8354755586096871
 21
112.0881566718833966
 31
0.0
  0
LINE
  5
E28A
  8
0
 10
4795.8354755586096871
 20
112.5604621814363071
 30
0.0
 11
4795.8354755586096871
 21
112.5904816471498009
 31
0.0
  0
LINE
  5
E28B
  8
0
 10
4795.7554760529592386
 20
111.8987293062405968
 30
0.0
 11
4795.7554760529592386
 21
111.9702709491318018
 31
0.0
  0
LINE
  5
E28C
  8
0
 10
4795.7554760529592386
 20
112.6783361994749981
 30
0.0
 11
4795.7554760529592386
 21
112.7489083314361977
 31
0.0
  0
LINE
  5
E28D
  8
0
 10
4794.5104757963099473
 20
109.1462719247785031
 30
0.0
 11
4794.5104757963099473
 21
109.8197913348795964
 31
0.0
  0
LINE
  5
E28E
  8
0
 10
4795.3104757963101292
 20
109.1462719267350963
 30
0.0
 11
4795.3104757963101292
 21
109.2553362958202001
 31
0.0
  0
LINE
  5
E28F
  8
0
 10
4795.3104757963101292
 20
109.7238399494549981
 30
0.0
 11
4795.3104757963101292
 21
109.8197913572258955
 31
0.0
  0
LINE
  5
E290
  8
0
 10
4795.2816129373086369
 20
109.9226664853362934
 30
0.0
 11
4794.539692683031717
 21
109.9226664853362934
 31
0.0
  0
ARC
  5
E291
  8
0
 10
4794.6215210106001905
 20
110.3135927617540943
 30
0.0
 40
0.4932838263678433
 50
310.5626189458714066
 51
314.5472102766506737
  0
ARC
  5
E292
  8
0
 10
4794.8679000577649276
 20
110.0257575532691021
 30
0.0
 40
0.114401599117838
 50
302.163853788111112
 51
310.5626189458714066
  0
ARC
  5
E293
  8
0
 10
4794.9105102597413861
 20
109.9525652783241014
 30
0.0
 40
0.0298992367896392
 50
232.9120482753924932
 51
307.7155511754261852
  0
ARC
  5
E294
  8
0
 10
4795.0363612947512593
 20
110.1351429260029988
 30
0.0
 40
0.2516240107511054
 50
223.4720349452761923
 51
235.123362819168193
  0
LINE
  5
E295
  8
0
 10
4795.226558086609657
 20
109.9226664860363059
 30
0.0
 11
4795.3086336351070713
 21
109.8248526536362988
 31
0.0
  0
ARC
  5
E296
  8
0
 10
4795.3026018167647635
 20
109.8197913572258955
 30
0.0
 40
0.0078739795439794
 50
359.9998298034280992
 51
39.9999992460791134
  0
LINE
  5
E297
  8
0
 10
4795.3104758048102667
 20
109.8197913338363065
 30
0.0
 11
4794.5104757963099473
 21
109.8197913338363065
 31
0.0
  0
ARC
  5
E298
  8
0
 10
4794.5183498838587184
 20
109.8197913075386936
 30
0.0
 40
0.0078740875502929
 50
140.2787593667061969
 51
179.9998086457912052
  0
LINE
  5
E299
  8
0
 10
4794.5122934294304287
 20
109.8248232668467068
 30
0.0
 11
4794.5943935257100748
 21
109.9226664940363065
 31
0.0
  0
ARC
  5
E29A
  8
0
 10
4795.3026017581933047
 20
109.1462719389585061
 30
0.0
 40
0.0078740381157824
 50
302.8891002933984851
 51
359.9999110564489229
  0
ARC
  5
E29B
  8
0
 10
4794.9104758040029992
 20
109.7526592885108983
 30
0.0
 40
0.7300017149481095
 50
237.1108963376310044
 51
302.8891002933984851
  0
ARC
  5
E29C
  8
0
 10
4794.5183497900661678
 20
109.1462719247674045
 30
0.0
 40
0.0078739937559237
 50
179.9999999194978102
 51
237.1108963668596061
  0
LINE
  5
E29D
  8
0
 10
4795.3104757963101292
 20
109.1462719317863019
 30
0.0
 11
4794.5104757963099473
 21
109.1462719317863019
 31
0.0
  0
LINE
  5
E29E
  8
0
 10
4795.6900033645579242
 20
109.715966497936293
 30
0.0
 11
4795.3047821079308051
 21
109.715966497936293
 31
0.0
  0
LINE
  5
E29F
  8
0
 10
4795.6900025578661371
 20
109.2632105924362946
 30
0.0
 11
4795.3047807119992285
 21
109.2632105924362946
 31
0.0
  0
ARC
  5
E2A0
  8
0
 10
4795.6261175418612765
 20
109.4895881226375991
 30
0.0
 40
0.3930694975476126
 50
143.4191760347775073
 51
216.5807593444544921
  0
LINE
  5
E2A1
  8
0
 10
4795.6978775856414359
 20
109.8754152023367965
 30
0.0
 11
4795.6978775953411969
 21
109.1037616589363068
 31
0.0
  0
ARC
  5
E2A2
  8
0
 10
4795.7057516110398865
 20
109.1037616590352997
 30
0.0
 40
0.0078740156989898
 50
180.0000007202256995
 51
270.0000007350145097
  0
ARC
  5
E2A3
  8
0
 10
4795.7057516987679264
 20
109.8754151621101016
 30
0.0
 40
0.0078741131267522
 50
90.0007089224323806
 51
179.9997065677694081
  0
ARC
  5
E2A4
  8
0
 10
4795.690002208720216
 20
109.723843689660896
 30
0.0
 40
0.0078773064425917
 50
270.0099146981568197
 51
358.7324425310061997
  0
ARC
  5
E2A5
  8
0
 10
4795.6900022211248142
 20
109.2553335782290986
 30
0.0
 40
0.0078770142143693
 50
1.1698722234790171
 51
89.9975506095984485
  0
LINE
  5
E2A6
  8
0
 10
4806.4653972447913475
 20
112.082267077236196
 30
0.0
 11
4807.4515265709542291
 21
112.082267077236196
 31
0.0
  0
LINE
  5
E2A7
  8
0
 10
4807.6697729441802949
 20
112.082267077236196
 30
0.0
 11
4807.7098108358914033
 21
112.082267077236196
 31
0.0
  0
LINE
  5
E2A8
  8
0
 10
4807.7410624517906399
 20
112.082267077236196
 30
0.0
 11
4807.8987866084080451
 21
112.082267077236196
 31
0.0
  0
LINE
  5
E2A9
  8
0
 10
4804.6153975193410588
 20
112.082267077236196
 30
0.0
 11
4795.8354755586096871
 21
112.082267077236196
 31
0.0
  0
LINE
  5
E2AA
  8
0
 10
4805.6388224367410658
 20
112.5210921030362954
 30
0.0
 11
4805.6388224367410658
 21
112.4975080991384999
 31
0.0
  0
LINE
  5
E2AB
  8
0
 10
4805.4419720430405505
 20
112.5210921030362954
 30
0.0
 11
4805.4419720430405505
 21
112.4975080991384999
 31
0.0
  0
LINE
  5
E2AC
  8
0
 10
4807.5657681016573406
 20
112.4702831157362937
 30
0.0
 11
4807.721468550175814
 21
112.4702831157362937
 31
0.0
  0
LINE
  5
E2AD
  8
0
 10
4807.7294047375053196
 20
112.4702831157362937
 30
0.0
 11
4807.9026019981411082
 21
112.4702831157362937
 31
0.0
  0
ARC
  5
E2AE
  8
0
 10
4807.430161053241136
 20
112.4618626947362969
 30
0.0
 40
0.0196850393999996
 50
101.8288125346028039
 51
288.3110908911743877
  0
ARC
  5
E2AF
  8
0
 10
4807.5923610279396598
 20
112.4538158792363021
 30
0.0
 40
0.0098661257062507
 50
256.5558898417094724
 51
80.5380983087797944
  0
ARC
  5
E2B0
  8
0
 10
4807.7254366438410216
 20
112.4855230215362951
 30
0.0
 40
0.0157480315000029
 50
154.389894879452811
 51
3.7422582129500328
  0
LINE
  5
E2B1
  8
0
 10
4807.5167752265224408
 20
112.4617403592924063
 30
0.0
 11
4807.4363456247619979
 21
112.4431744136147984
 31
0.0
  0
LINE
  5
E2B2
  8
0
 10
4807.5167752266252137
 20
112.4617403593160958
 30
0.0
 11
4807.5900671858453279
 21
112.4442201132485053
 31
0.0
  0
ARC
  5
E2B3
  8
0
 10
4807.9167262541395758
 20
110.552637204239204
 30
0.0
 40
1.989917612497039
 50
92.5081027893182863
 51
104.2730428950305992
  0
LINE
  5
E2B4
  8
0
 10
4807.8296461208410619
 20
112.5406485610363063
 30
0.0
 11
4807.9577201083402542
 21
112.5406485610363063
 31
0.0
  0
ARC
  5
E2B5
  8
0
 10
4807.9344484607727281
 20
110.9660174117806974
 30
0.0
 40
1.574803106990317
 50
85.9199138231319921
 51
89.1532809938777433
  0
ARC
  5
E2B6
  8
0
 10
4808.0447363752091405
 20
112.5164058113949039
 30
0.0
 40
0.0204992230187699
 50
45.8467193548652006
 51
85.0731948170118102
  0
LINE
  5
E2B7
  8
0
 10
4808.0590157300412102
 20
112.5311135701361991
 30
0.0
 11
4808.4416655045406515
 21
112.1484637956363031
 31
0.0
  0
ARC
  5
E2B8
  8
0
 10
4808.427746079741155
 20
112.134544370836295
 30
0.0
 40
0.0196850393325938
 50
315.0000000935976914
 51
44.9999999999948201
  0
LINE
  5
E2B9
  8
0
 10
4807.5939829375893169
 20
112.4635477775888006
 30
0.0
 11
4807.5632385523531411
 21
112.470886960109496
 31
0.0
  0
ARC
  5
E2BA
  8
0
 10
4807.9167273369212126
 20
110.5526214080828993
 30
0.0
 40
1.9505633632181161
 50
92.6822332380373552
 51
95.1633699291792112
  0
ARC
  5
E2BB
  8
0
 10
4807.9167500904732151
 20
110.5524471965417064
 30
0.0
 40
1.9507387149545239
 50
96.0474503557912271
 51
100.4407896405862033
  0
LINE
  5
E2BC
  8
0
 10
4807.7411846753411737
 20
112.4952696541361945
 30
0.0
 11
4807.7411510966221613
 21
112.4865508687531985
 31
0.0
  0
LINE
  5
E2BD
  8
0
 10
4807.8254474002396819
 20
112.5010478006363002
 30
0.0
 11
4807.8747628438732136
 21
112.5010496725918046
 31
0.0
  0
ARC
  5
E2BE
  8
0
 10
4807.8750429430419899
 20
112.473492040936307
 30
0.0
 40
0.0275590551000029
 50
0.0000000025110606
 51
90.5823413168999139
  0
LINE
  5
E2BF
  8
0
 10
4808.4416655046034066
 20
112.1206249460039004
 30
0.0
 11
4808.3498385787534062
 21
112.0287980199194067
 31
0.0
  0
ARC
  5
E2C0
  8
0
 10
4808.1545238427233926
 20
112.9964535240461032
 30
0.0
 40
0.9871702086152992
 50
258.5003761720626017
 51
281.4114451287503016
  0
ARC
  5
E2C1
  8
0
 10
4807.9025223520757208
 20
113.9398333118279965
 30
0.0
 40
1.9115306721275209
 50
255.5684899738209026
 51
271.6547148325939816
  0
ARC
  5
E2C2
  8
0
 10
4807.430161053241136
 20
112.1078856231362977
 30
0.0
 40
0.0196850393999993
 50
73.3768312322678611
 51
258.1711860257656213
  0
ARC
  5
E2C3
  8
0
 10
4807.5923610279396598
 20
112.1159324386363068
 30
0.0
 40
0.0098425197000012
 50
283.4261622995907146
 51
103.4261622702850048
  0
ARC
  5
E2C4
  8
0
 10
4807.7254366438410216
 20
112.0842252963362995
 30
0.0
 40
0.0157480315000029
 50
352.8569576047293026
 51
205.5141022441117968
  0
LINE
  5
E2C5
  8
0
 10
4807.4357924678588461
 20
112.1267479651323953
 30
0.0
 11
4807.5167752265770105
 21
112.1080079585687059
 31
0.0
  0
LINE
  5
E2C6
  8
0
 10
4807.5167752265770105
 20
112.1080079585687059
 30
0.0
 11
4807.5900756729561181
 21
112.1255059618456045
 31
0.0
  0
LINE
  5
E2C7
  8
0
 10
4807.5946463829268396
 20
112.1063589154275064
 30
0.0
 11
4807.5632385522412733
 21
112.0988613577362969
 31
0.0
  0
ARC
  5
E2C8
  8
0
 10
4807.9142331764996925
 20
114.0019583593715993
 30
0.0
 40
1.9351938982675581
 50
259.5501752833017122
 51
263.9783874736211828
  0
LINE
  5
E2C9
  8
0
 10
4807.7411846753411737
 20
112.0842252963368963
 30
0.0
 11
4807.7411846753411737
 21
112.0744786637363006
 31
0.0
  0
ARC
  5
E2CA
  8
0
 10
4807.9167262563132681
 20
114.0171111512831033
 30
0.0
 40
1.950547571407206
 50
264.836620025523473
 51
267.3177768068921978
  0
LINE
  5
E2CB
  8
0
 10
4807.82543018862998
 20
112.0687013236676961
 30
0.0
 11
4807.875081193891674
 21
112.0686972217363007
 31
0.0
  0
LINE
  5
E2CC
  8
0
 10
4807.9577201083402542
 20
112.5209613447474055
 30
0.0
 11
4807.9577201083402542
 21
112.0491990527362987
 31
0.0
  0
ARC
  5
E2CD
  8
0
 10
4808.1545215512442155
 20
112.9934757891141999
 30
0.0
 40
0.9645669301779441
 50
258.2272262255207238
 51
280.3789051075012253
  0
LINE
  5
E2CE
  8
0
 10
4808.3282950417342363
 20
112.0446912314851033
 30
0.0
 11
4808.0630571492411036
 21
112.3099291237361967
 31
0.0
  0
ARC
  5
E2CF
  8
0
 10
4808.0797604589761249
 20
112.3266324334862958
 30
0.0
 40
0.0236220471741961
 50
134.9999996308590084
 51
225.0000000261393041
  0
LINE
  5
E2D0
  8
0
 10
4808.063057149341148
 20
112.3433357433362971
 30
0.0
 11
4808.1270865038532065
 21
112.4073650970236997
 31
0.0
  0
ARC
  5
E2D1
  8
0
 10
4808.1131670791846773
 20
112.4212845218713994
 30
0.0
 40
0.019685039273174
 50
314.9999996308533241
 51
45.0000018770700123
  0
LINE
  5
E2D2
  8
0
 10
4808.1270865034857707
 20
112.4352039470853981
 30
0.0
 11
4808.0450963025223245
 21
112.5171941426777948
 31
0.0
  0
ARC
  5
E2D3
  8
0
 10
4807.9344485628162147
 20
110.9660209539037936
 30
0.0
 40
1.5551145243592741
 50
85.919908378772675
 51
89.1425640425475905
  0
LINE
  5
E2D4
  8
0
 10
4808.1536145182408291
 20
112.4086759323362941
 30
0.0
 11
4808.074192689233314
 21
112.3322002033289948
 31
0.0
  0
ARC
  5
E2D5
  8
0
 10
4808.0795539264481704
 20
112.326632433386095
 30
0.0
 40
0.0077293548636174
 50
133.9173723531361873
 51
226.0826277217340134
  0
LINE
  5
E2D6
  8
0
 10
4808.0741926892396805
 20
112.321064663436303
 30
0.0
 11
4808.3455403403413584
 21
112.0497170122363002
 31
0.0
  0
LINE
  5
E2D7
  8
0
 10
4808.3455403403413584
 20
112.0497170122363002
 30
0.0
 11
4808.4249621948865752
 21
112.1261927159825973
 31
0.0
  0
ARC
  5
E2D8
  8
0
 10
4808.4196009612051057
 20
112.1317604858870993
 30
0.0
 40
0.0077293523862642
 50
313.9173536916076159
 51
46.0826467854780333
  0
LINE
  5
E2D9
  8
0
 10
4808.424962194836553
 20
112.1373282558335944
 30
0.0
 11
4808.1536145182408291
 21
112.4086759323362941
 31
0.0
  0
LINE
  5
E2DA
  8
0
 10
4808.3215071542290389
 20
112.5409502979531027
 30
0.0
 11
4808.2296802283754005
 21
112.4491233718710959
 31
0.0
  0
ARC
  5
E2DB
  8
0
 10
4808.243599653244928
 20
112.4352039470362001
 30
0.0
 40
0.0196850394064409
 50
135.0000000715099873
 51
224.9999999908669963
  0
LINE
  5
E2DC
  8
0
 10
4808.5812411124406935
 20
112.0697236381361961
 30
0.0
 11
4808.6123300028912126
 21
112.0386347476862028
 31
0.0
  0
ARC
  5
E2DD
  8
0
 10
4808.6262494276934376
 20
112.0525541724881009
 30
0.0
 40
0.0196850393352265
 50
224.9999999999936051
 51
265.9199139768297755
  0
ARC
  5
E2DE
  8
0
 10
4808.7645781296096175
 20
113.9592768656565056
 30
0.0
 40
1.9314188607326011
 50
265.8512884574897726
 51
284.4097217640148187
  0
ARC
  5
E2DF
  8
0
 10
4809.2411846796421742
 20
112.1078856231361982
 30
0.0
 40
0.0196850394
 50
281.8288140214053215
 51
104.2763248157530995
  0
ARC
  5
E2E0
  8
0
 10
4808.9459090891414235
 20
112.0842252963362995
 30
0.0
 40
0.0157480315000029
 50
334.3886965851053219
 51
180.0
  0
ARC
  5
E2E1
  8
0
 10
4809.0789847050409662
 20
112.115932438536305
 30
0.0
 40
0.0098425197000016
 50
76.5738377749833603
 51
256.5738376181719786
  0
ARC
  5
E2E2
  8
0
 10
4808.9459090891414235
 20
112.4855230215361956
 30
0.0
 40
0.0157480315000029
 50
179.5006519294587974
 51
25.6113029899655409
  0
ARC
  5
E2E3
  8
0
 10
4809.0789847050409662
 20
112.4538158792363021
 30
0.0
 40
0.0098425197000008
 50
102.6500169135327951
 51
285.5561119373094243
  0
ARC
  5
E2E4
  8
0
 10
4809.2411846796421742
 20
112.4618626947362969
 30
0.0
 40
0.0196850393999996
 50
253.3768295447086984
 51
78.1711857800050893
  0
ARC
  5
E2E5
  8
0
 10
4808.5168241859073532
 20
111.5762780987868013
 30
0.0
 40
0.984246511148366
 50
78.4658846833637114
 51
101.4459366167958052
  0
ARC
  5
E2E6
  8
0
 10
4808.7688308263195722
 20
110.6299815055648992
 30
0.0
 40
1.9114644153534881
 50
75.5682093290772059
 51
91.6549954732739138
  0
LINE
  5
E2E7
  8
0
 10
4808.6082885836049172
 20
112.2598191940933958
 30
0.0
 11
4808.343050691283679
 21
112.5250570863939004
 31
0.0
  0
ARC
  5
E2E8
  8
0
 10
4808.5168241816409136
 20
111.5762725298361033
 30
0.0
 40
0.96456692910014
 50
78.2272262108825345
 51
100.3789051111571951
  0
LINE
  5
E2E9
  8
0
 10
4808.7136256245639743
 20
112.520549265108599
 30
0.0
 11
4808.7136256245412369
 21
112.0487869730363002
 31
0.0
  0
ARC
  5
E2EA
  8
0
 10
4808.7368972809608749
 20
113.6037310608457034
 30
0.0
 40
1.5551182225818521
 50
265.9199139043171272
 51
269.1425619955857087
  0
LINE
  5
E2EB
  8
0
 10
4808.6262494277398218
 20
112.0525541725363041
 30
0.0
 11
4808.544259229394811
 21
112.134544370787097
 31
0.0
  0
ARC
  5
E2EC
  8
0
 10
4808.5581636847882692
 20
112.1484637956362036
 30
0.0
 40
0.0196744572452126
 50
134.9691744540245111
 51
225.0308255567890967
  0
LINE
  5
E2ED
  8
0
 10
4808.5442592293920825
 20
112.1623832204826954
 30
0.0
 11
4808.6083230225203806
 21
112.2263781170976955
 31
0.0
  0
ARC
  5
E2EE
  8
0
 10
4808.5916376129789569
 20
112.2430814900484961
 30
0.0
 40
0.023609437932634
 50
314.9691744540256764
 51
45.1488363253038969
  0
LINE
  5
E2EF
  8
0
 10
4809.2355532644669438
 20
112.4430003529059974
 30
0.0
 11
4809.1545705064409049
 21
112.4617403593363036
 31
0.0
  0
LINE
  5
E2F0
  8
0
 10
4809.1545705064409049
 20
112.4617403593363036
 30
0.0
 11
4809.0816242913424503
 21
112.4443339080168016
 31
0.0
  0
LINE
  5
E2F1
  8
0
 10
4809.0768292415123142
 20
112.4634194812175991
 30
0.0
 11
4809.1081071806293039
 21
112.470886960109496
 31
0.0
  0
ARC
  5
E2F2
  8
0
 10
4808.7546194788410503
 20
110.5526372042368024
 30
0.0
 40
1.950547533699476
 50
79.5588874958963146
 51
83.9526629928551387
  0
ARC
  5
E2F3
  8
0
 10
4808.7546198098079913
 20
110.5526420307370046
 30
0.0
 40
1.9505426969987869
 50
84.8366169119145184
 51
87.3177825954868041
  0
LINE
  5
E2F4
  8
0
 10
4808.8458982409802047
 20
112.5010478049068041
 30
0.0
 11
4808.7965828882852293
 21
112.5010496726001037
 31
0.0
  0
ARC
  5
E2F5
  8
0
 10
4808.796392481899602
 20
112.4732874319253995
 30
0.0
 40
0.0277628936148927
 50
89.6070450018838045
 51
185.1973933300118063
  0
LINE
  5
E2F6
  8
0
 10
4808.7687437348413368
 20
112.4707724671198008
 30
0.0
 11
4808.7687437348413368
 21
112.0962562768347937
 31
0.0
  0
ARC
  5
E2F7
  8
0
 10
4808.7962995239413431
 20
112.0962562768347937
 30
0.0
 40
0.0275557891008589
 50
179.9999999999934914
 51
269.9161584016173947
  0
LINE
  5
E2F8
  8
0
 10
4808.7962592012399909
 20
112.068700517236195
 30
0.0
 11
4808.8458982795964403
 21
112.0687005172362944
 31
0.0
  0
ARC
  5
E2F9
  8
0
 10
4808.7413051634102885
 20
114.1846742778939046
 30
0.0
 40
2.1186297645277281
 50
272.8297445724953718
 51
275.1141674501376997
  0
LINE
  5
E2FA
  8
0
 10
4808.9301610576712847
 20
112.4952696541158019
 30
0.0
 11
4808.9301616557149828
 21
112.4856602681128948
 31
0.0
  0
ARC
  5
E2FB
  8
0
 10
4808.7546194832266337
 20
114.0171110785559989
 30
0.0
 40
1.9505474984522511
 50
276.0473369857130024
 51
280.4411125672120875
  0
LINE
  5
E2FC
  8
0
 10
4809.1081071807648186
 20
112.0988613576881932
 30
0.0
 11
4809.0766993500410535
 21
112.1063589154363029
 31
0.0
  0
LINE
  5
E2FD
  8
0
 10
4809.0812700600381504
 20
112.1255059618058993
 30
0.0
 11
4809.1545705064590948
 21
112.1080079585802025
 31
0.0
  0
LINE
  5
E2FE
  8
0
 10
4809.1545705064590948
 20
112.1080079585802025
 30
0.0
 11
4809.2371494764865929
 21
112.1271526392957014
 31
0.0
  0
LINE
  5
E2FF
  8
0
 10
4808.9301610576421808
 20
112.0744786636540056
 30
0.0
 11
4808.9301610576421808
 21
112.0842252963362995
 31
0.0
  0
LINE
  5
E300
  8
0
 10
4808.3258053925410422
 20
112.5200313056362944
 30
0.0
 11
4808.5971530437382171
 21
112.2486836543317992
 31
0.0
  0
ARC
  5
E301
  8
0
 10
4808.5915852738380636
 20
112.2431158844328962
 30
0.0
 40
0.0078740157047563
 50
315.0000000720718845
 51
44.9999999887206386
  0
LINE
  5
E302
  8
0
 10
4808.5971530437445836
 20
112.237548114539905
 30
0.0
 11
4808.5177312147407065
 21
112.1610723855362011
 31
0.0
  0
LINE
  5
E303
  8
0
 10
4808.5177312147407065
 20
112.1610723855362011
 30
0.0
 11
4808.2463835381422541
 21
112.4324200620362006
 31
0.0
  0
ARC
  5
E304
  8
0
 10
4808.2519513080387696
 20
112.4379878319362973
 30
0.0
 40
0.0078740157032992
 50
134.9999999145327934
 51
225.0000000105297033
  0
LINE
  5
E305
  8
0
 10
4808.2463835381486206
 20
112.4435556018434994
 30
0.0
 11
4808.3258053925410422
 21
112.5200313056362944
 31
0.0
  0
LINE
  5
E306
  8
0
 10
4807.8632319194412048
 20
112.4029843951363006
 30
0.0
 11
4807.8632319194412048
 21
112.166763922736294
 31
0.0
  0
LINE
  5
E307
  8
0
 10
4807.8632319194412048
 20
112.166763922736294
 30
0.0
 11
4780.5258098434596832
 21
112.166763922736294
 31
0.0
  0
LINE
  5
E308
  8
0
 10
4780.5224749067638186
 20
112.166763922736294
 30
0.0
 11
4780.4864397646597354
 21
112.166763922736294
 31
0.0
  0
LINE
  5
E309
  8
0
 10
4780.5224749067638186
 20
112.166763922736294
 30
0.0
 11
4780.382916963039861
 21
112.166763922736294
 31
0.0
  0
LINE
  5
E30A
  8
0
 10
4779.9104760182399332
 20
112.166763922736294
 30
0.0
 11
4776.8002397977397777
 21
112.166763922736294
 31
0.0
  0
LINE
  5
E30B
  8
0
 10
4775.2254366481411125
 20
112.166763922736294
 30
0.0
 11
4765.4222870417397644
 21
112.166763922736294
 31
0.0
  0
LINE
  5
E30C
  8
0
 10
4765.4222870417397644
 20
112.166763922736294
 30
0.0
 11
4765.4222870417397644
 21
112.4029843951363006
 31
0.0
  0
LINE
  5
E30D
  8
0
 10
4765.4222870417397644
 20
112.4029843951363006
 30
0.0
 11
4775.2254366481411125
 21
112.4029843951363006
 31
0.0
  0
LINE
  5
E30E
  8
0
 10
4776.8002397977397777
 20
112.4029843951363006
 30
0.0
 11
4779.9104760182399332
 21
112.4029843951363006
 31
0.0
  0
LINE
  5
E30F
  8
0
 10
4780.3435468842408227
 20
112.4029843951363006
 30
0.0
 11
4807.8632319194412048
 21
112.4029843951362011
 31
0.0
  0
LINE
  5
E310
  8
0
 10
4807.8632319194412048
 20
112.4029843951363006
 30
0.0
 11
4807.8832070964899685
 21
112.4223792968362972
 31
0.0
  0
LINE
  5
E311
  8
0
 10
4807.8632319194412048
 20
112.166763922736294
 30
0.0
 11
4807.882916958840724
 21
112.1470788833862997
 31
0.0
  0
LINE
  5
E312
  8
0
 10
4765.3829169630316756
 20
112.4029843951273051
 30
0.0
 11
4765.4222870417397644
 21
112.4423544739363052
 31
0.0
  0
LINE
  5
E313
  8
0
 10
4765.4222870417397644
 20
112.4423544739363052
 30
0.0
 11
4765.5129616223557605
 21
112.4423544739363052
 31
0.0
  0
LINE
  5
E314
  8
0
 10
4765.4222870417397644
 20
112.4029843951363006
 30
0.0
 11
4765.4026020023420642
 21
112.4226694345363029
 31
0.0
  0
LINE
  5
E315
  8
0
 10
4765.3829169629489115
 20
112.1667639228273998
 30
0.0
 11
4765.4222870417397644
 21
112.1273938439363036
 31
0.0
  0
LINE
  5
E316
  8
0
 10
4765.4222870417397644
 20
112.1273938439363036
 30
0.0
 11
4765.5129557847421893
 21
112.1273938439363036
 31
0.0
  0
LINE
  5
E317
  8
0
 10
4765.4222870417397644
 20
112.166763922736294
 30
0.0
 11
4765.4026020023911769
 21
112.1470788833363059
 31
0.0
  0
LINE
  5
E318
  8
0
 10
4780.382916963039861
 20
112.4423544739363052
 30
0.0
 11
4780.3435475299502286
 21
112.4029843951362011
 31
0.0
  0
LINE
  5
E319
  8
0
 10
4780.382916963039861
 20
112.4029843951362011
 30
0.0
 11
4780.3629417859920068
 21
112.4223792968362972
 31
0.0
  0
LINE
  5
E31A
  8
0
 10
4780.382916963039861
 20
112.4029843951362011
 30
0.0
 11
4780.382916963039861
 21
112.166763922736294
 31
0.0
  0
LINE
  5
E31B
  8
0
 10
4780.382916963039861
 20
112.166763922736294
 30
0.0
 11
4780.3632319236412513
 21
112.1470788833862997
 31
0.0
  0
LINE
  5
E31C
  8
0
 10
4780.3435535242815604
 20
112.166763922736294
 30
0.0
 11
4780.382916963039861
 21
112.1273938439363036
 31
0.0
  0
LINE
  5
E31D
  8
0
 10
4780.382916963039861
 20
112.1273938439363036
 30
0.0
 11
4780.4192591111159345
 21
112.1273938439363036
 31
0.0
  0
LINE
  5
E31E
  8
0
 10
4780.3831643916282701
 20
112.4426019025239043
 30
0.0
 11
4780.4688640412978202
 21
112.4426019025239043
 31
0.0
  0
CIRCLE
  5
E31F
  8
0
 10
4765.382916963039861
 20
115.9462914818362975
 30
0.0
 40
0.1023622047000003
  0
CIRCLE
  5
E320
  8
0
 10
4766.7608697189398299
 20
115.9462914818362975
 30
0.0
 40
0.1023622047000003
  0
CIRCLE
  5
E321
  8
0
 10
4766.7608697189398299
 20
115.2376300645363045
 30
0.0
 40
0.1023622047000003
  0
CIRCLE
  5
E322
  8
0
 10
4765.382916963039861
 20
115.2376300645363045
 30
0.0
 40
0.1023622047000003
  0
CIRCLE
  5
E323
  8
0
 10
4775.6191374355412336
 20
115.9462914818362975
 30
0.0
 40
0.0984251969000001
  0
CIRCLE
  5
E324
  8
0
 10
4776.4065390103396567
 20
115.9462914818362975
 30
0.0
 40
0.0984251969000001
  0
CIRCLE
  5
E325
  8
0
 10
4775.6191374355412336
 20
115.2376300645363045
 30
0.0
 40
0.0984251969000001
  0
CIRCLE
  5
E326
  8
0
 10
4776.4065390103396567
 20
115.2376300645363045
 30
0.0
 40
0.0984251969000001
  0
CIRCLE
  5
E327
  8
0
 10
4821.9577201126412547
 20
115.9462914818362975
 30
0.0
 40
0.1023622047000003
  0
CIRCLE
  5
E328
  8
0
 10
4823.3356728685412236
 20
115.9462914818362975
 30
0.0
 40
0.1023622046999974
  0
CIRCLE
  5
E329
  8
0
 10
4823.3356728685412236
 20
115.2376300645363045
 30
0.0
 40
0.1023622047000003
  0
CIRCLE
  5
E32A
  8
0
 10
4821.9577201126412547
 20
115.2376300645363045
 30
0.0
 40
0.1023622047000003
  0
LINE
  5
E32B
  8
0
 10
4779.9498460969407461
 20
112.166763922736294
 30
0.0
 11
4779.9498460969407461
 21
112.4029843951363006
 31
0.0
  0
LINE
  5
E32C
  8
0
 10
4780.3041768056409637
 20
112.1413222415554998
 30
0.0
 11
4780.3041768056409637
 21
112.4512871535361995
 31
0.0
  0
LINE
  5
E32D
  8
0
 10
4765.1860665693411647
 20
114.8045591983363067
 30
0.0
 11
4765.1860665693411647
 21
116.3793623479362935
 31
0.0
  0
LINE
  5
E32E
  8
0
 10
4776.8002397977397777
 20
111.6155828204363019
 30
0.0
 11
4776.8002397977397777
 21
116.3793623479362935
 31
0.0
  0
LINE
  5
E32F
  8
0
 10
4775.2254366481411125
 20
111.6155828204363019
 30
0.0
 11
4775.2254366481411125
 21
116.3793623479362935
 31
0.0
  0
LINE
  5
E330
  8
0
 10
4813.493153183540926
 20
111.6155828203363001
 30
0.0
 11
4813.493153183540926
 21
116.3793623479362935
 31
0.0
  0
LINE
  5
E331
  8
0
 10
4811.9183500339413513
 20
111.6155828203363001
 30
0.0
 11
4811.9183500339413513
 21
116.3793623479362935
 31
0.0
  0
LINE
  5
E332
  8
0
 10
4767.1545705063408604
 20
114.8045591983363067
 30
0.0
 11
4767.1545705063408604
 21
116.3793623479362935
 31
0.0
  0
LINE
  5
E333
  8
0
 10
4811.9183500339413513
 20
116.3793623479362935
 30
0.0
 11
4813.493153183540926
 21
116.3793623479362935
 31
0.0
  0
LINE
  5
E334
  8
0
 10
4811.9183500339413513
 20
111.6155828203363001
 30
0.0
 11
4813.493153183540926
 21
111.6155828203363001
 31
0.0
  0
CIRCLE
  5
E335
  8
0
 10
4812.3120508213396533
 20
115.9462914817362957
 30
0.0
 40
0.0984251968999992
  0
CIRCLE
  5
E336
  8
0
 10
4813.0994523961408049
 20
115.9462914817362957
 30
0.0
 40
0.0984251968999992
  0
CIRCLE
  5
E337
  8
0
 10
4813.0994523961408049
 20
115.2376300644363027
 30
0.0
 40
0.0984251968999992
  0
CIRCLE
  5
E338
  8
0
 10
4812.3120508213396533
 20
115.2376300644363027
 30
0.0
 40
0.0984251968999992
  0
LINE
  5
E339
  8
0
 10
4765.6781925536397466
 20
112.5210946545895041
 30
0.0
 11
4765.6781925536397466
 21
112.4731379945329053
 31
0.0
  0
LINE
  5
E33A
  8
0
 10
4765.6781925536397466
 20
112.0966474371595041
 30
0.0
 11
4765.6781925536397466
 21
112.0486536864362961
 31
0.0
  0
LINE
  5
E33B
  8
0
 10
4775.2254366481411125
 20
111.6155828204362024
 30
0.0
 11
4776.8002397977397777
 21
111.6155828204362024
 31
0.0
  0
LINE
  5
E33C
  8
0
 10
4778.886853970941047
 20
112.5998347888363043
 30
0.0
 11
4779.1624445221414135
 21
112.5998347888363043
 31
0.0
  0
LINE
  5
E33D
  8
0
 10
4779.1624445221414135
 20
112.5998347888363043
 30
0.0
 11
4779.1624445221414135
 21
113.0329056549363003
 31
0.0
  0
ARC
  5
E33E
  8
0
 10
4779.0443342859398399
 20
113.0329056549363003
 30
0.0
 40
0.1181102362000104
 50
0.0
 51
90.0
  0
LINE
  5
E33F
  8
0
 10
4779.0443342859398399
 20
113.1510158911362964
 30
0.0
 11
4778.0994523961408049
 21
113.1510158911362964
 31
0.0
  0
ARC
  5
E340
  8
0
 10
4778.0994523961408049
 20
113.0329056549363003
 30
0.0
 40
0.1181102362000033
 50
90.0
 51
180.0
  0
LINE
  5
E341
  8
0
 10
4777.9813421599410503
 20
113.0329056549363003
 30
0.0
 11
4777.9813421599410503
 21
112.783046333036296
 31
0.0
  0
LINE
  5
E342
  8
0
 10
4777.25102719933966
 20
112.5210946313362967
 30
0.0
 11
4777.25102719933966
 21
112.4423544739363052
 31
0.0
  0
LINE
  5
E343
  8
0
 10
4777.8553579079407427
 20
112.4423544738363034
 30
0.0
 11
4777.8553579079407427
 21
112.4620395132363058
 31
0.0
  0
LINE
  5
E344
  8
0
 10
4778.7136256245412369
 20
112.4423544739363052
 30
0.0
 11
4778.7136256245412369
 21
112.5132206156362997
 31
0.0
  0
ARC
  5
E345
  8
0
 10
4778.721499640240836
 20
112.5132206156362997
 30
0.0
 40
0.0078740157000041
 50
90.0
 51
180.0000000000032117
  0
LINE
  5
E346
  8
0
 10
4778.4301610575412269
 20
112.4423544738363034
 30
0.0
 11
4778.4301772789413008
 21
112.5132206156362997
 31
0.0
  0
ARC
  5
E347
  8
0
 10
4778.4223050448317736
 20
112.513222417606201
 30
0.0
 40
0.0078722343155708
 50
359.9868848829891022
 51
90.131029672320949
  0
ARC
  5
E348
  8
0
 10
4779.1348854670395667
 20
112.5919607731361936
 30
0.0
 40
0.0078740157000325
 50
0.0000218174147223
 51
89.9999999998957776
  0
LINE
  5
E349
  8
0
 10
4779.1427594827400753
 20
112.5919607731361936
 30
0.0
 11
4779.1427594827400753
 21
112.5289686471362955
 31
0.0
  0
ARC
  5
E34A
  8
0
 10
4779.1348854669413413
 20
112.5289686471362955
 30
0.0
 40
0.0078740158000006
 50
270.0000007276668725
 51
359.9999999999772058
  0
LINE
  5
E34B
  8
0
 10
4779.1348854669413413
 20
112.5210946313362967
 30
0.0
 11
4778.8671689315397089
 21
112.5210946313362967
 31
0.0
  0
LINE
  5
E34C
  8
0
 10
4779.9301610574921142
 20
112.4226694345363029
 30
0.0
 11
4779.9104760182399332
 21
112.4029843951363006
 31
0.0
  0
LINE
  5
E34D
  8
0
 10
4779.9104760182399332
 20
112.4029843951363006
 30
0.0
 11
4779.9104760182399332
 21
112.166763922736294
 31
0.0
  0
LINE
  5
E34E
  8
0
 10
4779.9104760182399332
 20
112.166763922736294
 30
0.0
 11
4779.9301610574921142
 21
112.1470788833363059
 31
0.0
  0
LINE
  5
E34F
  8
0
 10
4779.9498460969407461
 20
111.9653041636363042
 30
0.0
 11
4776.8002397977397777
 21
111.9653041636363042
 31
0.0
  0
ARC
  5
E350
  8
0
 10
4780.3632319653752347
 20
112.1413222415554003
 30
0.0
 40
0.0590551597340259
 50
179.9999999999787974
 51
275.9752003451840778
  0
LINE
  5
E351
  8
0
 10
4782.3895234815172444
 20
111.6549528990363029
 30
0.0
 11
4794.1637155345497376
 21
111.6549528990363029
 31
0.0
  0
LINE
  5
E352
  8
0
 10
4795.6573612607617179
 20
111.6549528990363029
 30
0.0
 11
4804.7935118171881186
 21
111.6549528990363029
 31
0.0
  0
LINE
  5
E353
  8
0
 10
4806.2871575434000988
 20
111.6549528990363029
 30
0.0
 11
4811.0128382229413546
 21
111.6549528990363029
 31
0.0
  0
LINE
  5
E354
  8
0
 10
4783.787392376657408
 20
112.0486536864362961
 30
0.0
 11
4793.986094827542729
 21
112.0486536864362961
 31
0.0
  0
LINE
  5
E355
  8
0
 10
4795.8348870334693856
 20
112.0486536864362961
 30
0.0
 11
4804.6159860444822698
 21
112.0486536864362961
 31
0.0
  0
LINE
  5
E356
  8
0
 10
4806.4647782504080169
 20
112.0486536864362961
 30
0.0
 11
4807.6252687798287297
 21
112.0486536864362961
 31
0.0
  0
LINE
  5
E357
  8
0
 10
4807.9603552382941416
 20
112.0486536864362961
 30
0.0
 11
4808.3243325867788371
 21
112.0486536864362961
 31
0.0
  0
LINE
  5
E358
  8
0
 10
4808.3696942452197618
 20
112.0486536864362961
 30
0.0
 11
4808.6023110641408493
 21
112.0486536864362961
 31
0.0
  0
LINE
  5
E359
  8
0
 10
4809.0472402647119452
 20
112.0486536864362961
 30
0.0
 11
4811.103389403941037
 21
112.0486536864362961
 31
0.0
  0
LINE
  5
E35A
  8
0
 10
4821.426224049630946
 20
112.0486536864362961
 30
0.0
 11
4822.9616571205397122
 21
112.0486536864362961
 31
0.0
  0
LINE
  5
E35B
  8
0
 10
4793.9930511301408842
 20
112.5604622046408991
 30
0.0
 11
4793.9930511301408842
 21
112.5210921030362954
 31
0.0
  0
LINE
  5
E35C
  8
0
 10
4808.2296802283899524
 20
112.4212845221858998
 30
0.0
 11
4808.5812411124406935
 21
112.0697236381361961
 31
0.0
  0
ARC
  5
E35D
  8
0
 10
4811.0924235982101891
 20
112.0096265180634987
 30
0.0
 40
0.0385263870262617
 50
359.4900229311912767
 51
91.2570941687077095
  0
LINE
  5
E35E
  8
0
 10
4811.1309484591401997
 20
112.0092836077211018
 30
0.0
 11
4811.1309484591401997
 21
111.7730631353363009
 31
0.0
  0
ARC
  5
E35F
  8
0
 10
4811.0128382228422197
 20
111.7730631353363009
 30
0.0
 40
0.1181102362999979
 50
270.0000000485146074
 51
0.0
  0
LINE
  5
E360
  8
0
 10
4808.8081138134411958
 20
112.4029843951363006
 30
0.0
 11
4808.8081138134411958
 21
112.166763922736294
 31
0.0
  0
LINE
  5
E361
  8
0
 10
4808.8081138134411958
 20
112.166763922736294
 30
0.0
 11
4811.9183500339413513
 21
112.166763922736294
 31
0.0
  0
LINE
  5
E362
  8
0
 10
4813.493153183540926
 20
112.166763922736294
 30
0.0
 11
4823.2963027898422297
 21
112.166763922736294
 31
0.0
  0
LINE
  5
E363
  8
0
 10
4823.2965252217909438
 20
112.1667638723568956
 30
0.0
 11
4823.2965252217909438
 21
112.4029843447569021
 31
0.0
  0
LINE
  5
E364
  8
0
 10
4823.2963027898422297
 20
112.4029843951363006
 30
0.0
 11
4813.493153183540926
 21
112.4029843951363006
 31
0.0
  0
LINE
  5
E365
  8
0
 10
4811.9183500339413513
 20
112.4029843951363006
 30
0.0
 11
4808.8081138134411958
 21
112.4029843951363006
 31
0.0
  0
LINE
  5
E366
  8
0
 10
4808.8081138134411958
 20
112.4029843951363006
 30
0.0
 11
4808.7884287740898799
 21
112.4226694344862949
 31
0.0
  0
LINE
  5
E367
  8
0
 10
4808.7687437348413368
 20
112.4029843952363024
 30
0.0
 11
4808.8081138134411958
 21
112.4423544738363034
 31
0.0
  0
LINE
  5
E368
  8
0
 10
4808.8081138134411958
 20
112.4423544738363034
 30
0.0
 11
4809.2386185121140443
 21
112.4423456365460936
 31
0.0
  0
LINE
  5
E369
  8
0
 10
4809.2437500458827344
 20
112.4423455312071951
 30
0.0
 11
4811.9183500339413513
 21
112.4422906277034997
 31
0.0
  0
LINE
  5
E36A
  8
0
 10
4813.493153183540926
 20
112.4422583005477065
 30
0.0
 11
4822.9420391348412522
 21
112.4420643362362995
 31
0.0
  0
LINE
  5
E36B
  8
0
 10
4822.941913229340571
 20
112.1273938439363036
 30
0.0
 11
4813.493153183540926
 21
112.1273938439363036
 31
0.0
  0
LINE
  5
E36C
  8
0
 10
4811.9183500339413513
 20
112.1273938439363036
 30
0.0
 11
4809.2438171874564432
 21
112.1273938439363036
 31
0.0
  0
LINE
  5
E36D
  8
0
 10
4809.2385521718269956
 20
112.1273938439363036
 30
0.0
 11
4808.8081138134411958
 21
112.1273938439363036
 31
0.0
  0
LINE
  5
E36E
  8
0
 10
4808.8081138134411958
 20
112.1273938439363036
 30
0.0
 11
4808.7687437348413368
 21
112.1667639226363065
 31
0.0
  0
LINE
  5
E36F
  8
0
 10
4808.8081138134411958
 20
112.166763922736294
 30
0.0
 11
4808.7884287741408116
 21
112.1470788832862979
 31
0.0
  0
ARC
  5
E370
  8
0
 10
4809.9774051520398643
 20
112.1195198282363066
 30
0.0
 40
0.0078740157000118
 50
90.0
 51
179.9999781826886931
  0
LINE
  5
E371
  8
0
 10
4809.9695311363411747
 20
112.119519831234598
 30
0.0
 11
4809.9695311363411747
 21
112.0565277022362949
 31
0.0
  0
ARC
  5
E372
  8
0
 10
4809.9774051520398643
 20
112.0565277022362949
 30
0.0
 40
0.0078740157000077
 50
179.9999999999739089
 51
270.0
  0
ARC
  5
E373
  8
0
 10
4811.1033894040410814
 20
112.1195198282363066
 30
0.0
 40
0.0078740156999828
 50
359.9999999999478746
 51
90.0000000001563336
  0
LINE
  5
E374
  8
0
 10
4811.1112634197406805
 20
112.1195198282363066
 30
0.0
 11
4811.1112634197406805
 21
112.0565277022362949
 31
0.0
  0
ARC
  5
E375
  8
0
 10
4811.103389403941037
 20
112.0565277022362949
 30
0.0
 40
0.0078740158000059
 50
270.0000007277191116
 51
0.0
  0
LINE
  5
E376
  8
0
 10
4809.9498460969407461
 20
112.5998347888363043
 30
0.0
 11
4809.9498460969407461
 21
113.0329056549363003
 31
0.0
  0
ARC
  5
E377
  8
0
 10
4810.0679563331395912
 20
113.0329056549363003
 30
0.0
 40
0.1181102361999997
 50
90.0
 51
179.9999999999992042
  0
LINE
  5
E378
  8
0
 10
4810.0679563331395912
 20
113.1510158911362964
 30
0.0
 11
4811.0128382229413546
 21
113.1510158912362982
 31
0.0
  0
ARC
  5
E379
  8
0
 10
4811.0128382229540875
 20
113.0329056550487934
 30
0.0
 40
0.1181102361874977
 50
359.9999999454219051
 51
90.000000006044786
  0
LINE
  5
E37A
  8
0
 10
4811.1309484591401997
 20
113.0329056549363003
 30
0.0
 11
4811.1309484591401997
 21
112.5998347888363043
 31
0.0
  0
LINE
  5
E37B
  8
0
 10
4811.1309484591401997
 20
112.5998347888363043
 30
0.0
 11
4809.9498460969407461
 21
112.5998347888363043
 31
0.0
  0
ARC
  5
E37C
  8
0
 10
4809.9774051535387116
 20
112.5919607716371047
 30
0.0
 40
0.00787401719915
 50
90.0000109085945894
 51
180.0000109085758027
  0
LINE
  5
E37D
  8
0
 10
4809.9695311363411747
 20
112.591960773136293
 30
0.0
 11
4809.9695311363411747
 21
112.5289686471362955
 31
0.0
  0
ARC
  5
E37E
  8
0
 10
4809.9774051521408182
 20
112.5289686471362955
 30
0.0
 40
0.0078740157999917
 50
180.0
 51
269.99999927248939
  0
LINE
  5
E37F
  8
0
 10
4809.9774057365266344
 20
112.5210946313362967
 30
0.0
 11
4811.1033894040410814
 21
112.5210946313362967
 31
0.0
  0
ARC
  5
E380
  8
0
 10
4811.1033894040410814
 20
112.5289686470362938
 30
0.0
 40
0.0078740157000041
 50
270.0
 51
0.0000007276180898
  0
LINE
  5
E381
  8
0
 10
4811.1112634197406805
 20
112.5289686470362938
 30
0.0
 11
4811.1112634197406805
 21
112.591960773136293
 31
0.0
  0
ARC
  5
E382
  8
0
 10
4811.1033894040410814
 20
112.591960773136293
 30
0.0
 40
0.0078740157000077
 50
359.9999999999740226
 51
89.9999999999478888
  0
LINE
  5
E383
  8
0
 10
4810.6821295615409326
 20
112.4423544738363034
 30
0.0
 11
4810.6821295615409326
 21
112.5132206156362997
 31
0.0
  0
ARC
  5
E384
  8
0
 10
4810.6900035772396222
 20
112.5132206156362997
 30
0.0
 40
0.0078740156999935
 50
89.9999999999478888
 51
179.9999999999739089
  0
LINE
  5
E385
  8
0
 10
4810.3986649945409226
 20
112.4423544738363034
 30
0.0
 11
4810.3986812159409965
 21
112.5132206156362997
 31
0.0
  0
ARC
  5
E386
  8
0
 10
4810.3908089818323788
 20
112.513222417606201
 30
0.0
 40
0.007872234315569
 50
359.9868848830021761
 51
90.131029672320949
  0
LINE
  5
E387
  8
0
 10
4821.4065390103396567
 20
111.9841626669981025
 30
0.0
 11
4821.4065390103396567
 21
112.0407796203569006
 31
0.0
  0
LINE
  5
E388
  8
0
 10
4821.4065390103396567
 20
112.5210946961156964
 30
0.0
 11
4821.4065390103396567
 21
112.5933299418567941
 31
0.0
  0
LINE
  5
E389
  8
0
 10
4821.4144130260410748
 20
112.0486536360568977
 30
0.0
 11
4823.0522092802411862
 21
112.0486536360568977
 31
0.0
  0
LINE
  5
E38A
  8
0
 10
4823.5325232622399199
 20
111.541647406490199
 30
0.0
 11
4823.5325232622399199
 21
111.9820337571017035
 31
0.0
  0
LINE
  5
E38B
  8
0
 10
4823.5325232622399199
 20
112.5998347389860044
 30
0.0
 11
4823.5325232622399199
 21
114.1746378880569068
 31
0.0
  0
LINE
  5
E38C
  8
0
 10
4823.2569327110413724
 20
113.7021969431569062
 30
0.0
 11
4823.2569327110413724
 21
112.8544952381275976
 31
0.0
  0
LINE
  5
E38D
  8
0
 10
4823.5325232622399199
 20
114.1746378880569068
 30
0.0
 11
4823.4607327506410002
 21
114.1746378880569068
 31
0.0
  0
ARC
  5
E38E
  8
0
 10
4823.4606464271164441
 20
114.1621778250790982
 30
0.0
 40
0.0124603619996394
 50
89.6030602299749859
 51
148.2859418049962983
  0
ARC
  5
E38F
  8
0
 10
4824.5167753628156788
 20
113.4984345474599934
 30
0.0
 40
1.2598426548343471
 50
147.8562436282192039
 51
172.5023003091164071
  0
ARC
  5
E390
  8
0
 10
4824.5167752307406772
 20
113.4984345795568998
 30
0.0
 40
1.2598425197003169
 50
172.5023009725755117
 51
179.9999999999984084
  0
LINE
  5
E391
  8
0
 10
4823.2569327110413724
 20
113.7021969431569062
 30
0.0
 11
4823.21756263233965
 21
113.7021969431569062
 31
0.0
  0
ARC
  5
E392
  8
0
 10
4823.2175626407588425
 20
113.6825118954394043
 30
0.0
 40
0.0196850478174664
 50
90.0000245000832422
 51
179.9999755000013977
  0
LINE
  5
E393
  8
0
 10
4823.1978775929410403
 20
113.6825119038569056
 30
0.0
 11
4823.1978775929410403
 21
112.8754275232569029
 31
0.0
  0
ARC
  5
E394
  8
0
 10
4823.2175648660677325
 20
112.8754275232569029
 30
0.0
 40
0.0196872731267277
 50
180.0000000000040075
 51
269.9934991954797852
  0
ARC
  5
E395
  8
0
 10
4823.1978657231020406
 20
112.8557657820270066
 30
0.0
 40
0.0590806511975423
 50
269.9878543191957192
 51
358.7677452103229143
  0
LINE
  5
E396
  8
0
 10
4823.1978782833411969
 20
112.7966865524569045
 30
0.0
 11
4822.0827423193413779
 21
112.7966851321568953
 31
0.0
  0
ARC
  5
E397
  8
0
 10
4822.0827439227996365
 20
111.5377431084031059
 30
0.0
 40
1.2589420237548239
 50
90.0000729751351258
 51
122.1035265768882994
  0
ARC
  5
E398
  8
0
 10
4821.4219844739709515
 20
112.5909399159712052
 30
0.0
 40
0.0156292856683158
 50
122.1035265768912979
 51
171.2038336686389925
  0
LINE
  5
E399
  8
0
 10
4823.4607327506410002
 20
112.6720410664568988
 30
0.0
 11
4823.4607327506410002
 21
114.1746378880569068
 31
0.0
  0
ARC
  5
E39A
  8
0
 10
4823.383629427436972
 20
112.6699884115121932
 30
0.0
 40
0.0771306417960716
 50
268.4748916497551932
 51
1.5249869825174249
  0
LINE
  5
E39B
  8
0
 10
4823.3815765939407356
 20
112.5928850928569034
 30
0.0
 11
4821.4262240496409504
 21
112.5928850271568962
 31
0.0
  0
ARC
  5
E39C
  8
0
 10
4823.4537831042116522
 20
112.5998347389860044
 30
0.0
 40
0.0787401580291807
 50
269.9999967770879152
 51
359.9999996149364847
  0
LINE
  5
E39D
  8
0
 10
4823.4537830997833225
 20
112.5210945809568983
 30
0.0
 11
4821.4065390103396567
 21
112.5210946961156964
 31
0.0
  0
ARC
  5
E39E
  8
0
 10
4821.426056319325653
 20
112.6731806915605034
 30
0.0
 40
0.0802958395900894
 50
263.2364115838416865
 51
270.1196854799346738
  0
ARC
  5
E39F
  8
0
 10
4821.4118736463597088
 20
112.5664652848676042
 30
0.0
 40
0.0273891974437906
 50
80.0639022643938034
 51
101.2313775966240996
  0
LINE
  5
E3A0
  8
0
 10
4821.4541742864166736
 20
111.9752558145068946
 30
0.0
 11
4823.5325232622399199
 21
111.9752558145068946
 31
0.0
  0
LINE
  5
E3A1
  8
0
 10
4823.2175626322296011
 20
112.8557402502569005
 30
0.0
 11
4823.2569327110413724
 21
112.8557402502569005
 31
0.0
  0
LINE
  5
E3A2
  8
0
 10
4823.2391859302006196
 20
112.8135382574570968
 30
0.0
 11
4823.4381689695237583
 21
112.6154487538963025
 31
0.0
  0
LINE
  5
E3A3
  8
0
 10
4821.4542324578405896
 20
111.975237189556907
 30
0.0
 11
4821.4065390103396567
 21
111.9841626669970935
 31
0.0
  0
ARC
  5
E3A4
  8
0
 10
4821.4144130260410748
 20
112.0407796203569006
 30
0.0
 40
0.0078740157000041
 50
89.9999999529965748
 51
179.9999781827407901
  0
ARC
  5
E3A5
  8
0
 10
4823.5129197261903755
 20
111.5423695837790063
 30
0.0
 40
0.0196168337342747
 50
263.8975953719682934
 51
357.8902271697261881
  0
ARC
  5
E3A6
  8
0
 10
4824.596019824510222
 20
121.8121044816817999
 30
0.0
 40
10.3463084763939595
 50
261.8424987605623073
 51
263.9793871105331959
  0
ARC
  5
E3A7
  8
0
 10
4824.5941961214466573
 20
121.7984945205536036
 30
0.0
 40
10.3325774511237007
 50
252.2734104177152972
 51
261.8418004507640831
  0
ARC
  5
E3A8
  8
0
 10
4822.482381795267429
 20
115.2082985254500045
 30
0.0
 40
3.4122907917975391
 50
251.8633687831496104
 51
252.3572842753978875
  0
ARC
  5
E3A9
  8
0
 10
4821.4261145035316076
 20
111.9841983738580069
 30
0.0
 40
0.0195755257575691
 50
180.1045107818995916
 51
252.3834016229261863
  0
ARC
  5
E3AA
  8
0
 10
4823.0522092802411862
 20
112.0407796203569006
 30
0.0
 40
0.007874015699997
 50
0.0050006785871307
 51
90.0
  0
LINE
  5
E3AB
  8
0
 10
4823.060083295910772
 20
112.0407803075875961
 30
0.0
 11
4823.0600888015405872
 21
111.9974125899568946
 31
0.0
  0
ARC
  5
E3AC
  8
0
 10
4823.0679628502057312
 20
111.997413589585193
 30
0.0
 40
0.0078740487283763
 50
180.0072738289453866
 51
269.9997601296781795
  0
LINE
  5
E3AD
  8
0
 10
4823.0679628172410958
 20
111.9895395408568959
 30
0.0
 11
4823.5246577262369101
 21
111.989537628891199
 31
0.0
  0
ARC
  5
E3AE
  8
0
 10
4823.5246576932722746
 20
111.9816633427648043
 30
0.0
 40
0.007874286126478
 50
2.6962461038349632
 51
89.9997601296260257
  0
LINE
  5
E3AF
  8
0
 10
4821.4262240496409504
 20
112.5210946950084008
 30
0.0
 11
4821.4262240496409504
 21
112.4423544235569068
 31
0.0
  0
LINE
  5
E3B0
  8
0
 10
4821.4262240496409504
 20
112.1273937935569052
 30
0.0
 11
4821.4262240496409504
 21
112.0486536360568977
 31
0.0
  0
ARC
  5
E3B1
  8
0
 10
4823.3750429473411714
 20
112.2848785726568934
 30
0.0
 40
0.2057875374000027
 50
270.000000000104194
 51
96.0253693410096361
  0
ARC
  5
E3B2
  8
0
 10
4859.7280833066142804
 20
-585.1984811949514551
 30
0.0
 40
698.6355805842690643
 50
92.984468948563034
 51
93.0167331478280488
  0
LINE
  5
E3B3
  8
0
 10
4823.3356728685412236
 20
112.4287428146568999
 30
0.0
 11
4823.335672868641268
 21
112.1413221449568027
 31
0.0
  0
ARC
  5
E3B4
  8
0
 10
4823.3159864484159698
 20
112.1413221449499957
 30
0.0
 40
0.0196864202250566
 50
267.8755908044175271
 51
0.0000000199321545
  0
LINE
  5
E3B5
  8
0
 10
4823.3152566838407438
 20
112.1216492553568997
 30
0.0
 11
4823.1435943600408791
 21
112.130644849756905
 31
0.0
  0
LINE
  5
E3B6
  8
0
 10
4823.1435943600408791
 20
112.130644849756905
 30
0.0
 11
4823.1588220423409439
 21
112.1633007198569061
 31
0.0
  0
LINE
  5
E3B7
  8
0
 10
4823.1588220423409439
 20
112.1633007198569061
 30
0.0
 11
4823.1270340608407423
 21
112.1315127382569017
 31
0.0
  0
LINE
  5
E3B8
  8
0
 10
4823.1270340608407423
 20
112.1315127382569017
 30
0.0
 11
4822.9775834824768026
 21
112.1393451112341069
 31
0.0
  0
ARC
  5
E3B9
  8
0
 10
4822.9617241742407714
 20
112.1276839312568967
 30
0.0
 40
0.0196850393999999
 50
36.3266475519613294
 51
189.5586115376183898
  0
ARC
  5
E3BA
  8
0
 10
4822.9615982686409552
 20
112.1204708067568987
 30
0.0
 40
0.0196850393999974
 50
168.4413877712783005
 51
269.7458756231220036
  0
LINE
  5
E3BB
  8
0
 10
4823.3750429473411714
 20
112.0790910352568943
 30
0.0
 11
4822.9615109597316405
 21
112.1007859609781008
 31
0.0
  0
ARC
  5
E3BC
  8
0
 10
4822.9615982686409552
 20
112.4492774103568991
 30
0.0
 40
0.0196850394000016
 50
93.0005398543795678
 51
191.5586122287606941
  0
ARC
  5
E3BD
  8
0
 10
4822.9617241742407714
 20
112.4420642858569011
 30
0.0
 40
0.0196850393999992
 50
170.4413884624295008
 51
324.841430521431505
  0
LINE
  5
E3BE
  8
0
 10
4822.9778179046261357
 20
112.4307288273976013
 30
0.0
 11
4823.1270340608407423
 21
112.4382354787568943
 31
0.0
  0
LINE
  5
E3BF
  8
0
 10
4823.1270340608407423
 20
112.4382354787568943
 30
0.0
 11
4823.1588220423409439
 21
112.4064474972569059
 31
0.0
  0
LINE
  5
E3C0
  8
0
 10
4823.1588220423409439
 20
112.4064474972569059
 30
0.0
 11
4823.1435943600408791
 21
112.4391033672569051
 31
0.0
  0
LINE
  5
E3C1
  8
0
 10
4823.1435943600408791
 20
112.4391033672569051
 30
0.0
 11
4823.3149575938396083
 21
112.4480841338568951
 31
0.0
  0
ARC
  5
E3C2
  8
0
 10
4823.3159879579043263
 20
112.4284236164643005
 30
0.0
 40
0.0196874984253291
 50
0.9289910896104548
 51
93.0000000219219629
  0
LINE
  5
E3C3
  8
0
 10
4823.2963027898422297
 20
112.1667638723568956
 30
0.0
 11
4823.2963027898422297
 21
112.4029843447569021
 31
0.0
  0
LINE
  5
E3C4
  8
0
 10
4823.335672868551228
 20
112.4029843447479067
 30
0.0
 11
4823.2963027898422297
 21
112.4423544235569068
 31
0.0
  0
LINE
  5
E3C5
  8
0
 10
4823.2963027898422297
 20
112.4423544235569068
 30
0.0
 11
4823.2056282092262336
 21
112.4423544235569068
 31
0.0
  0
LINE
  5
E3C6
  8
0
 10
4823.2963027898422297
 20
112.4029843447569021
 30
0.0
 11
4823.3159878292408393
 21
112.4226693841569045
 31
0.0
  0
LINE
  5
E3C7
  8
0
 10
4823.335672868632173
 20
112.1667638724480014
 30
0.0
 11
4823.2963027898422297
 21
112.1273937935569052
 31
0.0
  0
LINE
  5
E3C8
  8
0
 10
4823.2963027898422297
 20
112.1273937935569052
 30
0.0
 11
4823.2056340468407143
 21
112.1273937935569052
 31
0.0
  0
LINE
  5
E3C9
  8
0
 10
4823.2963027898422297
 20
112.1667638723568956
 30
0.0
 11
4823.3159878291899076
 21
112.1470788329568933
 31
0.0
  0
LINE
  5
E3CA
  8
0
 10
4822.9616571205397122
 20
112.5210946086393022
 30
0.0
 11
4822.9616571205397122
 21
112.468992866884804
 31
0.0
  0
LINE
  5
E3CB
  8
0
 10
4822.9616571205397122
 20
112.1008127954362976
 30
0.0
 11
4822.9616571205397122
 21
112.0486536360568977
 31
0.0
  0
LINE
  5
E3CC
  8
0
 10
4794.5397076226408899
 20
114.7258226577363018
 30
0.0
 11
4795.2812199821246395
 21
114.7258226577363018
 31
0.0
  0
LINE
  5
E3CD
  8
0
 10
4805.1696373724380464
 20
114.7258226577363018
 30
0.0
 11
4805.9111315945419847
 21
114.7258226577363018
 31
0.0
  0
ARC
  5
E3CE
  8
0
 10
4795.9377956409898616
 20
115.3024652252942985
 30
0.0
 40
0.7317462506177158
 50
204.2941189988752058
 51
210.9020481429924985
  0
ARC
  5
E3CF
  8
0
 10
4795.3065409755781729
 20
114.9246493467345971
 30
0.0
 40
0.0039352792960738
 50
359.9925542847441875
 51
30.7409713724463884
  0
LINE
  5
E3D0
  8
0
 10
4795.31043846249122
 20
114.9246991118363042
 30
0.0
 11
4795.310476018141344
 21
114.8286947318333944
 31
0.0
  0
ARC
  5
E3D1
  8
0
 10
4795.3026104608143214
 20
114.8286947293004943
 30
0.0
 40
0.0078655573268537
 50
319.9775798528485211
 51
0.0000184509918857
  0
ARC
  5
E3D2
  8
0
 10
4920.2872588766213084
 20
9.8707766916455455
 30
0.0
 40
163.2015915780424109
 50
139.9775862658190135
 51
140.0224137697904894
  0
LINE
  5
E3D3
  8
0
 10
4794.5104760398407961
 20
115.0014095919362944
 30
0.0
 11
4794.510476039439709
 21
114.828694731851499
 31
0.0
  0
ARC
  5
E3D4
  8
0
 10
4794.518350059531258
 20
114.8286978113711996
 30
0.0
 40
0.007874020692803
 50
180.0224084400610138
 51
219.9999951228539032
  0
ARC
  5
E3D5
  8
0
 10
4883.0397402336229788
 20
188.9819449089424097
 30
0.0
 40
115.4839859398809949
 50
219.9524997550545038
 51
220.0158351557321055
  0
LINE
  5
E3D6
  8
0
 10
4795.3104760187434294
 20
114.8286947318333944
 30
0.0
 11
4794.510476040040885
 21
114.8286947318333944
 31
0.0
  0
ARC
  5
E3D7
  8
0
 10
4795.0893142462546166
 20
114.4544614120500938
 30
0.0
 40
0.3308660703373491
 50
127.8028830364099946
 51
135.4803041491607871
  0
ARC
  5
E3D8
  8
0
 10
4794.9102187788894298
 20
114.6925815255265064
 30
0.0
 40
0.0332444316799916
 50
46.2220967122766879
 51
89.1927577777546645
  0
ARC
  5
E3D9
  8
0
 10
4794.9102187788894298
 20
114.6925815255265064
 30
0.0
 40
0.0332444316799916
 50
90.8072422222453213
 51
135.4907304624705091
  0
ARC
  5
E3DA
  8
0
 10
4794.7844230405808048
 20
114.5124597164789009
 30
0.0
 40
0.2526013828400095
 50
43.53438398062913
 51
53.9099441383138966
  0
LINE
  5
E3DB
  8
0
 10
4805.940396684541156
 20
115.0014095919362944
 30
0.0
 11
4805.9403966849422432
 21
114.8285597347545064
 31
0.0
  0
ARC
  5
E3DC
  8
0
 10
4805.9325225995407891
 20
114.8285597347363023
 30
0.0
 40
0.0078740853991448
 50
320.0004249006545933
 51
0.0000001325708116
  0
LINE
  5
E3DD
  8
0
 10
4805.9385545364411882
 20
114.8234984149362958
 30
0.0
 11
4805.8564796992031916
 21
114.7256839596577009
 31
0.0
  0
LINE
  5
E3DE
  8
0
 10
4805.2241985678147103
 20
114.7256845683363053
 30
0.0
 11
4805.1422849246418991
 21
114.8234984149362958
 31
0.0
  0
ARC
  5
E3DF
  8
0
 10
4805.1483371573631302
 20
114.8285668224144018
 30
0.0
 40
0.0078941925035626
 50
180.051442132946903
 51
219.9442964070256892
  0
LINE
  5
E3E0
  8
0
 10
4805.1404429680405883
 20
114.8285597347363023
 30
0.0
 11
4805.1403964695409741
 21
114.9245107612363057
 31
0.0
  0
ARC
  5
E3E1
  8
0
 10
4805.1443266834176029
 20
114.9245126658438068
 30
0.0
 40
0.0039302143381251
 50
149.2347798448475089
 51
180.0277659103537076
  0
ARC
  5
E3E2
  8
0
 10
4804.5007521778807131
 20
115.3077409455810027
 30
0.0
 40
0.7451038694078971
 50
329.2275000006351888
 51
335.7244305392019896
  0
LINE
  5
E3E3
  8
0
 10
4805.1404429680405883
 20
114.8285597347377944
 30
0.0
 11
4805.9403966849422432
 21
114.8285597347377944
 31
0.0
  0
ARC
  5
E3E4
  8
0
 10
4805.7750914589596505
 20
114.3907728232560004
 30
0.0
 40
0.4153946527655622
 50
128.6679752495026889
 51
134.6187909500723947
  0
ARC
  5
E3E5
  8
0
 10
4805.5402578074390476
 20
114.6919855606557945
 30
0.0
 40
0.0338371366499287
 50
43.2841312594015477
 51
89.9123764089979858
  0
ARC
  5
E3E6
  8
0
 10
4805.5402578074390476
 20
114.6919855606557945
 30
0.0
 40
0.0338371366499287
 50
90.0876235910020142
 51
136.9023873063142105
  0
ARC
  5
E3E7
  8
0
 10
4805.3005613035202259
 20
114.3826573343315971
 30
0.0
 40
0.4247872529867533
 50
45.6565891439449913
 51
51.5185433162259727
  0
LINE
  5
E3E8
  8
0
 10
4795.6977617401398675
 20
115.0014095920362962
 30
0.0
 11
4795.6978775522420619
 21
114.7730738210363057
 31
0.0
  0
ARC
  5
E3E9
  8
0
 10
4795.7057555636756661
 20
114.7730778167704955
 30
0.0
 40
0.0078780124477162
 50
180.0290604663107956
 51
269.9709366230999876
  0
LINE
  5
E3EA
  8
0
 10
4795.7057515675405739
 20
114.7651998053362945
 30
0.0
 11
4804.7451211576399146
 21
114.7651998053362945
 31
0.0
  0
ARC
  5
E3EB
  8
0
 10
4804.7451211576399146
 20
114.7730772686911962
 30
0.0
 40
0.0078774633549088
 50
270.0
 51
1.043412634228857
  0
LINE
  5
E3EC
  8
0
 10
4804.7529994566411915
 20
114.7733657946363053
 30
0.0
 11
4804.7529994566411915
 21
115.0014095919362944
 31
0.0
  0
LINE
  5
E3ED
  8
0
 10
4805.1444483412406043
 20
114.9325226399362947
 30
0.0
 11
4804.7608631319353663
 21
114.9325226399362947
 31
0.0
  0
LINE
  5
E3EE
  8
0
 10
4795.690003536938093
 20
114.9325226399362947
 30
0.0
 11
4795.3064517894872552
 21
114.9325226399361952
 31
0.0
  0
ARC
  5
E3EF
  8
0
 10
4804.7608661600897904
 20
114.9246559336742024
 30
0.0
 40
0.0078667068448807
 50
89.9779449930929047
 51
180.0532370167458112
  0
ARC
  5
E3F0
  8
0
 10
4795.6899935825758803
 20
114.9246218173757939
 30
0.0
 40
0.0079008288312529
 50
8.8631200695098453
 51
89.927812232770151
  0
LINE
  5
E3F2
  8
0
 10
4805.7372224367409217
 20
112.4975080991384999
 30
0.0
 11
4805.7372224367409217
 21
112.4029843951362011
 31
0.0
  0
LINE
  5
E3F3
  8
0
 10
4805.3435720430406946
 20
112.4975080991384999
 30
0.0
 11
4805.3435720430406946
 21
112.4029843951362011
 31
0.0
  0
LINE
  5
E3F4
  8
0
 10
4805.3435720430406946
 20
112.4975080991384999
 30
0.0
 11
4805.7372224367409217
 21
112.4975080991384999
 31
0.0
  0
LINE
  5
E3F5
  8
0
 10
4795.0089011763402596
 20
112.5210921030362954
 30
0.0
 11
4795.0089011763402596
 21
112.4975080991384999
 31
0.0
  0
LINE
  5
E3F6
  8
0
 10
4794.8120507826406538
 20
112.5210921030362954
 30
0.0
 11
4794.8120507826406538
 21
112.4975080991384999
 31
0.0
  0
LINE
  5
E3F7
  8
0
 10
4795.107301176341025
 20
112.4975080991384999
 30
0.0
 11
4795.107301176341025
 21
112.4029843951362011
 31
0.0
  0
LINE
  5
E3F8
  8
0
 10
4794.7136507826398883
 20
112.4975080991384999
 30
0.0
 11
4794.7136507826398883
 21
112.4029843951362011
 31
0.0
  0
LINE
  5
E3F9
  8
0
 10
4794.7136507826398883
 20
112.4975080991384999
 30
0.0
 11
4795.107301176341025
 21
112.4975080991384999
 31
0.0
  0
ENDSEC
  0
EOF
