  0
SECTION
  2
HEADER
  9
$ACADVER
  1
AC1009
  9
$INSBASE
 10
4664.9136503913532579
 20
-12.4815470301275599
 30
0.0
  9
$EXTMIN
 10
4661.2352980271425622
 20
-12.4868899475160902
 30
0.0
  9
$EXTMAX
 10
4668.5920027556148852
 20
63.1562482454724616
 30
0.0
  9
$LIMMIN
 10
0.0
 20
0.0
  9
$LIMMAX
 10
11.6929133858000007
 20
8.2677165353999982
  9
$ORTHOMODE
 70
     0
  9
$REGENMODE
 70
     1
  9
$FILLMODE
 70
     1
  9
$QTEXTMODE
 70
     0
  9
$MIRRTEXT
 70
     0
  9
$DRAGMODE
 70
     2
  9
$LTSCALE
 40
0.6431102362
  9
$OSMODE
 70
  4095
  9
$ATTMODE
 70
     1
  9
$TEXTSIZE
 40
0.2
  9
$TRACEWID
 40
0.05
  9
$TEXTSTYLE
  7
STANDARD
  9
$CLAYER
  8
0
  9
$CELTYPE
  6
BYLAYER
  9
$CECOLOR
 62
   256
  9
$DIMSCALE
 40
1.0
  9
$DIMASZ
 40
0.1875
  9
$DIMEXO
 40
0.0625
  9
$DIMDLI
 40
0.4443307087
  9
$DIMRND
 40
0.0
  9
$DIMDLE
 40
0.0
  9
$DIMEXE
 40
0.125
  9
$DIMTP
 40
0.01
  9
$DIMTM
 40
0.01
  9
$DIMTXT
 40
2.0
  9
$DIMCEN
 40
0.1052362205
  9
$DIMTSZ
 40
0.0
  9
$DIMTOL
 70
     1
  9
$DIMLIM
 70
     0
  9
$DIMTIH
 70
     1
  9
$DIMTOH
 70
     1
  9
$DIMSE1
 70
     0
  9
$DIMSE2
 70
     0
  9
$DIMTAD
 70
     0
  9
$DIMZIN
 70
     0
  9
$DIMBLK
  1

  9
$DIMASO
 70
     1
  9
$DIMSHO
 70
     1
  9
$DIMPOST
  1
\X
  9
$DIMAPOST
  1

  9
$DIMALT
 70
     1
  9
$DIMALTD
 70
     2
  9
$DIMALTF
 40
25.3999999999999986
  9
$DIMLFAC
 40
1.0
  9
$DIMTOFL
 70
     0
  9
$DIMTVP
 40
0.0
  9
$DIMTIX
 70
     0
  9
$DIMSOXD
 70
     0
  9
$DIMSAH
 70
     0
  9
$DIMBLK1
  1

  9
$DIMBLK2
  1

  9
$DIMSTYLE
  2
STANDARD
  9
$DIMCLRD
 70
     0
  9
$DIMCLRE
 70
     0
  9
$DIMCLRT
 70
     0
  9
$DIMTFAC
 40
1.0
  9
$DIMGAP
 40
0.09
  9
$LUNITS
 70
     2
  9
$LUPREC
 70
     4
  9
$SKETCHINC
 40
0.1
  9
$FILLETRAD
 40
0.0
  9
$AUNITS
 70
     0
  9
$AUPREC
 70
     0
  9
$MENU
  1
.
  9
$ELEVATION
 40
0.0
  9
$PELEVATION
 40
0.0
  9
$THICKNESS
 40
0.0
  9
$LIMCHECK
 70
     0
  9
$BLIPMODE
 70
     0
  9
$CHAMFERA
 40
0.0
  9
$CHAMFERB
 40
0.0
  9
$SKPOLY
 70
     0
  9
$TDCREATE
 40
2458060.468368056230247
  9
$TDUPDATE
 40
2459180.6760763889178634
  9
$TDINDWG
 40
0.4616505787
  9
$TDUSRTIMER
 40
0.4616505787
  9
$USRTIMER
 70
     1
  9
$ANGBASE
 50
0.0
  9
$ANGDIR
 70
     0
  9
$PDMODE
 70
     0
  9
$PDSIZE
 40
0.3125
  9
$PLINEWID
 40
0.0
  9
$COORDS
 70
     0
  9
$SPLFRAME
 70
     0
  9
$SPLINETYPE
 70
     6
  9
$SPLINESEGS
 70
     8
  9
$ATTDIA
 70
     1
  9
$ATTREQ
 70
     1
  9
$HANDLING
 70
     1
  9
$HANDSEED
  5
D769
  9
$SURFTAB1
 70
     6
  9
$SURFTAB2
 70
     6
  9
$SURFTYPE
 70
     6
  9
$SURFU
 70
     6
  9
$SURFV
 70
     6
  9
$UCSNAME
  2

  9
$UCSORG
 10
0.0
 20
0.0
 30
0.0
  9
$UCSXDIR
 10
1.0
 20
0.0
 30
0.0
  9
$UCSYDIR
 10
0.0
 20
1.0
 30
0.0
  9
$PUCSNAME
  2

  9
$PUCSORG
 10
0.0
 20
0.0
 30
0.0
  9
$PUCSXDIR
 10
1.0
 20
0.0
 30
0.0
  9
$PUCSYDIR
 10
0.0
 20
1.0
 30
0.0
  9
$USERI1
 70
     0
  9
$USERI2
 70
     0
  9
$USERI3
 70
     0
  9
$USERI4
 70
     0
  9
$USERI5
 70
     0
  9
$USERR1
 40
0.0
  9
$USERR2
 40
0.0
  9
$USERR3
 40
0.0
  9
$USERR4
 40
0.0
  9
$USERR5
 40
0.0
  9
$WORLDVIEW
 70
     1
  9
$SHADEDGE
 70
     3
  9
$SHADEDIF
 70
    70
  9
$TILEMODE
 70
     1
  9
$MAXACTVP
 70
    64
  9
$PLIMCHECK
 70
     0
  9
$PEXTMIN
 10
1.0000000000000000E+20
 20
1.0000000000000000E+20
 30
1.0000000000000000E+20
  9
$PEXTMAX
 10
-1.0000000000000000E+20
 20
-1.0000000000000000E+20
 30
-1.0000000000000000E+20
  9
$PLIMMIN
 10
0.0
 20
0.0
  9
$PLIMMAX
 10
12.0
 20
9.0
  9
$UNITMODE
 70
     0
  9
$VISRETAIN
 70
     1
  9
$PLINEGEN
 70
     0
  9
$PSLTSCALE
 70
     1
  0
ENDSEC
  0
SECTION
  2
TABLES
  0
TABLE
  2
VPORT
 70
     1
  0
VPORT
  2
*ACTIVE
 70
     0
 10
0.0
 20
0.0
 11
1.0
 21
1.0
 12
0.0
 22
0.0
 13
0.0
 23
0.0
 14
1.0
 24
1.0
 15
0.0
 25
0.0
 16
0.0
 26
0.0
 36
279.1759166915118726
 17
4664.91357421875
 27
25.3346800262419585
 37
0.0
 40
76.0111002247443537
 41
2.888719512195121
 42
50.0
 43
0.0
 44
0.0
 50
0.0
 51
0.0
 71
     0
 72
   100
 73
     1
 74
     1
 75
     0
 76
     0
 77
     0
 78
     0
  0
ENDTAB
  0
TABLE
  2
LTYPE
 70
     2
  0
LTYPE
  2
CONTINUOUS
 70
     0
  3
Solid line
 72
    65
 73
     0
 40
0.0
  0
LTYPE
  2
PHANTOM2
 70
     0
  3
___ _ _ ___ _ _ ___ _ _ ___ _ _
 72
    65
 73
     6
 40
1.25
 49
0.625
 49
-0.125
 49
0.125
 49
-0.125
 49
0.125
 49
-0.125
  0
ENDTAB
  0
TABLE
  2
LAYER
 70
     2
  0
LAYER
  2
0
 70
     0
 62
   255
  6
CONTINUOUS
  0
LAYER
  2
DEFPOINTS
 70
     0
 62
     7
  6
CONTINUOUS
  0
ENDTAB
  0
TABLE
  2
STYLE
 70
     1
  0
STYLE
  2
STANDARD
 70
     0
 40
0.0
 41
0.8
 50
0.0
 71
     0
 42
0.2
  3
txt
  4

  0
ENDTAB
  0
TABLE
  2
VIEW
 70
     0
  0
ENDTAB
  0
TABLE
  2
UCS
 70
     0
  0
ENDTAB
  0
TABLE
  2
APPID
 70
     9
  0
APPID
  2
ACAD
 70
     0
  0
APPID
  2
ACAD_MLEADERVER
 70
     0
  0
APPID
  2
ACAD_EXEMPT_FROM_CAD_STANDARDS
 70
     0
  0
APPID
  2
ACAD_NAV_VCDISPLAY
 70
     0
  0
APPID
  2
ACAECLAYERSTANDARD
 70
     0
  0
APPID
  2
ACCMTRANSPARENCY
 70
     0
  0
APPID
  2
ACAD_DSTYLE_DIMJAG
 70
     0
  0
APPID
  2
ACAD_DSTYLE_DIMTALN
 70
     0
  0
APPID
  2
ACDBATTR
 70
     0
  0
ENDTAB
  0
TABLE
  2
DIMSTYLE
 70
     1
  0
DIMSTYLE
  2
STANDARD
 70
     0
  3

  4

  5

  6

  7

 40
1.0
 41
0.1875
 42
0.0625
 43
0.38
 44
0.125
 45
0.0
 46
0.0
 47
0.01
 48
0.01
140
0.15625
141
0.09
142
0.0
143
25.3999999999999986
144
1.0
145
0.0
146
1.0
147
0.09
 71
     1
 72
     0
 73
     1
 74
     1
 75
     0
 76
     0
 77
     0
 78
     4
170
     0
171
     2
172
     0
173
     0
174
     0
175
     0
176
     0
177
     0
178
     0
  0
ENDTAB
  0
ENDSEC
  0
SECTION
  2
BLOCKS
  0
BLOCK
  8
0
  2
$MODEL_SPACE
 70
     0
 10
0.0
 20
0.0
 30
0.0
  3
$MODEL_SPACE
  1

  0
ENDBLK
  5
21
  8
0
  0
BLOCK
 67
     1
  8
0
  2
$PAPER_SPACE
 70
     0
 10
0.0
 20
0.0
 30
0.0
  3
$PAPER_SPACE
  1

  0
ENDBLK
  5
1D
 67
     1
  8
0
  0
BLOCK
  8
0
  2
_FILLED
 70
     0
 10
0.0
 20
0.0
 30
0.0
  3
_FILLED
  1

  0
SOLID
  5
C857
  8
0
  6
BYBLOCK
 62
     0
 10
0.0
 20
0.0
 30
0.0
 11
-1.0
 21
0.1666666667
 31
0.0
 12
-1.0
 22
-0.1666666667
 32
0.0
 13
-1.0
 23
-0.1666666667
 33
0.0
  0
ENDBLK
  5
C858
  8
0
  6
BYBLOCK
 62
     0
  0
ENDSEC
  0
SECTION
  2
ENTITIES
  0
ATTDEF
  5
3930
  8
DEFPOINTS
 10
4664.902698370957296
 20
-12.4835566141827599
 30
0.0
 40
0.001
  1
K-76560T-L
  3

  2
MODELNUMBER
 70
     0
1001
ACDBATTR
1070
     0
1070
     1
  0
ATTDEF
  5
3931
  8
DEFPOINTS
 10
4664.902698370957296
 20
-12.4852232808494197
 30
0.0
 40
0.001
  1
NEW MEMOIRS
  3

  2
TRADENAME
 70
     0
1001
ACDBATTR
1070
     0
1070
     1
  0
ATTDEF
  5
3932
  8
DEFPOINTS
 10
4664.902698370957296
 20
-12.4868899475160902
 30
0.0
 40
0.001
  1
SHOWER DOOR
  3

  2
PRODUCT
 70
     0
1001
ACDBATTR
1070
     0
1070
     1
  0
LINE
  5
D105
  8
0
 10
4663.887278346113817
 20
-12.4815470301275599
 30
0.0
 11
4664.2416090548140346
 21
-12.4815470301275599
 31
0.0
  0
LINE
  5
D106
  8
0
 10
4664.2917307166144383
 20
-12.4815470301275599
 30
0.0
 11
4664.7032976399132167
 21
-12.4815470301275599
 31
0.0
  0
LINE
  5
D107
  8
0
 10
4664.8124751965142423
 20
-12.4815470301275599
 30
0.0
 11
4665.3636562989140657
 21
-12.4815470301275599
 31
0.0
  0
LINE
  5
D108
  8
0
 10
4664.1505091209583043
 20
0.3137285604724305
 30
0.0
 11
4664.2534200784139102
 21
0.313728560472434
 31
0.0
  0
LINE
  5
D109
  8
0
 10
4664.7337350390143911
 20
0.3137285604724376
 30
0.0
 11
4666.3675933067152073
 21
0.313728560472434
 31
0.0
  0
LINE
  5
D10A
  8
0
 10
4664.150509120913739
 20
-1.6547753765275559
 30
0.0
 11
4664.2535174430367988
 21
-1.6547753765275599
 31
0.0
  0
LINE
  5
D10B
  8
0
 10
4664.7337350390143911
 20
-1.6547753765275599
 30
0.0
 11
4666.3675933067152073
 21
-1.6547753765275599
 31
0.0
  0
LINE
  5
D10C
  8
0
 10
4663.8282232280153039
 20
63.1562482454724616
 30
0.0
 11
4668.5723197004917893
 21
63.1562482454724403
 31
0.0
  0
LINE
  5
D10D
  8
0
 10
4664.2612940941144188
 20
62.3216025762724399
 30
0.0
 11
4664.7032976399132167
 21
62.3216025762724399
 31
0.0
  0
LINE
  5
D10E
  8
0
 10
4663.8282232280153039
 20
60.2743584816724507
 30
0.0
 11
4664.2612940941144188
 21
60.2743584816724507
 31
0.0
  0
LINE
  5
D10F
  8
0
 10
4664.7032976399132167
 20
60.2743584816724507
 30
0.0
 11
4664.9305854327130874
 21
60.2743584816724507
 31
0.0
  0
LINE
  5
D110
  8
0
 10
4664.7731649060142445
 20
26.3371528004724382
 30
0.0
 11
4664.8053323332042055
 21
26.3371528004724382
 31
0.0
  0
LINE
  5
D111
  8
0
 10
4664.7731649060142445
 20
24.4871538735224412
 30
0.0
 11
4664.8057335913308634
 21
24.4871538735224412
 31
0.0
  0
ARC
  5
D112
  8
0
 10
4668.5723177162135471
 20
63.1365632061724469
 30
0.0
 40
0.0196850394000094
 50
359.9999999999586748
 51
89.9942245105891914
  0
LINE
  5
D113
  8
0
 10
4668.5920027556139758
 20
63.1365632061729727
 30
0.0
 11
4668.5920027555139313
 21
62.3885317100724421
 31
0.0
  0
LINE
  5
D114
  8
0
 10
4663.8282232280153039
 20
62.3688466706724327
 30
0.0
 11
4668.5723177161107742
 21
62.3688466706724327
 31
0.0
  0
ARC
  5
D115
  8
0
 10
4668.5723177161107742
 20
62.3885317100750711
 30
0.0
 40
0.0196850394026242
 50
270.0000002986956815
 51
359.9999999923326754
  0
ARC
  5
D116
  8
0
 10
4667.0368846354776906
 20
63.1365632160072607
 30
0.0
 40
0.0196850295641901
 50
90.0057467967485252
 51
180.0000564732526982
  0
LINE
  5
D117
  8
0
 10
4667.0171996059143567
 20
63.1365631966048397
 30
0.0
 11
4667.0171996059143567
 21
62.3885317100724421
 31
0.0
  0
ARC
  5
D118
  8
0
 10
4667.0368846453129663
 20
62.3885317100724421
 30
0.0
 40
0.0196850394000023
 50
179.9999999999976978
 51
270.0000000004168896
  0
LINE
  5
D119
  8
0
 10
4663.8282232280153039
 20
63.1562482454724403
 30
0.0
 11
4663.8282232280153039
 21
60.2743584817724525
 31
0.0
  0
ARC
  5
D11A
  8
0
 10
4667.6884594485127309
 20
62.7605789541724519
 30
0.0
 40
0.0984251969000028
 50
90.0
 51
270.0
  0
ARC
  5
D11B
  8
0
 10
4667.924679920914059
 20
62.7605789541724519
 30
0.0
 40
0.0984251969000028
 50
270.0
 51
90.0
  0
LINE
  5
D11C
  8
0
 10
4667.6884594485127309
 20
62.8590041510724404
 30
0.0
 11
4667.924679920914059
 21
62.8590041510724404
 31
0.0
  0
LINE
  5
D11D
  8
0
 10
4667.6884594485127309
 20
62.6621537572724492
 30
0.0
 11
4667.924679920914059
 21
62.6621537572724492
 31
0.0
  0
LINE
  5
D11E
  8
0
 10
4667.174679920914059
 20
63.0184529699724578
 30
0.0
 11
4668.4345224406142734
 21
63.0184529699724578
 31
0.0
  0
ARC
  5
D11F
  8
0
 10
4668.4345288458116556
 20
62.9987929597750806
 30
0.0
 40
0.0196600112407712
 50
11.4774067577049994
 51
90.0186668654873472
  0
LINE
  5
D120
  8
0
 10
4668.4537957206139254
 20
63.0027049384724478
 30
0.0
 11
4668.4542074800137925
 21
62.5263269856724406
 31
0.0
  0
ARC
  5
D121
  8
0
 10
4668.4345224504486396
 20
62.5263269758382592
 30
0.0
 40
0.019685029565802
 50
269.9999435267085914
 51
0.0000286075445771
  0
LINE
  5
D122
  8
0
 10
4668.4345224310445701
 20
62.5066419462724525
 30
0.0
 11
4667.174679920914059
 21
62.5066419462724525
 31
0.0
  0
ARC
  5
D123
  8
0
 10
4667.174679920914059
 20
62.5263269856724406
 30
0.0
 40
0.0196850393999952
 50
180.0
 51
270.0
  0
LINE
  5
D124
  8
0
 10
4667.1549948815127209
 20
62.5263269856725685
 30
0.0
 11
4667.1549948815127209
 21
62.9987679305811028
 31
0.0
  0
ARC
  5
D125
  8
0
 10
4667.1746799209049641
 20
62.9987679305811028
 30
0.0
 40
0.0196850393913479
 50
89.9999999748307857
 51
180.0
  0
LINE
  5
D126
  8
0
 10
4667.1864909445139347
 20
63.0066419463724401
 30
0.0
 11
4668.4266484248137203
 21
63.0066419462724525
 31
0.0
  0
ARC
  5
D127
  8
0
 10
4668.4266484248119014
 20
62.9869569068708586
 30
0.0
 40
0.0196850394015868
 50
0.0000002956796299
 51
89.9999999953621881
  0
LINE
  5
D128
  8
0
 10
4668.4463334642132395
 20
62.9869569068708586
 30
0.0
 11
4668.4463334642132395
 21
62.5342010013724519
 31
0.0
  0
ARC
  5
D129
  8
0
 10
4668.4266484248137203
 20
62.5342010013724519
 30
0.0
 40
0.0196850394000023
 50
270.005775217082828
 51
0.0000000000067173
  0
LINE
  5
D12A
  8
0
 10
4668.4266484248137203
 20
62.5145159619724495
 30
0.0
 11
4667.18648896033028
 21
62.51451596207243
 31
0.0
  0
ARC
  5
D12B
  8
0
 10
4667.1864889603311894
 20
62.5341990172899074
 30
0.0
 40
0.0196830552174632
 50
179.9942244964242093
 51
269.9999999953622023
  0
LINE
  5
D12C
  8
0
 10
4667.1668059051144155
 20
62.5342010013725513
 30
0.0
 11
4667.1668059052135504
 21
62.9869569069724307
 31
0.0
  0
ARC
  5
D12D
  8
0
 10
4667.1864909445175726
 20
62.9869569069680892
 30
0.0
 40
0.019685039304342
 50
90.0000000126627668
 51
179.9999999873242018
  0
LINE
  5
D12E
  8
0
 10
4667.3518452752141457
 20
63.0184529699724578
 30
0.0
 11
4667.3518452752141457
 21
63.0105789541724377
 31
0.0
  0
LINE
  5
D12F
  8
0
 10
4667.3518452752141457
 20
63.0105789541724377
 30
0.0
 11
4667.36168779491436
 21
63.0105789541724377
 31
0.0
  0
LINE
  5
D130
  8
0
 10
4667.36168779491436
 20
63.0105789541724377
 30
0.0
 11
4667.36168779491436
 21
63.0066419463583216
 31
0.0
  0
LINE
  5
D131
  8
0
 10
4667.3715303146127553
 20
63.0184529699724578
 30
0.0
 11
4667.3715303146127553
 21
63.0066419463575187
 31
0.0
  0
LINE
  5
D132
  8
0
 10
4667.5486956689137514
 20
63.0184529699724578
 30
0.0
 11
4667.5486956689137514
 21
63.0105789541724377
 31
0.0
  0
LINE
  5
D133
  8
0
 10
4667.5486956689137514
 20
63.0105789541724377
 30
0.0
 11
4667.5388531492144466
 21
63.0105789541724377
 31
0.0
  0
LINE
  5
D134
  8
0
 10
4667.5388531492144466
 20
63.0105789541724377
 30
0.0
 11
4667.5388531492144466
 21
63.0066419463440326
 31
0.0
  0
LINE
  5
D135
  8
0
 10
4667.5290106296142767
 20
63.0184529699724365
 30
0.0
 11
4667.5290106296142767
 21
63.0066419463448284
 31
0.0
  0
LINE
  5
D136
  8
0
 10
4668.0605066926136715
 20
63.0184529699724365
 30
0.0
 11
4668.0605066926136715
 21
63.0105789541724377
 31
0.0
  0
LINE
  5
D137
  8
0
 10
4668.0605066926136715
 20
63.0105789541724377
 30
0.0
 11
4668.0703492122129319
 21
63.0105789541724377
 31
0.0
  0
LINE
  5
D138
  8
0
 10
4668.0703492122129319
 20
63.0105789541724377
 30
0.0
 11
4668.0703492122129319
 21
63.0066419463011869
 31
0.0
  0
LINE
  5
D139
  8
0
 10
4668.0801917319140557
 20
63.0184529699724578
 30
0.0
 11
4668.0801917319140557
 21
63.0066419462724525
 31
0.0
  0
LINE
  5
D13A
  8
0
 10
4668.2573570863132773
 20
63.0184529699724365
 30
0.0
 11
4668.2573570863132773
 21
63.0105789541724377
 31
0.0
  0
LINE
  5
D13B
  8
0
 10
4668.2573570863132773
 20
63.0105789541724377
 30
0.0
 11
4668.2475145666139724
 21
63.0105789541724377
 31
0.0
  0
LINE
  5
D13C
  8
0
 10
4668.2475145666139724
 20
63.0105789541724377
 30
0.0
 11
4668.2475145666139724
 21
63.0066419462868907
 31
0.0
  0
LINE
  5
D13D
  8
0
 10
4668.2376720469128486
 20
63.0184529699724578
 30
0.0
 11
4668.2376720469128486
 21
63.0066419462724525
 31
0.0
  0
LINE
  5
D13E
  8
0
 10
4664.2917307166144383
 20
62.3216025762724399
 30
0.0
 11
4664.2917307166144383
 21
-12.4815470301275706
 31
0.0
  0
LINE
  5
D13F
  8
0
 10
4664.7731649060142445
 20
60.2743584816724507
 30
0.0
 11
4664.7731649060142445
 21
0.313728560472434
 31
0.0
  0
LINE
  5
D140
  8
0
 10
4664.7731649060142445
 20
-1.6547753765275599
 30
0.0
 11
4664.7731649060142445
 21
-11.9106808884275601
 31
0.0
  0
LINE
  5
D141
  8
0
 10
4664.7032976399132167
 20
62.3216025762724399
 30
0.0
 11
4664.7032976399132167
 21
-12.4815470301275706
 31
0.0
  0
LINE
  5
D142
  8
0
 10
4664.9305854327130874
 20
60.2743584816724507
 30
0.0
 11
4664.9305854327130874
 21
62.3609726549724428
 31
0.0
  0
LINE
  5
D143
  8
0
 10
4664.2219240154126965
 20
62.3216025762724399
 30
0.0
 11
4664.2219240154126965
 21
0.3137285604724482
 31
0.0
  0
LINE
  5
D144
  8
0
 10
4664.2219240154126965
 20
-1.6547753765275559
 30
0.0
 11
4664.2219240154126965
 21
-11.8909958489275596
 31
0.0
  0
LINE
  5
D145
  8
0
 10
4664.2612940941144188
 20
60.2743584816724507
 30
0.0
 11
4664.2612940941144188
 21
62.3216025762724399
 31
0.0
  0
LINE
  5
D146
  8
0
 10
4664.9305854327130874
 20
62.3609726549724428
 30
0.0
 11
4664.6943649603135782
 21
62.3609726549724428
 31
0.0
  0
LINE
  5
D147
  8
0
 10
4664.674679920914059
 20
62.3609726549724428
 30
0.0
 11
4664.2219240154126965
 21
62.3609726549724428
 31
0.0
  0
LINE
  5
D148
  8
0
 10
4664.2219240154126965
 20
62.3609726549724428
 30
0.0
 11
4664.2219240154126965
 21
62.3216025762724399
 31
0.0
  0
LINE
  5
D149
  8
0
 10
4664.6943649603135782
 20
62.3609726549724428
 30
0.0
 11
4664.6943649603135782
 21
62.3216025762724399
 31
0.0
  0
LINE
  5
D14A
  8
0
 10
4664.674679920914059
 20
62.3609726549724428
 30
0.0
 11
4664.674679920914059
 21
62.3216025762724399
 31
0.0
  0
LINE
  5
D14B
  8
0
 10
4664.2612940941144188
 20
61.4987679305724484
 30
0.0
 11
4664.2917307166144383
 21
61.4987679305724484
 31
0.0
  0
LINE
  5
D14C
  8
0
 10
4664.2612940941144188
 20
61.0184529699724365
 30
0.0
 11
4664.2917307166144383
 21
61.0184529699724365
 31
0.0
  0
LINE
  5
D14D
  8
0
 10
4664.9345237906718467
 20
61.506638592610777
 30
0.0
 11
4664.9345235440387114
 21
61.0105824072939171
 31
0.0
  0
ARC
  5
D14E
  8
0
 10
4664.4242443138937233
 20
61.258609735223402
 30
0.0
 40
0.5673644755510218
 50
334.0773759454970104
 51
25.9228789517359814
  0
LINE
  5
D14F
  8
0
 10
4664.9345224406142734
 20
61.3412876155724405
 30
0.0
 11
4664.9305854327130874
 21
61.3412876155724405
 31
0.0
  0
LINE
  5
D150
  8
0
 10
4664.9345224406142734
 20
61.1759332848724426
 30
0.0
 11
4664.9305854327130874
 21
61.1759332848724426
 31
0.0
  0
LINE
  5
D151
  8
0
 10
4661.3589127093628122
 20
25.8121537122724511
 30
0.0
 11
4662.0324321217431134
 21
25.8121537122724511
 31
0.0
  0
LINE
  5
D152
  8
0
 10
4661.3589127093628122
 20
25.0121537122724504
 30
0.0
 11
4662.0324321217431134
 21
25.0121537122724504
 31
0.0
  0
ARC
  5
D153
  8
0
 10
4661.3589127145423845
 20
25.8042796965724897
 30
0.0
 40
0.0078740156999543
 50
90.0000376870924441
 51
147.1108098269685911
  0
ARC
  5
D154
  8
0
 10
4661.965298026988421
 20
25.4121537093842917
 30
0.0
 40
0.729999999844729
 50
147.1108097412177074
 51
212.8891897044177028
  0
ARC
  5
D155
  8
0
 10
4661.3589127110308254
 20
25.0200277283834716
 30
0.0
 40
0.0078740161110275
 50
212.8891904610100028
 51
269.9999976295587771
  0
LINE
  5
D156
  8
0
 10
4661.3589127093628122
 20
25.0121537122724504
 30
0.0
 11
4661.3589127093628122
 21
25.8121537122724511
 31
0.0
  0
ARC
  5
D157
  8
0
 10
4662.0322739864768664
 20
25.0208581994866108
 30
0.0
 40
0.0087059235250381
 50
271.0407835080812902
 51
307.9790063294807965
  0
ARC
  5
D158
  8
0
 10
245485.5598920719057787
 20
-286977.1923269336111844
 30
0.0
 40
374654.8215467252884991
 50
129.999989496219797
 51
130.0000089957916032
  0
ARC
  5
D159
  8
0
 10
4662.0323523532342733
 20
25.8036704283675284
 30
0.0
 40
0.0084836589291607
 50
51.5187113112911419
 51
89.4612623757384569
  0
ARC
  5
D15A
  8
0
 10
34332.6639058013897738
 20
35385.7855045242395136
 30
0.0
 40
46159.2234462942797109
 50
229.9999200024080039
 51
230.000078495530289
  0
LINE
  5
D15B
  8
0
 10
4662.1353072727270046
 20
25.7829372311029417
 30
0.0
 11
4662.1353082073874248
 21
25.0413705294310596
 31
0.0
  0
LINE
  5
D15C
  8
0
 10
4662.0324321217431134
 20
25.8121537122724511
 30
0.0
 11
4662.0324321217431134
 21
25.0121537122724504
 31
0.0
  0
ARC
  5
D15D
  8
0
 10
4661.7425951935429111
 20
31.7700715391723207
 30
0.0
 40
5.9999999999998801
 50
273.752806859214104
 51
293.2304309108741904
  0
ARC
  5
D15E
  8
0
 10
4664.1122809910439173
 20
26.2492809045419513
 30
0.0
 40
0.0078731686309547
 50
89.9993763455008207
 51
113.2322893773829975
  0
LINE
  5
D15F
  8
0
 10
4664.1122810767419651
 20
26.2571540731724404
 30
0.0
 11
4664.1827880252421892
 21
26.2571540743724405
 31
0.0
  0
ARC
  5
D160
  8
0
 10
4664.1827880245882625
 20
26.2650280915095387
 30
0.0
 40
0.0078740170370751
 50
270.0000050863732213
 51
359.9999904055931097
  0
ARC
  5
D161
  8
0
 10
4664.2709297665978738
 20
26.1480524071285885
 30
0.0
 40
0.1891168134748602
 50
105.018417873126694
 51
113.5450950361314
  0
ARC
  5
D162
  8
0
 10
4664.1985360550534097
 20
26.3142092740165801
 30
0.0
 40
0.0078740142101037
 50
113.6044852941251975
 51
180.0000122298399106
  0
LINE
  5
D163
  8
0
 10
4664.1906620408426534
 20
26.3142092723358587
 30
0.0
 11
4664.1906629468749088
 21
24.5100989135728788
 31
0.0
  0
ARC
  5
D164
  8
0
 10
4664.1985375519452646
 20
24.5100989175275394
 30
0.0
 40
0.0078746050694259
 50
180.0000287742120975
 51
246.3858452946795978
  0
ARC
  5
D165
  8
0
 10
4664.2699534932544339
 20
24.6734535340171384
 30
0.0
 40
0.1861579957747351
 50
246.3858452946793989
 51
255.0483499981199884
  0
ARC
  5
D166
  8
0
 10
4661.7424023496578229
 20
19.0536508608706008
 30
0.0
 40
6.0006142951422721
 50
66.7700831022772974
 51
86.2457326149752532
  0
ARC
  5
D167
  8
0
 10
4664.1122762729155511
 20
24.5750045907248804
 30
0.0
 40
0.0078505205073519
 50
246.7340976507296944
 51
270.0350599677282162
  0
LINE
  5
D168
  8
0
 10
4664.1122762621325819
 20
24.5671540716872805
 30
0.0
 11
4664.1122762622735536
 21
24.5671540716872805
 31
0.0
  0
LINE
  5
D169
  8
0
 10
4664.1122810767419651
 20
24.56715407168738
 30
0.0
 11
4664.1827880556429591
 21
24.5671540729556703
 31
0.0
  0
ARC
  5
D16A
  8
0
 10
4664.1827880557848403
 20
24.5592800572973111
 30
0.0
 40
0.0078740156583526
 50
0.0000100062298047
 51
90.000001030635687
  0
LINE
  5
D16B
  8
0
 10
4664.1122810767419651
 20
26.2571540731724404
 30
0.0
 11
4664.1122810767419651
 21
24.56715407168738
 31
0.0
  0
ARC
  5
D16C
  8
0
 10
4659.4027003363180484
 20
28.0447878635537791
 30
0.0
 40
3.7852498638608738
 50
316.4230688204984858
 51
318.7682821574783816
  0
ARC
  5
D16D
  8
0
 10
4661.7004483922009968
 20
26.0310135874613984
 30
0.0
 40
0.7299376108558557
 50
318.7682821574783816
 51
341.3420988130283718
  0
ARC
  5
D16E
  8
0
 10
4662.3671020731198951
 20
25.8059095823683009
 30
0.0
 40
0.0263049343890521
 50
341.3420988130292244
 51
350.6668966465068138
  0
ARC
  5
D16F
  8
0
 10
4662.3843254544490264
 20
25.80307892667145
 30
0.0
 40
0.0088504943786721
 50
350.6668966465077233
 51
4.2136770933484593
  0
ARC
  5
D170
  8
0
 10
4662.3896339903449189
 20
25.8034700352376198
 30
0.0
 40
0.0035275704391285
 50
4.2136770933582044
 51
18.6681807100043287
  0
ARC
  5
D171
  8
0
 10
4662.391680040045685
 20
25.8041613186314898
 30
0.0
 40
0.0013678963645737
 50
18.6681807100454016
 51
44.8172680440320903
  0
ARC
  5
D172
  8
0
 10
4662.3921290297494124
 20
25.8045582063566314
 30
0.0
 40
0.0007704486414865
 50
47.4160798053007468
 51
94.8953625856663479
  0
ARC
  5
D173
  8
0
 10
4662.1683992715206841
 20
25.4121879076515285
 30
0.0
 40
0.033091548959224
 50
135.1899574786955043
 51
179.94122832108701
  0
ARC
  5
D174
  8
0
 10
4662.1789821825759645
 20
25.4165148925456386
 30
0.0
 40
0.0438916319750907
 50
185.7022385476120974
 51
218.7736585194527947
  0
ARC
  5
D175
  8
0
 10
4656.8565103994696983
 20
20.4746525711245084
 30
0.0
 40
7.2191898679630402
 50
41.5892209138569626
 51
42.9013238211666987
  0
ARC
  5
D176
  8
0
 10
4661.6809519748712773
 20
24.781767680279259
 30
0.0
 40
0.752118431804394
 50
19.0144819766813811
 51
40.1419722940552433
  0
ARC
  5
D177
  8
0
 10
4662.3619785958799184
 20
25.0168381472418702
 30
0.0
 40
0.0316655945508121
 50
12.6571039472585696
 51
18.3616138345357811
  0
ARC
  5
D178
  8
0
 10
4662.3808860232320512
 20
25.0210842480467299
 30
0.0
 40
0.0122872514549577
 50
5.4705418749898538
 51
12.6571039472609499
  0
ARC
  5
D179
  8
0
 10
4662.3790756268363111
 20
25.0209108660840407
 30
0.0
 40
0.0141059313094191
 50
0.4005322589720258
 51
5.4705418749906638
  0
ARC
  5
D17A
  8
0
 10
4662.3888485863790265
 20
25.0209791861131912
 30
0.0
 40
0.0043327329674786
 50
346.9874223643589062
 51
0.4005322589720258
  0
ARC
  5
D17B
  8
0
 10
4662.3907574225549979
 20
25.0205380551714001
 30
0.0
 40
0.0023735872211527
 50
332.9950245887935125
 51
346.9874223643341224
  0
ARC
  5
D17C
  8
0
 10
4662.392017804142597
 20
25.0198957208074404
 30
0.0
 40
0.0009589652989794
 50
307.3742191147201197
 51
332.9950245887915798
  0
ARC
  5
D17D
  8
0
 10
4662.3921479141536111
 20
25.0197253851856516
 30
0.0
 40
0.0007446224914787
 50
287.8530210205286721
 51
307.3742191145439051
  0
ARC
  5
D17E
  8
0
 10
4662.3921441300717561
 20
25.01973713385512
 30
0.0
 40
0.0007569655262444
 50
272.5947074121178275
 51
287.8530210206363904
  0
LINE
  5
D17F
  8
0
 10
4667.7148573278227559
 20
25.8121537122724511
 30
0.0
 11
4667.0413379154433642
 21
25.8121537122724511
 31
0.0
  0
LINE
  5
D180
  8
0
 10
4667.7148573278227559
 20
25.0121537122724504
 30
0.0
 11
4667.0413379154433642
 21
25.0121537122724504
 31
0.0
  0
ARC
  5
D181
  8
0
 10
4667.7148573226431836
 20
25.8042796965724897
 30
0.0
 40
0.0078740156999543
 50
32.8891901730313734
 51
89.9999623129075559
  0
ARC
  5
D182
  8
0
 10
4667.1084720101980565
 20
25.4121537093842917
 30
0.0
 40
0.729999999844729
 50
327.1108102955823256
 51
32.8891902587822997
  0
ARC
  5
D183
  8
0
 10
4667.7148573261547426
 20
25.0200277283834716
 30
0.0
 40
0.0078740161110275
 50
270.0000023704412229
 51
327.1108095389901109
  0
LINE
  5
D184
  8
0
 10
4667.7148573278227559
 20
25.0121537122724504
 30
0.0
 11
4667.7148573278227559
 21
25.8121537122724511
 31
0.0
  0
ARC
  5
D185
  8
0
 10
4667.0414960507087017
 20
25.0208581994866108
 30
0.0
 40
0.0087059235250381
 50
232.0209936705190898
 51
268.9592164919185961
  0
ARC
  5
D186
  8
0
 10
-236156.4861220346938353
 20
-286977.1923269336111844
 30
0.0
 40
374654.8215467252884991
 50
49.9999910042083613
 51
50.0000105037802385
  0
ARC
  5
D187
  8
0
 10
4667.0414176839522042
 20
25.8036704283675284
 30
0.0
 40
0.0084836589291607
 50
90.5387376242615289
 51
128.481288688708787
  0
ARC
  5
D188
  8
0
 10
-25003.5901357641996583
 20
35385.7855045242395136
 30
0.0
 40
46159.2234462942797109
 50
309.9999215044692278
 51
310.0000799975916834
  0
LINE
  5
D189
  8
0
 10
4666.9384627644585635
 20
25.7829372311029417
 30
0.0
 11
4666.9384618297990528
 21
25.0413705294310596
 31
0.0
  0
LINE
  5
D18A
  8
0
 10
4667.0413379154433642
 20
25.8121537122724511
 30
0.0
 11
4667.0413379154433642
 21
25.0121537122724504
 31
0.0
  0
ARC
  5
D18B
  8
0
 10
4667.3311748436435664
 20
31.7700715391723207
 30
0.0
 40
5.9999999999998801
 50
246.7695690891256959
 51
266.2471931407857824
  0
ARC
  5
D18C
  8
0
 10
4664.9614890461407413
 20
26.2492809045419513
 30
0.0
 40
0.0078731686309547
 50
66.7677106226169741
 51
90.0006236544991793
  0
LINE
  5
D18D
  8
0
 10
4664.9614889604426935
 20
26.2571540731724404
 30
0.0
 11
4664.8909820119433789
 21
26.2571540743724405
 31
0.0
  0
ARC
  5
D18E
  8
0
 10
4664.8909820125973056
 20
26.2650280915095387
 30
0.0
 40
0.0078740170370751
 50
180.0000095944060945
 51
269.9999949136267787
  0
ARC
  5
D18F
  8
0
 10
4664.8028402705886037
 20
26.1480524071285885
 30
0.0
 40
0.1891168134748602
 50
66.4549049638686
 51
89.2449703432091752
  0
ARC
  5
D190
  8
0
 10
4664.8752339821321584
 20
26.3142092740165801
 30
0.0
 40
0.0078740142101037
 50
359.9999877701599758
 51
66.3955147058747457
  0
LINE
  5
D191
  8
0
 10
4664.8831079963429147
 20
26.3142092723358587
 30
0.0
 11
4664.8831070903097498
 21
24.5100989135728788
 31
0.0
  0
ARC
  5
D192
  8
0
 10
4664.875232485241213
 20
24.5100989175275394
 30
0.0
 40
0.0078746050694259
 50
293.6141547053202885
 51
359.9999712257870215
  0
ARC
  5
D193
  8
0
 10
4664.8019742025899177
 20
24.6801689618218809
 30
0.0
 40
0.1930516959649571
 50
271.1158188657865935
 51
293.3167804894982851
  0
ARC
  5
D194
  8
0
 10
4667.3313676875286546
 20
19.0536508608706008
 30
0.0
 40
6.0006142951422721
 50
93.754267385024761
 51
113.2299168977227026
  0
ARC
  5
D195
  8
0
 10
4664.961493764270017
 20
24.5750045907248804
 30
0.0
 40
0.0078505205073519
 50
269.9649400322717838
 51
293.2659023492702772
  0
LINE
  5
D196
  8
0
 10
4664.9614937750520767
 20
24.5671540716872805
 30
0.0
 11
4664.9614937749120145
 21
24.5671540716872805
 31
0.0
  0
LINE
  5
D197
  8
0
 10
4664.9614889604426935
 20
24.56715407168738
 30
0.0
 11
4664.890981981542609
 21
24.5671540729556703
 31
0.0
  0
ARC
  5
D198
  8
0
 10
4664.8909819814007278
 20
24.5592800572973111
 30
0.0
 40
0.0078740156583526
 50
89.999998969364313
 51
179.9999899937701002
  0
LINE
  5
D199
  8
0
 10
4664.9614889604426935
 20
26.2571540731724404
 30
0.0
 11
4664.9614889604426935
 21
24.56715407168738
 31
0.0
  0
ARC
  5
D19A
  8
0
 10
4669.6710697008666102
 20
28.0447878635537791
 30
0.0
 40
3.7852498638608738
 50
221.23171784252159
 51
223.5769311795008889
  0
ARC
  5
D19B
  8
0
 10
4667.3733216449845713
 20
26.0310135874613984
 30
0.0
 40
0.7299376108558557
 50
198.6579011869715998
 51
221.23171784252159
  0
ARC
  5
D19C
  8
0
 10
4666.706667964065673
 20
25.8059095823683009
 30
0.0
 40
0.0263049343890521
 50
189.333103353492902
 51
198.6579011869702072
  0
ARC
  5
D19D
  8
0
 10
4666.6894445827374511
 20
25.80307892667145
 30
0.0
 40
0.0088504943786721
 50
175.7863229066514918
 51
189.3331033534923051
  0
ARC
  5
D19E
  8
0
 10
4666.6841360468415587
 20
25.8034700352376198
 30
0.0
 40
0.0035275704391285
 50
161.3318192899957069
 51
175.7863229066418
  0
ARC
  5
D19F
  8
0
 10
4666.6820899971407925
 20
25.8041613186314898
 30
0.0
 40
0.0013678963645737
 50
135.1827319559679097
 51
161.3318192899546943
  0
ARC
  5
D1A0
  8
0
 10
4666.6816410074379746
 20
25.8045582063566314
 30
0.0
 40
0.0007704486414865
 50
85.1046374143336664
 51
132.5839201946992034
  0
ARC
  5
D1A1
  8
0
 10
4666.9053707656648839
 20
25.4121879076515285
 30
0.0
 40
0.033091548959224
 50
0.0587716789121768
 51
44.8100425213044886
  0
ARC
  5
D1A2
  8
0
 10
4666.8947878546096035
 20
25.4165148925456386
 30
0.0
 40
0.0438916319750907
 50
321.2263414805472053
 51
354.2977614523878742
  0
ARC
  5
D1A3
  8
0
 10
4672.2172596377167793
 20
20.4746525711245084
 30
0.0
 40
7.2191898679630402
 50
137.0986761788333865
 51
138.410779086143009
  0
ARC
  5
D1A4
  8
0
 10
4667.3928180623142907
 20
24.781767680279259
 30
0.0
 40
0.752118431804394
 50
139.8580277059446928
 51
160.9855180233192016
  0
ARC
  5
D1A5
  8
0
 10
4666.7117914413065591
 20
25.0168381472418702
 30
0.0
 40
0.0316655945508121
 50
161.6383861654641976
 51
167.3428960527411959
  0
ARC
  5
D1A6
  8
0
 10
4666.6928840139544263
 20
25.0210842480467299
 30
0.0
 40
0.0122872514549577
 50
167.3428960527390075
 51
174.5294581250101089
  0
ARC
  5
D1A7
  8
0
 10
4666.6946944103492569
 20
25.0209108660840407
 30
0.0
 40
0.0141059313094191
 50
174.5294581250093131
 51
179.5994677410280076
  0
ARC
  5
D1A8
  8
0
 10
4666.6849214508083605
 20
25.0209791861131912
 30
0.0
 40
0.0043327329674786
 50
179.5994677410280076
 51
193.0125776356410086
  0
ARC
  5
D1A9
  8
0
 10
4666.6830126146305702
 20
25.0205380551714001
 30
0.0
 40
0.0023735872211527
 50
193.0125776356655933
 51
207.0049754112056917
  0
ARC
  5
D1AA
  8
0
 10
4666.6817522330429711
 20
25.0198957208074404
 30
0.0
 40
0.0009589652989794
 50
207.0049754112083065
 51
232.6257808852799087
  0
ARC
  5
D1AB
  8
0
 10
4666.6816221230310475
 20
25.0197253851856516
 30
0.0
 40
0.0007446224914787
 50
232.625780885455697
 51
252.1469789794712142
  0
ARC
  5
D1AC
  8
0
 10
4666.681625907113812
 20
25.01973713385512
 30
0.0
 40
0.0007569655262444
 50
252.1469789793634959
 51
267.4052925878821725
  0
LINE
  5
D1AD
  8
0
 10
4663.887278346113817
 20
-11.8909958489275596
 30
0.0
 11
4664.2417401645152495
 21
-11.8909958489275596
 31
0.0
  0
LINE
  5
D1AE
  8
0
 10
4664.8124751965142423
 20
-11.8909958489275596
 30
0.0
 11
4665.3242862201141179
 21
-11.8909958489275596
 31
0.0
  0
ARC
  5
D1AF
  8
0
 10
4664.2416083034040639
 20
-11.9106811981156095
 30
0.0
 40
0.0196857908148943
 50
0.0009016346463665
 51
89.6162134589962136
  0
LINE
  5
D1B0
  8
0
 10
4664.2612940941144188
 20
-11.9106808883275495
 30
0.0
 11
4664.2612940942135538
 21
-12.46186199072398
 31
0.0
  0
ARC
  5
D1B1
  8
0
 10
4664.2416090548140346
 20
-12.4618619907275505
 30
0.0
 40
0.0196850394000094
 50
270.0
 51
0.0000000103894727
  0
ARC
  5
D1B2
  8
0
 10
4663.887278346113817
 20
-11.9106808883275406
 30
0.0
 40
0.0196850393999905
 50
90.0
 51
179.9999721507680022
  0
LINE
  5
D1B3
  8
0
 10
4663.8675933067142978
 20
-11.9106808787594201
 30
0.0
 11
4663.8675933067142978
 21
-12.4618619907275505
 31
0.0
  0
ARC
  5
D1B4
  8
0
 10
4663.887278346113817
 20
-12.4618619907275505
 30
0.0
 40
0.0196850394000094
 50
179.9999999999984084
 51
270.0
  0
LINE
  5
D1B5
  8
0
 10
4664.2917307166144383
 20
-11.9106808883275495
 30
0.0
 11
4664.2691681099140624
 21
-11.9106808883275495
 31
0.0
  0
ARC
  5
D1B6
  8
0
 10
4664.2692882550663853
 20
-11.9188876576707106
 30
0.0
 40
0.0082076487442553
 50
90.8387366671744871
 51
166.9033367952274887
  0
LINE
  5
D1B7
  8
0
 10
4664.2917307166144383
 20
-12.4618619907275505
 30
0.0
 11
4664.2691681098785921
 21
-12.4618619906275505
 31
0.0
  0
ARC
  5
D1B8
  8
0
 10
4664.2691858663547464
 20
-12.4538944192987007
 30
0.0
 40
0.0079675911148158
 50
187.9105698527403092
 51
269.8723112215183164
  0
ARC
  5
D1B9
  8
0
 10
4665.3242862198721923
 20
-11.9303659279689906
 30
0.0
 40
0.0393700790414329
 50
0.0000003513433061
 51
89.9999996486208715
  0
LINE
  5
D1BA
  8
0
 10
4665.3636562989140657
 20
-11.9303659279689906
 30
0.0
 11
4665.3636562989140657
 21
-12.4815470301275599
 31
0.0
  0
LINE
  5
D1BB
  8
0
 10
4664.8124751965142423
 20
-11.8909958489275596
 30
0.0
 11
4664.8124751965142423
 21
-12.4815470301275599
 31
0.0
  0
ARC
  5
D1BC
  8
0
 10
4664.8046011807136892
 20
-11.9185549041275607
 30
0.0
 40
0.0078740156999899
 50
0.0
 51
90.0
  0
LINE
  5
D1BD
  8
0
 10
4664.8046011807136892
 20
-11.9106808884275708
 30
0.0
 11
4664.7416090548131251
 21
-11.9106808884275708
 31
0.0
  0
ARC
  5
D1BE
  8
0
 10
4664.7416090548131251
 20
-11.9185549041275607
 30
0.0
 40
0.0078740156999899
 50
90.0000000000521254
 51
180.0
  0
LINE
  5
D1BF
  8
0
 10
4664.7337350390143911
 20
-11.9185549041275607
 30
0.0
 11
4664.7337350390143911
 21
-12.4539879749275606
 31
0.0
  0
ARC
  5
D1C0
  8
0
 10
4664.7416090547139902
 20
-12.4539879749275606
 30
0.0
 40
0.007874015699997
 50
179.999999999999801
 51
270.0000007276668725
  0
LINE
  5
D1C1
  8
0
 10
4664.7416090548131251
 20
-12.4618619907275505
 30
0.0
 11
4664.8046011807136892
 21
-12.4618619907275505
 31
0.0
  0
ARC
  5
D1C2
  8
0
 10
4664.8046011807136892
 20
-12.4539879750275606
 30
0.0
 40
0.007874015699997
 50
270.0
 51
0.0000007271523548
  0
LINE
  5
D1C3
  8
0
 10
4664.7032976399132167
 20
-12.0445391560275503
 30
0.0
 11
4664.725861023312973
 21
-12.0445391560275503
 31
0.0
  0
ARC
  5
D1C4
  8
0
 10
4664.725861023312973
 20
-12.0366651403275604
 30
0.0
 40
0.007874015699997
 50
270.0
 51
0.0
  0
LINE
  5
D1C5
  8
0
 10
4664.7032976399132167
 20
-12.3280037230275603
 30
0.0
 11
4664.725861023312973
 21
-12.3280037230275603
 31
0.0
  0
ARC
  5
D1C6
  8
0
 10
4664.725861023312973
 20
-12.3358777387275609
 30
0.0
 40
0.0078740157000041
 50
0.0
 51
90.0
  0
ARC
  5
D1C7
  8
0
 10
4666.3675933067152073
 20
0.2940435210724601
 30
0.0
 40
0.0196850393999881
 50
359.999999999979309
 51
90.0000000000521254
  0
LINE
  5
D1C8
  8
0
 10
4666.3872783461129075
 20
0.294043521072453
 30
0.0
 11
4666.3872783461129075
 21
-1.6350903371280689
 31
0.0
  0
ARC
  5
D1C9
  8
0
 10
4666.3675933067152073
 20
-1.6350903371280689
 30
0.0
 40
0.0196850393994907
 50
269.9999999984888177
 51
359.9999999999996021
  0
LINE
  5
D1CA
  8
0
 10
4664.7337350390143911
 20
0.313728560472434
 30
0.0
 11
4664.7337350390143911
 21
-1.6547753765275599
 31
0.0
  0
LINE
  5
D1CB
  8
0
 10
4664.7337350390143911
 20
-1.5957202584275541
 30
0.0
 11
4664.7032976399132167
 21
-1.5957202584275541
 31
0.0
  0
LINE
  5
D1CC
  8
0
 10
4664.2917307166144383
 20
-1.5957202584275541
 30
0.0
 11
4664.2612940941144188
 21
-1.5957202584275541
 31
0.0
  0
LINE
  5
D1CD
  8
0
 10
4664.7337350390143911
 20
0.254673442372443
 30
0.0
 11
4664.7032976399132167
 21
0.254673442372443
 31
0.0
  0
LINE
  5
D1CE
  8
0
 10
4664.2917307166144383
 20
0.254673442372443
 30
0.0
 11
4664.2612940941144188
 21
0.2546734423724466
 31
0.0
  0
ARC
  5
D1CF
  8
0
 10
4665.1136419104859669
 20
-1.9570192573532199
 30
0.0
 40
1.89591196269142
 50
91.3680242530727753
 51
93.2224923014454845
  0
LINE
  5
D1D0
  8
0
 10
4665.0683807083141801
 20
-0.0616476843275535
 30
0.0
 11
4665.530979133513938
 21
-0.0616476843275535
 31
0.0
  0
ARC
  5
D1D1
  8
0
 10
4665.530979133513938
 20
-0.0866946228361734
 30
0.0
 40
0.0250469385086198
 50
38.1935997096904885
 51
90.0
  0
LINE
  5
D1D2
  8
0
 10
4665.5506641729143666
 20
0.1768239160724434
 30
0.0
 11
4665.5506641729143666
 21
-0.3358777387275538
 31
0.0
  0
ARC
  5
D1D3
  8
0
 10
4665.530979133513938
 20
-0.3358777387275573
 30
0.0
 40
0.0196850393999952
 50
270.0
 51
359.999999999991303
  0
LINE
  5
D1D4
  8
0
 10
4665.530979133513938
 20
-0.3555627781275525
 30
0.0
 11
4665.3341287398143322
 21
-0.3555627781275561
 31
0.0
  0
ARC
  5
D1D5
  8
0
 10
4665.3341287398143322
 20
-0.6705234080275559
 30
0.0
 40
0.3149606299000008
 50
90.0
 51
168.1191096816100981
  0
ARC
  5
D1D6
  8
0
 10
4665.0066522682009236
 20
-0.6016257702110828
 30
0.0
 40
0.0196850394208852
 50
270.0000000548719754
 51
348.1145926569121229
  0
LINE
  5
D1D7
  8
0
 10
4665.0066522682009236
 20
-0.6213108096319681
 30
0.0
 11
4664.8508559404135667
 21
-0.6213109994275535
 31
0.0
  0
ARC
  5
D1D8
  8
0
 10
4664.8508558440680645
 20
-0.5422246448174697
 30
0.0
 40
0.0790863546101424
 50
248.6565143657817885
 51
270.0000697993826861
  0
ARC
  5
D1D9
  8
0
 10
4664.8284070661447913
 20
-0.5996739111889369
 30
0.0
 40
0.0174068131324561
 50
186.4382249315860918
 51
248.6565143657811063
  0
LINE
  5
D1DA
  8
0
 10
4664.8111100320129481
 20
-0.6016257702275531
 30
0.0
 11
4664.8111100320129481
 21
0.195578372659476
 31
0.0
  0
ARC
  5
D1DB
  8
0
 10
4664.8272759512728953
 20
0.1945388805560597
 30
0.0
 40
0.0161993052112959
 50
108.7439082777644046
 51
176.320863207274499
  0
ARC
  5
D1DC
  8
0
 10
4664.8497936272960942
 20
0.1420655731654428
 30
0.0
 40
0.0732614456249228
 50
88.5439572265750741
 51
112.235463533916203
  0
ARC
  5
D1DD
  8
0
 10
4654.4569359843599159
 20
-937.5516872004441211
 30
0.0
 40
937.82459915448635
 50
89.3610547004612243
 51
89.3649284353442255
  0
LINE
  5
D1DE
  8
0
 10
4664.9150571006130122
 20
0.2145984393724447
 30
0.0
 11
4665.530979133513938
 21
0.2145984393724447
 31
0.0
  0
ARC
  5
D1DF
  8
0
 10
4665.530979133513938
 20
0.1956183053784635
 30
0.0
 40
0.0189801339939813
 50
8.7904029914104758
 51
90.0
  0
ARC
  5
D1E0
  8
0
 10
4665.3024800456223602
 20
0.1770769217208397
 30
0.0
 40
0.2481842562571951
 50
359.9415900825611061
 51
4.9562602948363113
  0
ARC
  5
D1E1
  8
0
 10
4665.0178010265599369
 20
-0.1043377440983804
 30
0.0
 40
0.0416401048481012
 50
104.9396571734568937
 51
136.1629526636095875
  0
LINE
  5
D1E2
  8
0
 10
4664.9877654968140632
 20
-0.0754974028275548
 30
0.0
 11
4664.9877654968140632
 21
-0.6016257702275567
 31
0.0
  0
ARC
  5
D1E3
  8
0
 10
4665.0090826626928902
 20
-0.6013160372461961
 30
0.0
 40
0.0213194159316281
 50
180.8324344817665121
 51
249.6963446987327018
  0
LINE
  5
D1E4
  8
0
 10
4664.8280332045969772
 20
0.2120207260779061
 30
0.0
 11
4664.9877654978126884
 21
-0.0754974016275547
 31
0.0
  0
LINE
  5
D1E5
  8
0
 10
4665.6599644382131373
 20
0.2153033636724437
 30
0.0
 11
4666.2888531492144466
 21
0.2153033636724437
 31
0.0
  0
LINE
  5
D1E6
  8
0
 10
4666.2888531492144466
 20
0.2153033636724437
 30
0.0
 11
4666.288853149312672
 21
-0.6016257702275531
 31
0.0
  0
ARC
  5
D1E7
  8
0
 10
4666.2670696888026214
 20
-0.6011753699860556
 30
0.0
 40
0.0217881163061911
 50
298.6716331966699727
 51
358.8155070018063952
  0
ARC
  5
D1E8
  8
0
 10
4666.2553544080901702
 20
-0.379765470328735
 30
0.0
 40
0.2415459213712404
 50
269.8742157190504258
 51
275.2659939544798817
  0
LINE
  5
D1E9
  8
0
 10
4666.2548241307104036
 20
-0.6213108096275555
 30
0.0
 11
4665.9371957626135554
 21
-0.6213108096275555
 31
0.0
  0
ARC
  5
D1EA
  8
0
 10
4665.9371957626135554
 20
-0.6016399747511266
 30
0.0
 40
0.019670834876429
 50
191.9199742466653049
 51
270.0
  0
ARC
  5
D1EB
  8
0
 10
4665.6094368173426119
 20
-0.6708289629020144
 30
0.0
 40
0.3153113173152216
 50
11.9199742466645695
 51
79.7950263081752666
  0
ARC
  5
D1EC
  8
0
 10
4665.668791146789772
 20
-0.3411156930388692
 30
0.0
 40
0.0197017820524964
 50
180.0407251513732092
 51
259.7950263081754088
  0
LINE
  5
D1ED
  8
0
 10
4665.6490893697136926
 20
-0.3411296968404258
 30
0.0
 11
4665.6490893697136926
 21
0.1768239128724467
 31
0.0
  0
ARC
  5
D1EE
  8
0
 10
4665.9110359644173514
 20
0.1768239128724431
 30
0.0
 40
0.2619465947034314
 50
175.4756344555073895
 51
179.9999999999992042
  0
ARC
  5
D1EF
  8
0
 10
4665.8359412383533709
 20
0.1827661295731389
 30
0.0
 40
0.186617132857761
 50
169.1246928380730026
 51
175.4756344555075884
  0
ARC
  5
D1F0
  8
0
 10
4665.6592718811980376
 20
0.2246907171989427
 30
0.0
 40
0.0094128657405491
 50
225.5120413963209955
 51
274.2193826522369022
  0
ARC
  5
D1F1
  8
0
 10
4665.6702991790680244
 20
-0.089834309688726
 30
0.0
 40
0.0282278368399441
 50
93.0964265456600089
 51
138.7099897595990114
  0
LINE
  5
D1F2
  8
0
 10
4665.6687744091141212
 20
-0.0616476843275535
 30
0.0
 11
4665.7110750387128064
 21
-0.0616494693275556
 31
0.0
  0
ARC
  5
D1F3
  8
0
 10
4665.6750227355551033
 20
0.7429030218579875
 30
0.0
 40
0.8053598448121622
 50
272.5657292895685941
 51
319.0718609152029899
  0
ARC
  5
D1F4
  8
0
 10
4665.3341287398143322
 20
-0.6705234080275559
 30
0.0
 40
0.0885826772000016
 50
90.0
 51
270.0
  0
ARC
  5
D1F5
  8
0
 10
4665.6490893697136926
 20
-0.6705234080275559
 30
0.0
 40
0.0885826772000016
 50
270.0
 51
90.0
  0
LINE
  5
D1F6
  8
0
 10
4665.3341287398143322
 20
-0.5819407308275544
 30
0.0
 11
4665.6490893697136926
 21
-0.5819407308275544
 31
0.0
  0
LINE
  5
D1F7
  8
0
 10
4665.3341287398143322
 20
-0.7591060852275576
 30
0.0
 11
4665.6490893697136926
 21
-0.7591060852275576
 31
0.0
  0
ARC
  5
D1F8
  8
0
 10
4665.1136419104859669
 20
0.615972441297604
 30
0.0
 40
1.89591196269142
 50
266.7775076985544729
 51
268.6319757469271963
  0
LINE
  5
D1F9
  8
0
 10
4665.0683807083141801
 20
-1.279399131728062
 30
0.0
 11
4665.530979133513938
 21
-1.279399131728062
 31
0.0
  0
ARC
  5
D1FA
  8
0
 10
4665.530979133513938
 20
-1.254352193219443
 30
0.0
 40
0.0250469385086198
 50
270.0
 51
321.8064002903096252
  0
LINE
  5
D1FB
  8
0
 10
4665.5506641729143666
 20
-1.5178707321280589
 30
0.0
 11
4665.5506641729143666
 21
-1.0051690773280619
 31
0.0
  0
ARC
  5
D1FC
  8
0
 10
4665.530979133513938
 20
-1.005169077328059
 30
0.0
 40
0.0196850393999952
 50
0.0000000000085493
 51
90.0
  0
LINE
  5
D1FD
  8
0
 10
4665.530979133513938
 20
-0.9854840379280638
 30
0.0
 11
4665.3341287398143322
 21
-0.9854840379280602
 31
0.0
  0
ARC
  5
D1FE
  8
0
 10
4665.3341287398143322
 20
-0.6705234080280605
 30
0.0
 40
0.3149606299000008
 50
191.8808903183895893
 51
270.0
  0
ARC
  5
D1FF
  8
0
 10
4665.0066522682009236
 20
-0.7394210458445336
 30
0.0
 40
0.0196850394208852
 50
11.8854073430880902
 51
89.9999999451279535
  0
LINE
  5
D200
  8
0
 10
4665.0066522682009236
 20
-0.7197360064236485
 30
0.0
 11
4664.8508559404135667
 21
-0.719735816628063
 31
0.0
  0
ARC
  5
D201
  8
0
 10
4664.8508558440680645
 20
-0.7988221712381467
 30
0.0
 40
0.0790863546101424
 50
89.999930200617257
 51
111.3434856342180979
  0
ARC
  5
D202
  8
0
 10
4664.8284070661447913
 20
-0.7413729048666795
 30
0.0
 40
0.0174068131324561
 50
111.3434856342188937
 51
173.5617750684137093
  0
LINE
  5
D203
  8
0
 10
4664.8111100320129481
 20
-0.7394210458280633
 30
0.0
 11
4664.8111100320129481
 21
-1.5366251887150919
 31
0.0
  0
ARC
  5
D204
  8
0
 10
4664.8272759512728953
 20
-1.5355856966116761
 30
0.0
 40
0.0161993052112959
 50
183.6791367927255862
 51
251.2560917222355101
  0
ARC
  5
D205
  8
0
 10
4664.8497936272960942
 20
-1.4831123892210589
 30
0.0
 40
0.0732614456249228
 50
247.764536466083797
 51
271.4560427734248833
  0
ARC
  5
D206
  8
0
 10
4654.4569359843599159
 20
936.2106403843887392
 30
0.0
 40
937.82459915448635
 50
270.6350715646557887
 51
270.6389452995388183
  0
LINE
  5
D207
  8
0
 10
4664.9150571006130122
 20
-1.5556452554280611
 30
0.0
 11
4665.530979133513938
 21
-1.5556452554280611
 31
0.0
  0
ARC
  5
D208
  8
0
 10
4665.530979133513938
 20
-1.536665121434079
 30
0.0
 40
0.0189801339939813
 50
270.0
 51
351.2095970085898102
  0
ARC
  5
D209
  8
0
 10
4665.3024800456223602
 20
-1.518123737776456
 30
0.0
 40
0.2481842562571951
 50
355.0437397051636026
 51
0.0584099174391269
  0
ARC
  5
D20A
  8
0
 10
4665.0178010265599369
 20
-1.236709071957236
 30
0.0
 40
0.0416401048481012
 50
223.8370473363542033
 51
255.0603428265430921
  0
LINE
  5
D20B
  8
0
 10
4664.9877654968140632
 20
-1.2655494132280609
 30
0.0
 11
4664.9877654968140632
 21
-0.7394210458280597
 31
0.0
  0
ARC
  5
D20C
  8
0
 10
4665.0090826626928902
 20
-0.7397307788094203
 30
0.0
 40
0.0213194159316281
 50
110.3036553012672982
 51
179.1675655182334879
  0
LINE
  5
D20D
  8
0
 10
4664.8280332045969772
 20
-1.553067542133522
 30
0.0
 11
4664.9877654978126884
 21
-1.265549414428061
 31
0.0
  0
LINE
  5
D20E
  8
0
 10
4665.6599644382131373
 20
-1.5563501797280599
 30
0.0
 11
4666.2888531492144466
 21
-1.5563501797280599
 31
0.0
  0
LINE
  5
D20F
  8
0
 10
4666.2888531492144466
 20
-1.5563501797280599
 30
0.0
 11
4666.288853149312672
 21
-0.7394210458280633
 31
0.0
  0
ARC
  5
D210
  8
0
 10
4666.2670696888026214
 20
-0.7398714460695608
 30
0.0
 40
0.0217881163061911
 50
1.1844929981936221
 51
61.3283668033298284
  0
ARC
  5
D211
  8
0
 10
4666.2553544080901702
 20
-0.9612813457268813
 30
0.0
 40
0.2415459213712404
 50
84.7340060455201467
 51
90.1257842809496736
  0
LINE
  5
D212
  8
0
 10
4666.2548241307104036
 20
-0.7197360064280609
 30
0.0
 11
4665.9371957626135554
 21
-0.7197360064280609
 31
0.0
  0
ARC
  5
D213
  8
0
 10
4665.9371957626135554
 20
-0.7394068413044899
 30
0.0
 40
0.019670834876429
 50
90.0
 51
168.0800257533348088
  0
ARC
  5
D214
  8
0
 10
4665.6094368173426119
 20
-0.6702178531536021
 30
0.0
 40
0.3153113173152216
 50
280.2049736918247049
 51
348.0800257533351783
  0
ARC
  5
D215
  8
0
 10
4665.668791146789772
 20
-0.9999311230167471
 30
0.0
 40
0.0197017820524964
 50
100.2049736918247049
 51
179.9592748486267908
  0
LINE
  5
D216
  8
0
 10
4665.6490893697136926
 20
-0.9999171192151906
 30
0.0
 11
4665.6490893697136926
 21
-1.5178707289280631
 31
0.0
  0
ARC
  5
D217
  8
0
 10
4665.9110359644173514
 20
-1.5178707289280591
 30
0.0
 40
0.2619465947034314
 50
180.0000000000007958
 51
184.5243655444926105
  0
ARC
  5
D218
  8
0
 10
4665.8359412383533709
 20
-1.523812945628755
 30
0.0
 40
0.186617132857761
 50
184.5243655444922126
 51
190.8753071619271964
  0
ARC
  5
D219
  8
0
 10
4665.6592718811980376
 20
-1.5657375332545591
 30
0.0
 40
0.0094128657405491
 50
85.7806173477630978
 51
134.4879586036790045
  0
ARC
  5
D21A
  8
0
 10
4665.6702991790680244
 20
-1.25121250636689
 30
0.0
 40
0.0282278368399441
 50
221.2900102404009886
 51
266.9035734543400054
  0
LINE
  5
D21B
  8
0
 10
4665.6687744091141212
 20
-1.279399131728062
 30
0.0
 11
4665.7110750387128064
 21
-1.2793973467280599
 31
0.0
  0
ARC
  5
D21C
  8
0
 10
4665.6750227355551033
 20
-2.083949837913603
 30
0.0
 40
0.8053598448121622
 50
40.9281390847970101
 51
87.4342707104313632
  0
ARC
  5
D21D
  8
0
 10
4664.2534200784139102
 20
0.3058545447724477
 30
0.0
 40
0.007874015699997
 50
359.9999999998448743
 51
89.9999999662846903
  0
LINE
  5
D21E
  8
0
 10
4664.2612940941144188
 20
0.3058545447724263
 30
0.0
 11
4664.2612940941144188
 21
-1.646901360827552
 31
0.0
  0
ARC
  5
D21F
  8
0
 10
4664.2534687607258093
 20
-1.646950043137263
 30
0.0
 40
0.0078254848179929
 50
270.3564391196215979
 51
0.3564421932706608
  0
ARC
  5
D220
  8
0
 10
4664.1943624603136413
 20
0.3058545432733055
 30
0.0
 40
0.0078740171991429
 50
0.0000109085758643
 51
90.0000109085945894
  0
ARC
  5
D221
  8
0
 10
4664.1505095999464174
 20
0.2940919781950626
 30
0.0
 40
0.0196365822832133
 50
90.0013975962971671
 51
120.4059709926078057
  0
LINE
  5
D222
  8
0
 10
4664.1405710613080373
 20
0.3110277631931133
 30
0.0
 11
4663.6516475880243888
 21
0.0241563251974348
 31
0.0
  0
ARC
  5
D223
  8
0
 10
4663.6616058220361083
 20
0.0071842125511559
 30
0.0
 40
0.0196778818043304
 50
120.4018952402754934
 51
180.0214765219160995
  0
LINE
  5
D224
  8
0
 10
4663.6419279402316533
 20
0.0071842125511559
 30
0.0
 11
4663.6419277062141191
 21
-0.0760352186275561
 31
0.0
  0
ARC
  5
D225
  8
0
 10
4663.6616139457009922
 20
-0.0760352739863421
 30
0.0
 40
0.0196862394880097
 50
179.9998388811270047
 51
269.9180402538972885
  0
LINE
  5
D226
  8
0
 10
4663.6615857851866167
 20
-0.0957214933329986
 30
0.0
 11
4663.7158353654140228
 21
-0.0956358660275569
 31
0.0
  0
ARC
  5
D227
  8
0
 10
4664.1878962741129726
 20
0.2940435210725951
 30
0.0
 40
0.0196850393998334
 50
89.9999999997915552
 51
120.3448574588275051
  0
LINE
  5
D228
  8
0
 10
4664.1779445482907249
 20
0.3110277469724494
 30
0.0
 11
4663.7451336012127285
 21
0.057427582672446
 31
0.0
  0
ARC
  5
D229
  8
0
 10
4663.7550852866734203
 20
0.0404433531067525
 30
0.0
 40
0.0196850221597588
 50
120.367607975276897
 51
180.0000564732841895
  0
LINE
  5
D22A
  8
0
 10
4663.7354002713163936
 20
0.0404597180975834
 30
0.0
 11
4663.7354002713163936
 21
-1.3814901418275549
 31
0.0
  0
ARC
  5
D22B
  8
0
 10
4663.7550853480479418
 20
-1.3814901418275509
 30
0.0
 40
0.0196850767317471
 50
180.0000000000019895
 51
239.6321758336461016
  0
LINE
  5
D22C
  8
0
 10
4663.7451335709129125
 20
-1.3984743809275519
 30
0.0
 11
4664.1779445762940668
 21
-1.6520745680281941
 31
0.0
  0
ARC
  5
D22D
  8
0
 10
4664.188035811726877
 20
-1.634576253121945
 30
0.0
 40
0.0201996053699253
 50
240.0280562318394004
 51
269.6042011829209173
  0
LINE
  5
D22E
  8
0
 10
4663.6419276999140493
 20
0.0071718569724446
 30
0.0
 11
4663.6665934785623904
 21
0.0071367144725194
 31
0.0
  0
ARC
  5
D22F
  8
0
 10
4663.6361183223316402
 20
0.2826355342556965
 30
0.0
 40
0.2771792467864432
 50
276.3122873111209969
 51
290.9796849150116032
  0
ARC
  5
D230
  8
0
 10
4664.1505095990460177
 20
-1.6351387974502201
 30
0.0
 40
0.0196365790831567
 50
239.5940264698575106
 51
269.9986049007719089
  0
LINE
  5
D231
  8
0
 10
4664.1405710528642885
 20
-1.652074574327556
 30
0.0
 11
4663.6516477505138027
 21
-1.3652029100275549
 31
0.0
  0
ARC
  5
D232
  8
0
 10
4663.6616061679869745
 20
-1.3482305040255831
 30
0.0
 40
0.0196782276655514
 50
179.9800506598228935
 51
239.5980762882329032
  0
LINE
  5
D233
  8
0
 10
4663.6419277253144173
 20
-1.3482011017775539
 30
0.0
 11
4663.6419277062141191
 21
-1.2650115972275551
 31
0.0
  0
ARC
  5
D234
  8
0
 10
4663.6616127597199011
 20
-1.2650115927079419
 30
0.0
 40
0.0196850535063012
 50
90.0783941942874122
 51
180.0000131548925992
  0
LINE
  5
D235
  8
0
 10
4663.6615858259137894
 20
-1.2453265576275561
 30
0.0
 11
4663.7158405530135497
 21
-1.2453265576275561
 31
0.0
  0
LINE
  5
D236
  8
0
 10
4663.6419279403207838
 20
-1.3482305040255831
 30
0.0
 11
4663.6665934786142316
 21
-1.3482305040255831
 31
0.0
  0
ARC
  5
D237
  8
0
 10
4663.6369746740374467
 20
-1.621090163600587
 30
0.0
 40
0.2744625063792148
 50
68.9992712277883697
 51
83.8048231705242728
  0
LINE
  5
D238
  8
0
 10
4663.6786169289152895
 20
-0.095720258427555
 30
0.0
 11
4663.6786169289152895
 21
-1.2453265576275561
 31
0.0
  0
LINE
  5
D239
  8
0
 10
4663.7164691051893897
 20
-0.1390273450275572
 30
0.0
 11
4663.7164716454135487
 21
-1.202019471027554
 31
0.0
  0
ARC
  5
D23A
  8
0
 10
4653.3002299138988747
 20
-1.2081404882840761
 30
0.0
 40
10.4162435299968195
 50
359.8855058654057189
 51
0.0336693813176942
  0
ARC
  5
D23B
  8
0
 10
4663.4211705849002101
 20
-1.226318029338852
 30
0.0
 40
0.2952938384497512
 50
357.0744060570829106
 51
359.488294032422175
  0
ARC
  5
D23C
  8
0
 10
4662.7570223785587586
 20
-1.1851444425545621
 30
0.0
 40
0.9607050424761046
 50
356.4084289356154045
 51
356.6436617620771017
  0
LINE
  5
D23D
  8
0
 10
4663.7164708310483547
 20
-1.202019471027554
 30
0.0
 11
4663.6864909445130252
 21
-1.202019471027554
 31
0.0
  0
ARC
  5
D23E
  8
0
 10
4663.6864909445130252
 20
-1.194145455327561
 30
0.0
 40
0.0078740156999935
 50
179.9999992722788988
 51
270.0
  0
ARC
  5
D23F
  8
0
 10
7359.5604767383456419
 20
-0.1332473053874033
 30
0.0
 40
2695.8440076393521849
 50
179.999936796039691
 51
180.0001228453411102
  0
ARC
  5
D240
  8
0
 10
4663.1136413225103752
 20
-0.1226201630836812
 30
0.0
 40
0.6028763581674313
 50
359.2726300222103077
 51
2.1828611827755129
  0
ARC
  5
D241
  8
0
 10
4663.6591903958651528
 20
-0.1011028183954572
 30
0.0
 40
0.0569081729053955
 50
1.455554408945702
 51
5.5126897169099021
  0
LINE
  5
D242
  8
0
 10
4663.7164691051875707
 20
-0.1390267836630556
 30
0.0
 11
4663.6864909445130252
 21
-0.1390273450275572
 31
0.0
  0
ARC
  5
D243
  8
0
 10
4663.6864910919639442
 20
-0.1469015081774145
 30
0.0
 40
0.0078741631512379
 50
90.0010729082742245
 51
179.9989278193955045
  0
LINE
  5
D244
  8
0
 10
4663.6419295779141976
 20
-0.0760499348275552
 30
0.0
 11
4663.7122884747323042
 21
-0.0760349969375973
 31
0.0
  0
ARC
  5
D245
  8
0
 10
4663.6964366786851315
 20
-0.0856921130575259
 30
0.0
 40
0.0185617706498759
 50
2.655228859069485
 51
31.3503054039570195
  0
ARC
  5
D246
  8
0
 10
4664.0473629038833678
 20
-0.0639063895481797
 30
0.0
 40
0.3330424424025091
 50
183.6024003259647941
 51
185.466950543331393
  0
LINE
  5
D247
  8
0
 10
4663.6419277062141191
 20
-1.2650115972275551
 30
0.0
 11
4663.7122751134138525
 21
-1.264998011227557
 31
0.0
  0
ARC
  5
D248
  8
0
 10
4663.6425095230833904
 20
-1.2418380068841299
 30
0.0
 40
0.0735093422318372
 50
341.6354400301196961
 51
349.5154672485595029
  0
ARC
  5
D249
  8
0
 10
4663.5976157677296214
 20
-1.237783922786089
 30
0.0
 40
0.1184651475852311
 50
351.5389625291771836
 51
356.3495283648748
  0
LINE
  5
D24A
  8
0
 10
4663.8441107259131968
 20
0.0013454155724446
 30
0.0
 11
4664.0742028824679437
 21
0.1361022229018864
 31
0.0
  0
ARC
  5
D24B
  8
0
 10
4664.0841427881041454
 20
0.1191302096193283
 30
0.0
 40
0.0196685271164677
 50
0.1064973630654078
 51
120.3559914335047978
  0
LINE
  5
D24C
  8
0
 10
4664.1038112812457257
 20
0.1191667680724109
 30
0.0
 11
4664.1038112812457257
 21
-0.6016257702275531
 31
0.0
  0
ARC
  5
D24D
  8
0
 10
4664.084126241845297
 20
-0.6016257702275531
 30
0.0
 40
0.0196850394000023
 50
270.000001072792827
 51
0.0
  0
LINE
  5
D24E
  8
0
 10
4664.0841262422127329
 20
-0.621310809627552
 30
0.0
 11
4663.8540626062140291
 21
-0.6213108096275555
 31
0.0
  0
ARC
  5
D24F
  8
0
 10
4663.8540626062140291
 20
-0.6012909649712875
 30
0.0
 40
0.0200198446562681
 50
180.9582531153104128
 51
270.0
  0
LINE
  5
D250
  8
0
 10
4663.8340456586138316
 20
-0.6016257702275531
 30
0.0
 11
4663.8340456586138316
 21
-0.0159078781275568
 31
0.0
  0
ARC
  5
D251
  8
0
 10
4663.8538657844574118
 20
-0.0159078803809578
 30
0.0
 40
0.019820125843035
 50
119.4839311225437939
 51
179.9999934858956863
  0
ARC
  5
D252
  8
0
 10
4664.0181311897022169
 20
-0.6018319247202299
 30
0.0
 40
0.0194801317509486
 50
179.3936143322690953
 51
269.3517388481822081
  0
ARC
  5
D253
  8
0
 10
4664.4208495787643187
 20
-0.6019423808107263
 30
0.0
 40
0.422197548570974
 50
155.0827835096714864
 51
179.957032148216399
  0
LINE
  5
D254
  8
0
 10
4664.0379512509716733
 20
-0.4240670295275564
 30
0.0
 11
4664.0379663523153795
 21
0.103339458072444
 31
0.0
  0
ARC
  5
D255
  8
0
 10
4664.0582421635008359
 20
0.1033388775108683
 30
0.0
 40
0.0202758111961697
 50
123.0554526901166952
 51
179.9983594378630869
  0
ARC
  5
D256
  8
0
 10
4664.0584694935851076
 20
-0.4224905283739453
 30
0.0
 40
0.0205787180302183
 50
184.3936385528973858
 51
266.2799156789592985
  0
LINE
  5
D257
  8
0
 10
4664.0571343028359479
 20
-0.4430258858146559
 30
0.0
 11
4664.1038112812457257
 21
-0.4430258858146559
 31
0.0
  0
LINE
  5
D258
  8
0
 10
4664.2022364775129972
 20
0.3058545432733055
 30
0.0
 11
4664.2022651351753666
 21
-1.6469022271064011
 31
0.0
  0
ARC
  5
D259
  8
0
 10
4664.1943920457142667
 20
-1.6469023426478411
 30
0.0
 40
0.007873089462104
 50
270.2152949691455888
 51
0.0008408436374909
  0
LINE
  5
D25A
  8
0
 10
4663.8441107259131968
 20
-1.3423922316275561
 30
0.0
 11
4664.0742028824679437
 21
-1.4771490389569979
 31
0.0
  0
ARC
  5
D25B
  8
0
 10
4664.0841427881041454
 20
-1.46017702567444
 30
0.0
 40
0.0196685271164677
 50
239.6440085664953017
 51
359.8935026369346133
  0
LINE
  5
D25C
  8
0
 10
4664.1038112812457257
 20
-1.4602135841275219
 30
0.0
 11
4664.1038112812457257
 21
-0.7394210458275589
 31
0.0
  0
ARC
  5
D25D
  8
0
 10
4664.084126241845297
 20
-0.7394210458275589
 30
0.0
 40
0.0196850394000023
 50
0.0
 51
89.9999989272071446
  0
LINE
  5
D25E
  8
0
 10
4664.0841262422127329
 20
-0.71973600642756
 30
0.0
 11
4663.8540626062140291
 21
-0.7197360064275565
 31
0.0
  0
ARC
  5
D25F
  8
0
 10
4663.8540626062140291
 20
-0.7397558510838245
 30
0.0
 40
0.0200198446562681
 50
90.0
 51
179.041746884689303
  0
LINE
  5
D260
  8
0
 10
4663.8340456586138316
 20
-0.7394210458275589
 30
0.0
 11
4663.8340456586138316
 21
-1.3251389379275551
 31
0.0
  0
ARC
  5
D261
  8
0
 10
4663.8538657844574118
 20
-1.3251389356741541
 30
0.0
 40
0.019820125843035
 50
180.0000065141045127
 51
240.5160688774562061
  0
ARC
  5
D262
  8
0
 10
4664.0181311897022169
 20
-0.7392148913348821
 30
0.0
 40
0.0194801317509486
 50
90.6482611518178203
 51
180.6063856677309047
  0
ARC
  5
D263
  8
0
 10
4664.4208495787643187
 20
-0.7391044352443857
 30
0.0
 40
0.422197548570974
 50
180.0429678517836862
 51
204.9172164903285136
  0
LINE
  5
D264
  8
0
 10
4664.0379512509716733
 20
-0.9169797865275555
 30
0.0
 11
4664.0379663523153795
 21
-1.444386274127555
 31
0.0
  0
ARC
  5
D265
  8
0
 10
4664.0582421635008359
 20
-1.44438569356598
 30
0.0
 40
0.0202758111961697
 50
180.0016405621367994
 51
236.9445473098834896
  0
ARC
  5
D266
  8
0
 10
4664.0584694935851076
 20
-0.9185562876811665
 30
0.0
 40
0.0205787180302183
 50
93.7200843210406873
 51
175.6063614471023016
  0
LINE
  5
D267
  8
0
 10
4664.0571343028359479
 20
-0.898020930240456
 30
0.0
 11
4664.1038112812457257
 21
-0.898020930240456
 31
0.0
  0
LINE
  5
D268
  8
0
 10
4664.1505091209583043
 20
51.4948309226724206
 30
0.0
 11
4664.2534200784139102
 21
51.4948309226724206
 31
0.0
  0
LINE
  5
D269
  8
0
 10
4664.7337350390143911
 20
51.4948309226724277
 30
0.0
 11
4666.3675933067152073
 21
51.4948309226724206
 31
0.0
  0
LINE
  5
D26A
  8
0
 10
4664.150509120913739
 20
49.5263269856724406
 30
0.0
 11
4664.2535174430367988
 21
49.5263269856724335
 31
0.0
  0
LINE
  5
D26B
  8
0
 10
4664.7337350390143911
 20
49.5263269856724335
 30
0.0
 11
4666.3675933067152073
 21
49.5263269856724335
 31
0.0
  0
ARC
  5
D26C
  8
0
 10
4666.3675933067152073
 20
51.4751458832724467
 30
0.0
 40
0.0196850393999881
 50
359.999999999979309
 51
90.0000000000521254
  0
LINE
  5
D26D
  8
0
 10
4666.3872783461129075
 20
51.4751458832724396
 30
0.0
 11
4666.3872783461129075
 21
49.5460120250719172
 31
0.0
  0
ARC
  5
D26E
  8
0
 10
4666.3675933067152073
 20
49.5460120250719172
 30
0.0
 40
0.0196850393994907
 50
269.9999999984888177
 51
359.9999999999996021
  0
LINE
  5
D26F
  8
0
 10
4664.7337350390143911
 20
51.4948309226724206
 30
0.0
 11
4664.7337350390143911
 21
49.5263269856724335
 31
0.0
  0
LINE
  5
D270
  8
0
 10
4664.7337350390143911
 20
49.5853821037724387
 30
0.0
 11
4664.7032976399132167
 21
49.5853821037724387
 31
0.0
  0
LINE
  5
D271
  8
0
 10
4664.2917307166144383
 20
49.5853821037724387
 30
0.0
 11
4664.2612940941144188
 21
49.5853821037724387
 31
0.0
  0
LINE
  5
D272
  8
0
 10
4664.7337350390143911
 20
51.4357758045724296
 30
0.0
 11
4664.7032976399132167
 21
51.4357758045724296
 31
0.0
  0
LINE
  5
D273
  8
0
 10
4664.2917307166144383
 20
51.4357758045724296
 30
0.0
 11
4664.2612940941144188
 21
51.4357758045724367
 31
0.0
  0
ARC
  5
D274
  8
0
 10
4665.1136419104859669
 20
49.2240831048467626
 30
0.0
 40
1.89591196269142
 50
91.3680242530727753
 51
93.2224923014454845
  0
LINE
  5
D275
  8
0
 10
4665.0683807083141801
 20
51.1194546778724401
 30
0.0
 11
4665.530979133513938
 21
51.1194546778724401
 31
0.0
  0
ARC
  5
D276
  8
0
 10
4665.530979133513938
 20
51.0944077393638096
 30
0.0
 40
0.0250469385086198
 50
38.1935997096904174
 51
90.0
  0
LINE
  5
D277
  8
0
 10
4665.5506641729143666
 20
51.35792627827243
 30
0.0
 11
4665.5506641729143666
 21
50.8452246234724399
 31
0.0
  0
ARC
  5
D278
  8
0
 10
4665.530979133513938
 20
50.8452246234724328
 30
0.0
 40
0.0196850393999952
 50
270.0
 51
359.999999999991303
  0
LINE
  5
D279
  8
0
 10
4665.530979133513938
 20
50.8255395840724375
 30
0.0
 11
4665.3341287398143322
 21
50.8255395840724375
 31
0.0
  0
ARC
  5
D27A
  8
0
 10
4665.3341287398143322
 20
50.5105789541724377
 30
0.0
 40
0.3149606299000008
 50
90.0
 51
168.1191096816100981
  0
ARC
  5
D27B
  8
0
 10
4665.0066522682009236
 20
50.5794765919889073
 30
0.0
 40
0.0196850394208852
 50
270.0000000548719754
 51
348.1145926569121229
  0
LINE
  5
D27C
  8
0
 10
4665.0066522682009236
 20
50.5597915525680293
 30
0.0
 11
4664.8508559404135667
 21
50.5597913627724367
 31
0.0
  0
ARC
  5
D27D
  8
0
 10
4664.8508558440680645
 20
50.6388777173825275
 30
0.0
 40
0.0790863546101424
 50
248.6565143657817885
 51
270.0000697993826861
  0
ARC
  5
D27E
  8
0
 10
4664.8284070661447913
 20
50.5814284510110497
 30
0.0
 40
0.0174068131324561
 50
186.4382249315860918
 51
248.6565143657811063
  0
LINE
  5
D27F
  8
0
 10
4664.8111100320129481
 20
50.5794765919724298
 30
0.0
 11
4664.8111100320129481
 21
51.3766807348594696
 31
0.0
  0
ARC
  5
D280
  8
0
 10
4664.8272759512728953
 20
51.3756412427560605
 30
0.0
 40
0.0161993052112959
 50
108.7439082777644046
 51
176.320863207274499
  0
ARC
  5
D281
  8
0
 10
4664.8497936272960942
 20
51.3231679353654329
 30
0.0
 40
0.0732614456249228
 50
88.5439572265750741
 51
112.235463533916203
  0
ARC
  5
D282
  8
0
 10
4654.4569359843599159
 20
-886.3705848382442127
 30
0.0
 40
937.82459915448635
 50
89.3610547004612243
 51
89.3649284353442255
  0
LINE
  5
D283
  8
0
 10
4664.9150571006130122
 20
51.3957008015724384
 30
0.0
 11
4665.530979133513938
 21
51.3957008015724384
 31
0.0
  0
ARC
  5
D284
  8
0
 10
4665.530979133513938
 20
51.3767206675784465
 30
0.0
 40
0.0189801339939813
 50
8.7904029914104758
 51
90.0
  0
ARC
  5
D285
  8
0
 10
4665.3024800456223602
 20
51.3581792839208333
 30
0.0
 40
0.2481842562571951
 50
359.9415900825611061
 51
4.9562602948363113
  0
ARC
  5
D286
  8
0
 10
4665.0178010265599369
 20
51.0767646181016133
 30
0.0
 40
0.0416401048481012
 50
104.9396571734568937
 51
136.1629526636095875
  0
LINE
  5
D287
  8
0
 10
4664.9877654968140632
 20
51.1056049593724424
 30
0.0
 11
4664.9877654968140632
 21
50.5794765919724298
 31
0.0
  0
ARC
  5
D288
  8
0
 10
4665.0090826626928902
 20
50.5797863249538011
 30
0.0
 40
0.0213194159316281
 50
180.8324344817665121
 51
249.6963446987327018
  0
LINE
  5
D289
  8
0
 10
4664.8280332045969772
 20
51.3931230882779033
 30
0.0
 11
4664.9877654978126884
 21
51.1056049605724283
 31
0.0
  0
LINE
  5
D28A
  8
0
 10
4665.6599644382131373
 20
51.3964057258724409
 30
0.0
 11
4666.2888531492144466
 21
51.3964057258724409
 31
0.0
  0
LINE
  5
D28B
  8
0
 10
4666.2888531492144466
 20
51.3964057258724409
 30
0.0
 11
4666.288853149312672
 21
50.5794765919724298
 31
0.0
  0
ARC
  5
D28C
  8
0
 10
4666.2670696888026214
 20
50.5799269922139416
 30
0.0
 40
0.0217881163061911
 50
298.6716331966699727
 51
358.8155070018063952
  0
ARC
  5
D28D
  8
0
 10
4666.2553544080901702
 20
50.8013368918712587
 30
0.0
 40
0.2415459213712404
 50
269.8742157190504258
 51
275.2659939544798817
  0
LINE
  5
D28E
  8
0
 10
4666.2548241307104036
 20
50.5597915525724417
 30
0.0
 11
4665.9371957626135554
 21
50.5597915525724417
 31
0.0
  0
ARC
  5
D28F
  8
0
 10
4665.9371957626135554
 20
50.5794623874488707
 30
0.0
 40
0.019670834876429
 50
191.919974246665106
 51
270.0
  0
ARC
  5
D290
  8
0
 10
4665.6094368173426119
 20
50.5102733992979793
 30
0.0
 40
0.3153113173152216
 50
11.9199742466645695
 51
79.7950263081752666
  0
ARC
  5
D291
  8
0
 10
4665.668791146789772
 20
50.8399866691611209
 30
0.0
 40
0.0197017820524964
 50
180.0407251513730102
 51
259.7950263081754088
  0
LINE
  5
D292
  8
0
 10
4665.6490893697136926
 20
50.8399726653595607
 30
0.0
 11
4665.6490893697136926
 21
51.3579262750724368
 31
0.0
  0
ARC
  5
D293
  8
0
 10
4665.9110359644173514
 20
51.3579262750724297
 30
0.0
 40
0.2619465947034314
 50
175.4756344555073895
 51
179.9999999999992042
  0
ARC
  5
D294
  8
0
 10
4665.8359412383533709
 20
51.3638684917731325
 30
0.0
 40
0.186617132857761
 50
169.1246928380730026
 51
175.4756344555075884
  0
ARC
  5
D295
  8
0
 10
4665.6592718811980376
 20
51.4057930793989328
 30
0.0
 40
0.0094128657405491
 50
225.5120413963209955
 51
274.2193826522369022
  0
ARC
  5
D296
  8
0
 10
4665.6702991790680244
 20
51.0912680525112606
 30
0.0
 40
0.0282278368399441
 50
93.0964265456600089
 51
138.7099897595990114
  0
LINE
  5
D297
  8
0
 10
4665.6687744091141212
 20
51.1194546778724401
 30
0.0
 11
4665.7110750387128064
 21
51.1194528928724381
 31
0.0
  0
ARC
  5
D298
  8
0
 10
4665.6750227355551033
 20
51.9240053840579776
 30
0.0
 40
0.8053598448121622
 50
272.5657292895685941
 51
319.0718609152029899
  0
ARC
  5
D299
  8
0
 10
4665.3341287398143322
 20
50.5105789541724377
 30
0.0
 40
0.0885826772000016
 50
90.0
 51
270.0
  0
ARC
  5
D29A
  8
0
 10
4665.6490893697136926
 20
50.5105789541724377
 30
0.0
 40
0.0885826772000016
 50
270.0
 51
90.0
  0
LINE
  5
D29B
  8
0
 10
4665.3341287398143322
 20
50.5991616313724393
 30
0.0
 11
4665.6490893697136926
 21
50.5991616313724393
 31
0.0
  0
LINE
  5
D29C
  8
0
 10
4665.3341287398143322
 20
50.421996276972429
 30
0.0
 11
4665.6490893697136926
 21
50.421996276972429
 31
0.0
  0
ARC
  5
D29D
  8
0
 10
4665.1136419104859669
 20
51.797074803497587
 30
0.0
 40
1.89591196269142
 50
266.7775076985544729
 51
268.6319757469271963
  0
LINE
  5
D29E
  8
0
 10
4665.0683807083141801
 20
49.9017032304719308
 30
0.0
 11
4665.530979133513938
 21
49.9017032304719308
 31
0.0
  0
ARC
  5
D29F
  8
0
 10
4665.530979133513938
 20
49.92675016898054
 30
0.0
 40
0.0250469385086198
 50
270.0
 51
321.8064002903096252
  0
LINE
  5
D2A0
  8
0
 10
4665.5506641729143666
 20
49.6632316300719268
 30
0.0
 11
4665.5506641729143666
 21
50.1759332848719311
 31
0.0
  0
ARC
  5
D2A1
  8
0
 10
4665.530979133513938
 20
50.1759332848719311
 30
0.0
 40
0.0196850393999952
 50
0.0000000000085493
 51
90.0
  0
LINE
  5
D2A2
  8
0
 10
4665.530979133513938
 20
50.1956183242719334
 30
0.0
 11
4665.3341287398143322
 21
50.1956183242719334
 31
0.0
  0
ARC
  5
D2A3
  8
0
 10
4665.3341287398143322
 20
50.5105789541719332
 30
0.0
 40
0.3149606299000008
 50
191.8808903183893904
 51
270.0
  0
ARC
  5
D2A4
  8
0
 10
4665.0066522682009236
 20
50.4416813163554565
 30
0.0
 40
0.0196850394208852
 50
11.8854073430880902
 51
89.9999999451279535
  0
LINE
  5
D2A5
  8
0
 10
4665.0066522682009236
 20
50.4613663557763488
 30
0.0
 11
4664.8508559404135667
 21
50.4613665455719271
 31
0.0
  0
ARC
  5
D2A6
  8
0
 10
4664.8508558440680645
 20
50.3822801909618505
 30
0.0
 40
0.0790863546101424
 50
89.999930200617257
 51
111.3434856342180979
  0
ARC
  5
D2A7
  8
0
 10
4664.8284070661447913
 20
50.439729457333307
 30
0.0
 40
0.0174068131324561
 50
111.3434856342188937
 51
173.5617750684137093
  0
LINE
  5
D2A8
  8
0
 10
4664.8111100320129481
 20
50.4416813163719198
 30
0.0
 11
4664.8111100320129481
 21
49.6444771734849013
 31
0.0
  0
ARC
  5
D2A9
  8
0
 10
4664.8272759512728953
 20
49.6455166655883176
 30
0.0
 40
0.0161993052112959
 50
183.6791367927255862
 51
251.2560917222355101
  0
ARC
  5
D2AA
  8
0
 10
4664.8497936272960942
 20
49.697989972978931
 30
0.0
 40
0.0732614456249228
 50
247.764536466083797
 51
271.4560427734248833
  0
ARC
  5
D2AB
  8
0
 10
4654.4569359843599159
 20
987.3917427465885339
 30
0.0
 40
937.82459915448635
 50
270.6350715646557887
 51
270.6389452995388183
  0
LINE
  5
D2AC
  8
0
 10
4664.9150571006130122
 20
49.6254571067719326
 30
0.0
 11
4665.530979133513938
 21
49.6254571067719326
 31
0.0
  0
ARC
  5
D2AD
  8
0
 10
4665.530979133513938
 20
49.6444372407659102
 30
0.0
 40
0.0189801339939813
 50
270.0
 51
351.2095970085898102
  0
ARC
  5
D2AE
  8
0
 10
4665.3024800456223602
 20
49.6629786244235305
 30
0.0
 40
0.2481842562571951
 50
355.0437397051636026
 51
0.0584099174391269
  0
ARC
  5
D2AF
  8
0
 10
4665.0178010265599369
 20
49.9443932902427576
 30
0.0
 40
0.0416401048481012
 50
223.8370473363542033
 51
255.0603428265430921
  0
LINE
  5
D2B0
  8
0
 10
4664.9877654968140632
 20
49.9155529489719285
 30
0.0
 11
4664.9877654968140632
 21
50.4416813163719269
 31
0.0
  0
ARC
  5
D2B1
  8
0
 10
4665.0090826626928902
 20
50.4413715833905769
 30
0.0
 40
0.0213194159316281
 50
110.3036553012672982
 51
179.1675655182334879
  0
LINE
  5
D2B2
  8
0
 10
4664.8280332045969772
 20
49.6280348200664818
 30
0.0
 11
4664.9877654978126884
 21
49.9155529477719213
 31
0.0
  0
LINE
  5
D2B3
  8
0
 10
4665.6599644382131373
 20
49.6247521824719371
 30
0.0
 11
4666.2888531492144466
 21
49.6247521824719371
 31
0.0
  0
LINE
  5
D2B4
  8
0
 10
4666.2888531492144466
 20
49.6247521824719371
 30
0.0
 11
4666.288853149312672
 21
50.4416813163719198
 31
0.0
  0
ARC
  5
D2B5
  8
0
 10
4666.2670696888026214
 20
50.4412309161304435
 30
0.0
 40
0.0217881163061911
 50
1.1844929981936221
 51
61.3283668033298284
  0
ARC
  5
D2B6
  8
0
 10
4666.2553544080901702
 20
50.2198210164731123
 30
0.0
 40
0.2415459213712404
 50
84.7340060455201467
 51
90.1257842809496736
  0
LINE
  5
D2B7
  8
0
 10
4666.2548241307104036
 20
50.4613663557719292
 30
0.0
 11
4665.9371957626135554
 21
50.4613663557719292
 31
0.0
  0
ARC
  5
D2B8
  8
0
 10
4665.9371957626135554
 20
50.4416955208955073
 30
0.0
 40
0.019670834876429
 50
90.0
 51
168.0800257533348088
  0
ARC
  5
D2B9
  8
0
 10
4665.6094368173426119
 20
50.5108845090463916
 30
0.0
 40
0.3153113173152216
 50
280.2049736918247049
 51
348.0800257533351783
  0
ARC
  5
D2BA
  8
0
 10
4665.668791146789772
 20
50.181171239183243
 30
0.0
 40
0.0197017820524964
 50
100.2049736918247049
 51
179.9592748486267908
  0
LINE
  5
D2BB
  8
0
 10
4665.6490893697136926
 20
50.1811852429848031
 30
0.0
 11
4665.6490893697136926
 21
49.663231633271927
 31
0.0
  0
ARC
  5
D2BC
  8
0
 10
4665.9110359644173514
 20
49.663231633271927
 30
0.0
 40
0.2619465947034314
 50
180.0000000000007958
 51
184.5243655444926105
  0
ARC
  5
D2BD
  8
0
 10
4665.8359412383533709
 20
49.6572894165712384
 30
0.0
 40
0.186617132857761
 50
184.5243655444922126
 51
190.8753071619269122
  0
ARC
  5
D2BE
  8
0
 10
4665.6592718811980376
 20
49.615364828945431
 30
0.0
 40
0.0094128657405491
 50
85.7806173477630978
 51
134.4879586036790045
  0
ARC
  5
D2BF
  8
0
 10
4665.6702991790680244
 20
49.9298898558331032
 30
0.0
 40
0.0282278368399441
 50
221.2900102404009886
 51
266.9035734543400054
  0
LINE
  5
D2C0
  8
0
 10
4665.6687744091141212
 20
49.9017032304719308
 30
0.0
 11
4665.7110750387128064
 21
49.9017050154719328
 31
0.0
  0
ARC
  5
D2C1
  8
0
 10
4665.6750227355551033
 20
49.0971525242863933
 30
0.0
 40
0.8053598448121622
 50
40.9281390847970101
 51
87.4342707104313632
  0
ARC
  5
D2C2
  8
0
 10
4664.2534200784139102
 20
51.4869569069724378
 30
0.0
 40
0.007874015699997
 50
359.9999999998448743
 51
89.9999999662846903
  0
LINE
  5
D2C3
  8
0
 10
4664.2612940941144188
 20
51.4869569069724164
 30
0.0
 11
4664.2612940941144188
 21
49.5342010013724305
 31
0.0
  0
ARC
  5
D2C4
  8
0
 10
4664.2534687607258093
 20
49.5341523190627271
 30
0.0
 40
0.0078254848179929
 50
270.3564391196215979
 51
0.3564421932706608
  0
ARC
  5
D2C5
  8
0
 10
4664.1943624603136413
 20
51.4869569054732992
 30
0.0
 40
0.0078740171991429
 50
0.0000109085758643
 51
90.0000109085945894
  0
ARC
  5
D2C6
  8
0
 10
4664.1505095999464174
 20
51.4751943403950492
 30
0.0
 40
0.0196365822832133
 50
90.0013975962971671
 51
120.4059709926078057
  0
LINE
  5
D2C7
  8
0
 10
4664.1405710613080373
 20
51.4921301253931034
 30
0.0
 11
4663.6516475880243888
 21
51.205258687397432
 31
0.0
  0
ARC
  5
D2C8
  8
0
 10
4663.6616058220361083
 20
51.1882865747511389
 30
0.0
 40
0.0196778818043304
 50
120.4018952402754934
 51
180.0214765219159005
  0
LINE
  5
D2C9
  8
0
 10
4663.6419279402316533
 20
51.1882865747511389
 30
0.0
 11
4663.6419277062141191
 21
51.1050671435724411
 31
0.0
  0
ARC
  5
D2CA
  8
0
 10
4663.6616139457009922
 20
51.1050670882136515
 30
0.0
 40
0.0196862394880097
 50
179.9998388811270047
 51
269.9180402538972885
  0
LINE
  5
D2CB
  8
0
 10
4663.6615857851866167
 20
51.0853808688669915
 30
0.0
 11
4663.7158353654140228
 21
51.0854664961724367
 31
0.0
  0
ARC
  5
D2CC
  8
0
 10
4664.1878962741129726
 20
51.4751458832725888
 30
0.0
 40
0.0196850393998334
 50
89.9999999997915552
 51
120.3448574588275051
  0
LINE
  5
D2CD
  8
0
 10
4664.1779445482907249
 20
51.492130109172443
 30
0.0
 11
4663.7451336012127285
 21
51.2385299448724325
 31
0.0
  0
ARC
  5
D2CE
  8
0
 10
4663.7550852866734203
 20
51.2215457153067533
 30
0.0
 40
0.0196850221597588
 50
120.367607975276897
 51
180.0000564732841895
  0
LINE
  5
D2CF
  8
0
 10
4663.7354002713163936
 20
51.2215620802975735
 30
0.0
 11
4663.7354002713163936
 21
49.7996122203724383
 31
0.0
  0
ARC
  5
D2D0
  8
0
 10
4663.7550853480479418
 20
49.7996122203724383
 30
0.0
 40
0.0196850767317471
 50
180.0000000000019895
 51
239.6321758336461016
  0
LINE
  5
D2D1
  8
0
 10
4663.7451335709129125
 20
49.7826279812724408
 30
0.0
 11
4664.1779445762940668
 21
49.5290277941717889
 31
0.0
  0
ARC
  5
D2D2
  8
0
 10
4664.188035811726877
 20
49.5465261090780373
 30
0.0
 40
0.0201996053699253
 50
240.0280562318394004
 51
269.6042011829209173
  0
LINE
  5
D2D3
  8
0
 10
4663.6419276999140493
 20
51.1882742191724418
 30
0.0
 11
4663.6665934785623904
 21
51.1882390766725166
 31
0.0
  0
ARC
  5
D2D4
  8
0
 10
4663.6361183223316402
 20
51.4637378964556902
 30
0.0
 40
0.2771792467864432
 50
276.3122873111209969
 51
290.9796849150116032
  0
ARC
  5
D2D5
  8
0
 10
4664.1505095990460177
 20
49.5459635647497691
 30
0.0
 40
0.0196365790831567
 50
239.5940264698575106
 51
269.9986049007719089
  0
LINE
  5
D2D6
  8
0
 10
4664.1405710528642885
 20
49.5290277878724368
 30
0.0
 11
4663.6516477505138027
 21
49.8158994521724381
 31
0.0
  0
ARC
  5
D2D7
  8
0
 10
4663.6616061679869745
 20
49.8328718581744212
 30
0.0
 40
0.0196782276655514
 50
179.9800506598228935
 51
239.5980762882329032
  0
LINE
  5
D2D8
  8
0
 10
4663.6419277253144173
 20
49.8329012604224388
 30
0.0
 11
4663.6419277062141191
 21
49.9160907649724379
 31
0.0
  0
ARC
  5
D2D9
  8
0
 10
4663.6616127597199011
 20
49.916090769492051
 30
0.0
 40
0.0196850535063012
 50
90.0783941942874122
 51
180.0000131548925992
  0
LINE
  5
D2DA
  8
0
 10
4663.6615858259137894
 20
49.9357758045724367
 30
0.0
 11
4663.7158405530135497
 21
49.9357758045724367
 31
0.0
  0
LINE
  5
D2DB
  8
0
 10
4663.6419279403207838
 20
49.8328718581744212
 30
0.0
 11
4663.6665934786142316
 21
49.8328718581744212
 31
0.0
  0
ARC
  5
D2DC
  8
0
 10
4663.6369746740374467
 20
49.5600121985994093
 30
0.0
 40
0.2744625063792148
 50
68.9992712277883697
 51
83.8048231705242728
  0
LINE
  5
D2DD
  8
0
 10
4663.6786169289152895
 20
51.0853821037724316
 30
0.0
 11
4663.6786169289152895
 21
49.9357758045724367
 31
0.0
  0
LINE
  5
D2DE
  8
0
 10
4663.7164691051893897
 20
51.0420750171724436
 30
0.0
 11
4663.7164716454135487
 21
49.979082891172439
 31
0.0
  0
ARC
  5
D2DF
  8
0
 10
4653.3002299138988747
 20
49.9729618739159207
 30
0.0
 40
10.4162435299968195
 50
359.8855058654057189
 51
0.0336693813176942
  0
ARC
  5
D2E0
  8
0
 10
4663.4211705849002101
 20
49.9547843328611307
 30
0.0
 40
0.2952938384497512
 50
357.0744060570829106
 51
359.488294032422175
  0
ARC
  5
D2E1
  8
0
 10
4662.7570223785587586
 20
49.9959579196454271
 30
0.0
 40
0.9607050424761046
 50
356.4084289356154045
 51
356.6436617620771017
  0
LINE
  5
D2E2
  8
0
 10
4663.7164708310483547
 20
49.979082891172439
 30
0.0
 11
4663.6864909445130252
 21
49.979082891172439
 31
0.0
  0
ARC
  5
D2E3
  8
0
 10
4663.6864909445130252
 20
49.9869569068724289
 30
0.0
 40
0.0078740156999935
 50
179.9999992722788988
 51
270.0
  0
ARC
  5
D2E4
  8
0
 10
7359.5604767383456419
 20
51.047855056812601
 30
0.0
 40
2695.8440076393521849
 50
179.999936796039691
 51
180.0001228453411102
  0
ARC
  5
D2E5
  8
0
 10
4663.1136413225103752
 20
51.0584821991163125
 30
0.0
 40
0.6028763581674313
 50
359.2726300222103077
 51
2.1828611827755129
  0
ARC
  5
D2E6
  8
0
 10
4663.6591903958651528
 20
51.0799995438045329
 30
0.0
 40
0.0569081729053955
 50
1.455554408945702
 51
5.5126897169099021
  0
LINE
  5
D2E7
  8
0
 10
4663.7164691051875707
 20
51.042075578536938
 30
0.0
 11
4663.6864909445130252
 21
51.0420750171724436
 31
0.0
  0
ARC
  5
D2E8
  8
0
 10
4663.6864910919639442
 20
51.0342008540225791
 30
0.0
 40
0.0078741631512379
 50
90.0010729082742245
 51
179.9989278193955045
  0
LINE
  5
D2E9
  8
0
 10
4663.6419295779141976
 20
51.105052427372442
 30
0.0
 11
4663.7122884747323042
 21
51.1050673652623928
 31
0.0
  0
ARC
  5
D2EA
  8
0
 10
4663.6964366786851315
 20
51.0954102491424607
 30
0.0
 40
0.0185617706498759
 50
2.655228859069485
 51
31.3503054039570195
  0
ARC
  5
D2EB
  8
0
 10
4664.0473629038833678
 20
51.117195972651821
 30
0.0
 40
0.3330424424025091
 50
183.6024003259645951
 51
185.466950543331194
  0
LINE
  5
D2EC
  8
0
 10
4663.6419277062141191
 20
49.9160907649724379
 30
0.0
 11
4663.7122751134138525
 21
49.9161043509724323
 31
0.0
  0
ARC
  5
D2ED
  8
0
 10
4663.6425095230833904
 20
49.9392643553158635
 30
0.0
 40
0.0735093422318372
 50
341.6354400301196961
 51
349.5154672485595029
  0
ARC
  5
D2EE
  8
0
 10
4663.5976157677296214
 20
49.9433184394139005
 30
0.0
 40
0.1184651475852311
 50
351.5389625291771836
 51
356.3495283648748
  0
LINE
  5
D2EF
  8
0
 10
4663.8441107259131968
 20
51.1824477777724383
 30
0.0
 11
4664.0742028824679437
 21
51.3172045851018694
 31
0.0
  0
ARC
  5
D2F0
  8
0
 10
4664.0841427881041454
 20
51.3002325718193219
 30
0.0
 40
0.0196685271164677
 50
0.1064973630654078
 51
120.3559914335047978
  0
LINE
  5
D2F1
  8
0
 10
4664.1038112812457257
 20
51.3002691302723974
 30
0.0
 11
4664.1038112812457257
 21
50.5794765919724298
 31
0.0
  0
ARC
  5
D2F2
  8
0
 10
4664.084126241845297
 20
50.5794765919724298
 30
0.0
 40
0.0196850394000023
 50
270.000001072792827
 51
0.0
  0
LINE
  5
D2F3
  8
0
 10
4664.0841262422127329
 20
50.5597915525724417
 30
0.0
 11
4663.8540626062140291
 21
50.5597915525724417
 31
0.0
  0
ARC
  5
D2F4
  8
0
 10
4663.8540626062140291
 20
50.5798113972287098
 30
0.0
 40
0.0200198446562681
 50
180.9582531153102138
 51
270.0
  0
LINE
  5
D2F5
  8
0
 10
4663.8340456586138316
 20
50.5794765919724298
 30
0.0
 11
4663.8340456586138316
 21
51.1651944840724369
 31
0.0
  0
ARC
  5
D2F6
  8
0
 10
4663.8538657844574118
 20
51.1651944818190429
 30
0.0
 40
0.019820125843035
 50
119.4839311225437939
 51
179.9999934858956863
  0
ARC
  5
D2F7
  8
0
 10
4664.0181311897022169
 20
50.5792704374797708
 30
0.0
 40
0.0194801317509486
 50
179.3936143322690953
 51
269.3517388481822081
  0
ARC
  5
D2F8
  8
0
 10
4664.4208495787643187
 20
50.5791599813892674
 30
0.0
 40
0.422197548570974
 50
155.0827835096714864
 51
179.957032148216399
  0
LINE
  5
D2F9
  8
0
 10
4664.0379512509716733
 20
50.7570353326724373
 30
0.0
 11
4664.0379663523153795
 21
51.284441820272427
 31
0.0
  0
ARC
  5
D2FA
  8
0
 10
4664.0582421635008359
 20
51.2844412397108513
 30
0.0
 40
0.0202758111961697
 50
123.0554526901166952
 51
179.9983594378630869
  0
ARC
  5
D2FB
  8
0
 10
4664.0584694935851076
 20
50.7586118338260519
 30
0.0
 40
0.0205787180302183
 50
184.3936385528973858
 51
266.2799156789592985
  0
LINE
  5
D2FC
  8
0
 10
4664.0571343028359479
 20
50.7380764763853378
 30
0.0
 11
4664.1038112812457257
 21
50.7380764763853378
 31
0.0
  0
LINE
  5
D2FD
  8
0
 10
4664.2022364775129972
 20
51.4869569054732992
 30
0.0
 11
4664.2022651351753666
 21
49.5342001350935917
 31
0.0
  0
ARC
  5
D2FE
  8
0
 10
4664.1943920457142667
 20
49.5342000195521521
 30
0.0
 40
0.007873089462104
 50
270.2152949691455888
 51
0.0008408436374909
  0
LINE
  5
D2FF
  8
0
 10
4663.8441107259131968
 20
49.83871013057243
 30
0.0
 11
4664.0742028824679437
 21
49.7039533232429989
 31
0.0
  0
ARC
  5
D300
  8
0
 10
4664.0841427881041454
 20
49.7209253365255535
 30
0.0
 40
0.0196685271164677
 50
239.6440085664953017
 51
359.8935026369346133
  0
LINE
  5
D301
  8
0
 10
4664.1038112812457257
 20
49.7208887780724709
 30
0.0
 11
4664.1038112812457257
 21
50.4416813163724385
 31
0.0
  0
ARC
  5
D302
  8
0
 10
4664.084126241845297
 20
50.4416813163724385
 30
0.0
 40
0.0196850394000023
 50
0.0
 51
89.9999989272071446
  0
LINE
  5
D303
  8
0
 10
4664.0841262422127329
 20
50.4613663557724266
 30
0.0
 11
4663.8540626062140291
 21
50.4613663557724408
 31
0.0
  0
ARC
  5
D304
  8
0
 10
4663.8540626062140291
 20
50.4413465111161585
 30
0.0
 40
0.0200198446562681
 50
90.0
 51
179.041746884689303
  0
LINE
  5
D305
  8
0
 10
4663.8340456586138316
 20
50.4416813163724385
 30
0.0
 11
4663.8340456586138316
 21
49.8559634242724385
 31
0.0
  0
ARC
  5
D306
  8
0
 10
4663.8538657844574118
 20
49.8559634265258396
 30
0.0
 40
0.019820125843035
 50
180.0000065141045127
 51
240.5160688774562061
  0
ARC
  5
D307
  8
0
 10
4664.0181311897022169
 20
50.4418874708651117
 30
0.0
 40
0.0194801317509486
 50
90.6482611518178203
 51
180.6063856677309047
  0
ARC
  5
D308
  8
0
 10
4664.4208495787643187
 20
50.441997926955608
 30
0.0
 40
0.422197548570974
 50
180.0429678517834873
 51
204.9172164903285136
  0
LINE
  5
D309
  8
0
 10
4664.0379512509716733
 20
50.2641225756724381
 30
0.0
 11
4664.0379663523153795
 21
49.7367160880724413
 31
0.0
  0
ARC
  5
D30A
  8
0
 10
4664.0582421635008359
 20
49.736716668634017
 30
0.0
 40
0.0202758111961697
 50
180.0016405621367994
 51
236.9445473098834896
  0
ARC
  5
D30B
  8
0
 10
4664.0584694935851076
 20
50.2625460745188235
 30
0.0
 40
0.0205787180302183
 50
93.7200843210406873
 51
175.6063614471023016
  0
LINE
  5
D30C
  8
0
 10
4664.0571343028359479
 20
50.2830814319595305
 30
0.0
 11
4664.1038112812457257
 21
50.2830814319595305
 31
0.0
  0
ENDSEC
  0
EOF
